  0
SECTION
  2
HEADER
  9
$ACADVER
  1
AC1014
  9
$ACADMAINTVER
 70
     9
  9
$DWGCODEPAGE
  3
ANSI_932
  9
$INSBASE
 10
0.0
 20
0.0
 30
0.0
  9
$EXTMIN
 10
1.000000000000000E+20
 20
1.000000000000000E+20
 30
1.000000000000000E+20
  9
$EXTMAX
 10
-1.000000000000000E+20
 20
-1.000000000000000E+20
 30
-1.000000000000000E+20
  9
$LIMMIN
 10
0.0
 20
0.0
  9
$LIMMAX
 10
12.0
 20
9.0
  9
$ORTHOMODE
 70
     0
  9
$REGENMODE
 70
     1
  9
$FILLMODE
 70
     1
  9
$QTEXTMODE
 70
     0
  9
$MIRRTEXT
 70
     1
  9
$DRAGMODE
 70
     2
  9
$LTSCALE
 40
1.0
  9
$OSMODE
 70
    37
  9
$ATTMODE
 70
     1
  9
$TEXTSIZE
 40
0.2
  9
$TRACEWID
 40
0.05
  9
$TEXTSTYLE
  7
STANDARD
  9
$CLAYER
  8
0
  9
$CELTYPE
  6
BYLAYER
  9
$CECOLOR
 62
   256
  9
$CELTSCALE
 40
1.0
  9
$DELOBJ
 70
     1
  9
$DISPSILH
 70
     0
  9
$DIMSCALE
 40
1.0
  9
$DIMASZ
 40
0.18
  9
$DIMEXO
 40
0.0625
  9
$DIMDLI
 40
0.38
  9
$DIMRND
 40
0.0
  9
$DIMDLE
 40
0.0
  9
$DIMEXE
 40
0.18
  9
$DIMTP
 40
0.0
  9
$DIMTM
 40
0.0
  9
$DIMTXT
 40
0.18
  9
$DIMCEN
 40
0.09
  9
$DIMTSZ
 40
0.0
  9
$DIMTOL
 70
     0
  9
$DIMLIM
 70
     0
  9
$DIMTIH
 70
     1
  9
$DIMTOH
 70
     1
  9
$DIMSE1
 70
     0
  9
$DIMSE2
 70
     0
  9
$DIMTAD
 70
     0
  9
$DIMZIN
 70
     0
  9
$DIMBLK
  1

  9
$DIMASO
 70
     1
  9
$DIMSHO
 70
     1
  9
$DIMPOST
  1

  9
$DIMAPOST
  1

  9
$DIMALT
 70
     0
  9
$DIMALTD
 70
     2
  9
$DIMALTF
 40
25.4
  9
$DIMLFAC
 40
1.0
  9
$DIMTOFL
 70
     0
  9
$DIMTVP
 40
0.0
  9
$DIMTIX
 70
     0
  9
$DIMSOXD
 70
     0
  9
$DIMSAH
 70
     0
  9
$DIMBLK1
  1

  9
$DIMBLK2
  1

  9
$DIMSTYLE
  2
STANDARD
  9
$DIMCLRD
 70
     0
  9
$DIMCLRE
 70
     0
  9
$DIMCLRT
 70
     0
  9
$DIMTFAC
 40
1.0
  9
$DIMGAP
 40
0.09
  9
$DIMJUST
 70
     0
  9
$DIMSD1
 70
     0
  9
$DIMSD2
 70
     0
  9
$DIMTOLJ
 70
     1
  9
$DIMTZIN
 70
     0
  9
$DIMALTZ
 70
     0
  9
$DIMALTTZ
 70
     0
  9
$DIMFIT
 70
     3
  9
$DIMUPT
 70
     0
  9
$DIMUNIT
 70
     2
  9
$DIMDEC
 70
     4
  9
$DIMTDEC
 70
     4
  9
$DIMALTU
 70
     2
  9
$DIMALTTD
 70
     2
  9
$DIMTXSTY
  7
STANDARD
  9
$DIMAUNIT
 70
     0
  9
$LUNITS
 70
     2
  9
$LUPREC
 70
     4
  9
$SKETCHINC
 40
0.1
  9
$FILLETRAD
 40
0.5
  9
$AUNITS
 70
     0
  9
$AUPREC
 70
     0
  9
$MENU
  1
.
  9
$ELEVATION
 40
0.0
  9
$PELEVATION
 40
0.0
  9
$THICKNESS
 40
0.0
  9
$LIMCHECK
 70
     0
  9
$CHAMFERA
 40
0.5
  9
$CHAMFERB
 40
0.5
  9
$CHAMFERC
 40
1.0
  9
$CHAMFERD
 40
0.0
  9
$SKPOLY
 70
     0
  9
$TDCREATE
 40
2458514.572365162
  9
$TDUPDATE
 40
2458514.572365174
  9
$TDINDWG
 40
0.0000000116
  9
$TDUSRTIMER
 40
0.0000000116
  9
$USRTIMER
 70
     1
  9
$ANGBASE
 50
0.0
  9
$ANGDIR
 70
     0
  9
$PDMODE
 70
     0
  9
$PDSIZE
 40
0.0
  9
$PLINEWID
 40
0.0
  9
$COORDS
 70
     1
  9
$SPLFRAME
 70
     0
  9
$SPLINETYPE
 70
     6
  9
$SPLINESEGS
 70
     8
  9
$ATTDIA
 70
     0
  9
$ATTREQ
 70
     1
  9
$HANDLING
 70
     1
  9
$HANDSEED
  5
9F1
  9
$SURFTAB1
 70
     6
  9
$SURFTAB2
 70
     6
  9
$SURFTYPE
 70
     6
  9
$SURFU
 70
     6
  9
$SURFV
 70
     6
  9
$UCSNAME
  2

  9
$UCSORG
 10
0.0
 20
0.0
 30
0.0
  9
$UCSXDIR
 10
1.0
 20
0.0
 30
0.0
  9
$UCSYDIR
 10
0.0
 20
1.0
 30
0.0
  9
$PUCSNAME
  2

  9
$PUCSORG
 10
0.0
 20
0.0
 30
0.0
  9
$PUCSXDIR
 10
1.0
 20
0.0
 30
0.0
  9
$PUCSYDIR
 10
0.0
 20
1.0
 30
0.0
  9
$USERI1
 70
     0
  9
$USERI2
 70
     0
  9
$USERI3
 70
     0
  9
$USERI4
 70
     0
  9
$USERI5
 70
     0
  9
$USERR1
 40
0.0
  9
$USERR2
 40
0.0
  9
$USERR3
 40
0.0
  9
$USERR4
 40
0.0
  9
$USERR5
 40
0.0
  9
$WORLDVIEW
 70
     1
  9
$SHADEDGE
 70
     3
  9
$SHADEDIF
 70
    70
  9
$TILEMODE
 70
     1
  9
$MAXACTVP
 70
    64
  9
$PINSBASE
 10
0.0
 20
0.0
 30
0.0
  9
$PLIMCHECK
 70
     0
  9
$PEXTMIN
 10
1.000000000000000E+20
 20
1.000000000000000E+20
 30
1.000000000000000E+20
  9
$PEXTMAX
 10
-1.000000000000000E+20
 20
-1.000000000000000E+20
 30
-1.000000000000000E+20
  9
$PLIMMIN
 10
0.0
 20
0.0
  9
$PLIMMAX
 10
12.0
 20
9.0
  9
$UNITMODE
 70
     0
  9
$VISRETAIN
 70
     1
  9
$PLINEGEN
 70
     0
  9
$PSLTSCALE
 70
     1
  9
$TREEDEPTH
 70
  3020
  9
$PICKSTYLE
 70
     1
  9
$CMLSTYLE
  2
STANDARD
  9
$CMLJUST
 70
     0
  9
$CMLSCALE
 40
1.0
  9
$PROXYGRAPHICS
 70
     1
  9
$MEASUREMENT
 70
     0
  0
ENDSEC
  0
SECTION
  2
CLASSES
  0
CLASS
  1
ACDBDICTIONARYWDFLT
  2
AcDbDictionaryWithDefault
  3
ObjectDBX Classes
 90
        0
280
     0
281
     0
  0
CLASS
  1
VISUALSTYLE
  2
AcDbVisualStyle
  3
ObjectDBX Classes
 90
     4095
280
     0
281
     0
  0
CLASS
  1
XRECORD
  2
AcDbXrecord
  3
AutoCAD 2000
 90
        0
280
     0
281
     0
  0
CLASS
  1
LWPOLYLINE
  2
AcDbPolyline
  3
AutoCAD 2000
 90
        0
280
     0
281
     1
  0
CLASS
  1
HATCH
  2
AcDbHatch
  3
AutoCAD 2000
 90
        0
280
     0
281
     1
  0
CLASS
  1
ACDBPLACEHOLDER
  2
AcDbPlaceHolder
  3
ObjectDBX Classes
 90
        0
280
     0
281
     0
  0
CLASS
  1
LAYOUT
  2
AcDbLayout
  3
ObjectDBX Classes
 90
        0
280
     0
281
     0
  0
ENDSEC
  0
SECTION
  2
TABLES
  0
TABLE
  2
VPORT
  5
8
330
0
100
AcDbSymbolTable
 70
     1
  0
VPORT
  5
29
330
8
100
AcDbSymbolTableRecord
100
AcDbViewportTableRecord
  2
*ACTIVE
 70
     0
 10
0.0
 20
0.0
 11
1.0
 21
1.0
 12
0.0
 22
0.0
 13
0.0
 23
0.0
 14
0.5
 24
0.5
 15
0.5
 25
0.5
 16
0.0
 26
0.0
 36
1.0
 17
105.0008259828644
 27
148.5000657452101
 37
0.0
 40
297.0001314904201
 41
0.7070759562020681
 42
50.0
 43
0.0
 44
0.0
 50
0.0
 51
0.0
 71
     0
 72
   100
 73
     1
 74
     3
 75
     0
 76
     0
 77
     0
 78
     0
  0
ENDTAB
  0
TABLE
  2
LTYPE
  5
5
330
0
100
AcDbSymbolTable
 70
     3
  0
LTYPE
  5
14
330
5
100
AcDbSymbolTableRecord
100
AcDbLinetypeTableRecord
  2
BYBLOCK
 70
     0
  3

 72
    65
 73
     0
 40
0.0
  0
LTYPE
  5
15
330
5
100
AcDbSymbolTableRecord
100
AcDbLinetypeTableRecord
  2
BYLAYER
 70
     0
  3

 72
    65
 73
     0
 40
0.0
  0
LTYPE
  5
16
330
5
100
AcDbSymbolTableRecord
100
AcDbLinetypeTableRecord
  2
CONTINUOUS
 70
     0
  3
Solid line
 72
    65
 73
     0
 40
0.0
  0
LTYPE
  5
72
330
5
100
AcDbSymbolTableRecord
100
AcDbLinetypeTableRecord
  2
AI-LINETYPE-1
 70
     0
  3
Adobe Illustrator Linetype No. 1
 72
    65
 73
     2
 40
2.000000055131002
 49
1.000000027565501
 74
     0
 49
-1.000000027565501
 74
     0
  0
LTYPE
  5
7B
330
5
100
AcDbSymbolTableRecord
100
AcDbLinetypeTableRecord
  2
AI-LINETYPE-2
 70
     0
  3
Adobe Illustrator Linetype No. 2
 72
    65
 73
     2
 40
2.000000055131002
 49
1.000000027565501
 74
     0
 49
-1.000000027565501
 74
     0
  0
ENDTAB
  0
TABLE
  2
LAYER
  5
2
330
0
100
AcDbSymbolTable
 70
     3
  0
LAYER
  5
10
330
2
100
AcDbSymbolTableRecord
100
AcDbLayerTableRecord
  2
0
 70
     0
 62
     7
  6
CONTINUOUS
  0
LAYER
  5
3B
330
2
100
AcDbSymbolTableRecord
100
AcDbLayerTableRecord
  2
GR1_16
 70
     0
 62
     7
  6
CONTINUOUS
  0
LAYER
  5
5C
330
2
100
AcDbSymbolTableRecord
100
AcDbLayerTableRecord
  2
GR2_01
 70
     0
 62
     7
  6
CONTINUOUS
  0
ENDTAB
  0
TABLE
  2
STYLE
  5
3
330
0
100
AcDbSymbolTable
 70
     1
  0
STYLE
  5
11
330
3
100
AcDbSymbolTableRecord
100
AcDbTextStyleTableRecord
  2
STANDARD
 70
     0
 40
0.0
 41
1.0
 50
0.0
 71
     0
 42
0.2
  3
txt
  4

  0
ENDTAB
  0
TABLE
  2
VIEW
  5
6
330
0
100
AcDbSymbolTable
 70
     0
  0
ENDTAB
  0
TABLE
  2
UCS
  5
7
330
0
100
AcDbSymbolTable
 70
     0
  0
ENDTAB
  0
TABLE
  2
APPID
  5
9
330
0
100
AcDbSymbolTable
 70
     1
  0
APPID
  5
12
330
9
100
AcDbSymbolTableRecord
100
AcDbRegAppTableRecord
  2
ACAD
 70
     0
  0
ENDTAB
  0
TABLE
  2
DIMSTYLE
  5
A
330
0
100
AcDbSymbolTable
 70
     1
  0
DIMSTYLE
105
27
330
A
100
AcDbSymbolTableRecord
100
AcDbDimStyleTableRecord
  2
STANDARD
 70
     0
  3

  4

  5

  6

  7

 40
1.0
 41
0.18
 42
0.0625
 43
0.38
 44
0.18
 45
0.0
 46
0.0
 47
0.0
 48
0.0
140
0.18
141
0.09
142
0.0
143
25.4
144
1.0
145
0.0
146
1.0
147
0.09
 71
     0
 72
     0
 73
     1
 74
     1
 75
     0
 76
     0
 77
     0
 78
     0
170
     0
171
     2
172
     0
173
     0
174
     0
175
     0
176
     0
177
     0
178
     0
270
     2
271
     4
272
     4
273
     2
274
     2
340
11
275
     0
280
     0
281
     0
282
     0
283
     1
284
     0
285
     0
286
     0
287
     3
288
     0
  0
ENDTAB
  0
TABLE
  2
BLOCK_RECORD
  5
1
330
0
100
AcDbSymbolTable
 70
   388
  0
BLOCK_RECORD
  5
1F
330
1
100
AcDbSymbolTableRecord
100
AcDbBlockTableRecord
  2
*MODEL_SPACE
  0
BLOCK_RECORD
  5
1B
330
1
100
AcDbSymbolTableRecord
100
AcDbBlockTableRecord
  2
*PAPER_SPACE
  0
BLOCK_RECORD
  5
3C
330
1
100
AcDbSymbolTableRecord
100
AcDbBlockTableRecord
  2
BLOCK_2
  0
BLOCK_RECORD
  5
44
330
1
100
AcDbSymbolTableRecord
100
AcDbBlockTableRecord
  2
BLOCK_3
  0
BLOCK_RECORD
  5
4C
330
1
100
AcDbSymbolTableRecord
100
AcDbBlockTableRecord
  2
BLOCK_4
  0
BLOCK_RECORD
  5
54
330
1
100
AcDbSymbolTableRecord
100
AcDbBlockTableRecord
  2
BLOCK_5
  0
BLOCK_RECORD
  5
5D
330
1
100
AcDbSymbolTableRecord
100
AcDbBlockTableRecord
  2
BLOCK_6
  0
BLOCK_RECORD
  5
65
330
1
100
AcDbSymbolTableRecord
100
AcDbBlockTableRecord
  2
BLOCK_7
  0
BLOCK_RECORD
  5
6A
330
1
100
AcDbSymbolTableRecord
100
AcDbBlockTableRecord
  2
BLOCK_8
  0
BLOCK_RECORD
  5
73
330
1
100
AcDbSymbolTableRecord
100
AcDbBlockTableRecord
  2
BLOCK_9
  0
BLOCK_RECORD
  5
7C
330
1
100
AcDbSymbolTableRecord
100
AcDbBlockTableRecord
  2
BLOCK_10
  0
BLOCK_RECORD
  5
81
330
1
100
AcDbSymbolTableRecord
100
AcDbBlockTableRecord
  2
BLOCK_11
  0
BLOCK_RECORD
  5
89
330
1
100
AcDbSymbolTableRecord
100
AcDbBlockTableRecord
  2
BLOCK_12
  0
BLOCK_RECORD
  5
8E
330
1
100
AcDbSymbolTableRecord
100
AcDbBlockTableRecord
  2
BLOCK_13
  0
BLOCK_RECORD
  5
96
330
1
100
AcDbSymbolTableRecord
100
AcDbBlockTableRecord
  2
BLOCK_14
  0
BLOCK_RECORD
  5
9E
330
1
100
AcDbSymbolTableRecord
100
AcDbBlockTableRecord
  2
BLOCK_15
  0
BLOCK_RECORD
  5
A6
330
1
100
AcDbSymbolTableRecord
100
AcDbBlockTableRecord
  2
BLOCK_16
  0
BLOCK_RECORD
  5
AE
330
1
100
AcDbSymbolTableRecord
100
AcDbBlockTableRecord
  2
BLOCK_17
  0
BLOCK_RECORD
  5
B6
330
1
100
AcDbSymbolTableRecord
100
AcDbBlockTableRecord
  2
BLOCK_18
  0
BLOCK_RECORD
  5
BE
330
1
100
AcDbSymbolTableRecord
100
AcDbBlockTableRecord
  2
BLOCK_19
  0
BLOCK_RECORD
  5
C6
330
1
100
AcDbSymbolTableRecord
100
AcDbBlockTableRecord
  2
BLOCK_20
  0
BLOCK_RECORD
  5
CE
330
1
100
AcDbSymbolTableRecord
100
AcDbBlockTableRecord
  2
BLOCK_21
  0
BLOCK_RECORD
  5
D6
330
1
100
AcDbSymbolTableRecord
100
AcDbBlockTableRecord
  2
BLOCK_22
  0
BLOCK_RECORD
  5
DE
330
1
100
AcDbSymbolTableRecord
100
AcDbBlockTableRecord
  2
BLOCK_23
  0
BLOCK_RECORD
  5
E6
330
1
100
AcDbSymbolTableRecord
100
AcDbBlockTableRecord
  2
BLOCK_24
  0
BLOCK_RECORD
  5
EE
330
1
100
AcDbSymbolTableRecord
100
AcDbBlockTableRecord
  2
BLOCK_25
  0
BLOCK_RECORD
  5
F6
330
1
100
AcDbSymbolTableRecord
100
AcDbBlockTableRecord
  2
BLOCK_26
  0
BLOCK_RECORD
  5
FE
330
1
100
AcDbSymbolTableRecord
100
AcDbBlockTableRecord
  2
BLOCK_27
  0
BLOCK_RECORD
  5
106
330
1
100
AcDbSymbolTableRecord
100
AcDbBlockTableRecord
  2
BLOCK_28
  0
BLOCK_RECORD
  5
10E
330
1
100
AcDbSymbolTableRecord
100
AcDbBlockTableRecord
  2
BLOCK_29
  0
BLOCK_RECORD
  5
116
330
1
100
AcDbSymbolTableRecord
100
AcDbBlockTableRecord
  2
BLOCK_30
  0
BLOCK_RECORD
  5
11E
330
1
100
AcDbSymbolTableRecord
100
AcDbBlockTableRecord
  2
BLOCK_31
  0
BLOCK_RECORD
  5
126
330
1
100
AcDbSymbolTableRecord
100
AcDbBlockTableRecord
  2
BLOCK_32
  0
BLOCK_RECORD
  5
12E
330
1
100
AcDbSymbolTableRecord
100
AcDbBlockTableRecord
  2
BLOCK_33
  0
BLOCK_RECORD
  5
136
330
1
100
AcDbSymbolTableRecord
100
AcDbBlockTableRecord
  2
BLOCK_34
  0
BLOCK_RECORD
  5
13E
330
1
100
AcDbSymbolTableRecord
100
AcDbBlockTableRecord
  2
BLOCK_35
  0
BLOCK_RECORD
  5
146
330
1
100
AcDbSymbolTableRecord
100
AcDbBlockTableRecord
  2
BLOCK_36
  0
BLOCK_RECORD
  5
14E
330
1
100
AcDbSymbolTableRecord
100
AcDbBlockTableRecord
  2
BLOCK_37
  0
BLOCK_RECORD
  5
156
330
1
100
AcDbSymbolTableRecord
100
AcDbBlockTableRecord
  2
BLOCK_38
  0
BLOCK_RECORD
  5
15E
330
1
100
AcDbSymbolTableRecord
100
AcDbBlockTableRecord
  2
BLOCK_39
  0
BLOCK_RECORD
  5
166
330
1
100
AcDbSymbolTableRecord
100
AcDbBlockTableRecord
  2
BLOCK_40
  0
BLOCK_RECORD
  5
16E
330
1
100
AcDbSymbolTableRecord
100
AcDbBlockTableRecord
  2
BLOCK_41
  0
BLOCK_RECORD
  5
176
330
1
100
AcDbSymbolTableRecord
100
AcDbBlockTableRecord
  2
BLOCK_42
  0
BLOCK_RECORD
  5
17E
330
1
100
AcDbSymbolTableRecord
100
AcDbBlockTableRecord
  2
BLOCK_43
  0
BLOCK_RECORD
  5
186
330
1
100
AcDbSymbolTableRecord
100
AcDbBlockTableRecord
  2
BLOCK_44
  0
BLOCK_RECORD
  5
18E
330
1
100
AcDbSymbolTableRecord
100
AcDbBlockTableRecord
  2
BLOCK_45
  0
BLOCK_RECORD
  5
196
330
1
100
AcDbSymbolTableRecord
100
AcDbBlockTableRecord
  2
BLOCK_46
  0
BLOCK_RECORD
  5
19E
330
1
100
AcDbSymbolTableRecord
100
AcDbBlockTableRecord
  2
BLOCK_47
  0
BLOCK_RECORD
  5
1A6
330
1
100
AcDbSymbolTableRecord
100
AcDbBlockTableRecord
  2
BLOCK_48
  0
BLOCK_RECORD
  5
1AE
330
1
100
AcDbSymbolTableRecord
100
AcDbBlockTableRecord
  2
BLOCK_49
  0
BLOCK_RECORD
  5
1B6
330
1
100
AcDbSymbolTableRecord
100
AcDbBlockTableRecord
  2
BLOCK_50
  0
BLOCK_RECORD
  5
1BE
330
1
100
AcDbSymbolTableRecord
100
AcDbBlockTableRecord
  2
BLOCK_51
  0
BLOCK_RECORD
  5
1C6
330
1
100
AcDbSymbolTableRecord
100
AcDbBlockTableRecord
  2
BLOCK_52
  0
BLOCK_RECORD
  5
1CE
330
1
100
AcDbSymbolTableRecord
100
AcDbBlockTableRecord
  2
BLOCK_53
  0
BLOCK_RECORD
  5
1D6
330
1
100
AcDbSymbolTableRecord
100
AcDbBlockTableRecord
  2
BLOCK_54
  0
BLOCK_RECORD
  5
1DE
330
1
100
AcDbSymbolTableRecord
100
AcDbBlockTableRecord
  2
BLOCK_55
  0
BLOCK_RECORD
  5
1E6
330
1
100
AcDbSymbolTableRecord
100
AcDbBlockTableRecord
  2
BLOCK_56
  0
BLOCK_RECORD
  5
1EE
330
1
100
AcDbSymbolTableRecord
100
AcDbBlockTableRecord
  2
BLOCK_57
  0
BLOCK_RECORD
  5
1F6
330
1
100
AcDbSymbolTableRecord
100
AcDbBlockTableRecord
  2
BLOCK_58
  0
BLOCK_RECORD
  5
1FE
330
1
100
AcDbSymbolTableRecord
100
AcDbBlockTableRecord
  2
BLOCK_59
  0
BLOCK_RECORD
  5
206
330
1
100
AcDbSymbolTableRecord
100
AcDbBlockTableRecord
  2
BLOCK_60
  0
BLOCK_RECORD
  5
20E
330
1
100
AcDbSymbolTableRecord
100
AcDbBlockTableRecord
  2
BLOCK_61
  0
BLOCK_RECORD
  5
216
330
1
100
AcDbSymbolTableRecord
100
AcDbBlockTableRecord
  2
BLOCK_62
  0
BLOCK_RECORD
  5
21E
330
1
100
AcDbSymbolTableRecord
100
AcDbBlockTableRecord
  2
BLOCK_63
  0
BLOCK_RECORD
  5
226
330
1
100
AcDbSymbolTableRecord
100
AcDbBlockTableRecord
  2
BLOCK_64
  0
BLOCK_RECORD
  5
22E
330
1
100
AcDbSymbolTableRecord
100
AcDbBlockTableRecord
  2
BLOCK_65
  0
BLOCK_RECORD
  5
236
330
1
100
AcDbSymbolTableRecord
100
AcDbBlockTableRecord
  2
BLOCK_66
  0
BLOCK_RECORD
  5
23E
330
1
100
AcDbSymbolTableRecord
100
AcDbBlockTableRecord
  2
BLOCK_67
  0
BLOCK_RECORD
  5
246
330
1
100
AcDbSymbolTableRecord
100
AcDbBlockTableRecord
  2
BLOCK_68
  0
BLOCK_RECORD
  5
24E
330
1
100
AcDbSymbolTableRecord
100
AcDbBlockTableRecord
  2
BLOCK_69
  0
BLOCK_RECORD
  5
256
330
1
100
AcDbSymbolTableRecord
100
AcDbBlockTableRecord
  2
BLOCK_70
  0
BLOCK_RECORD
  5
25E
330
1
100
AcDbSymbolTableRecord
100
AcDbBlockTableRecord
  2
BLOCK_71
  0
BLOCK_RECORD
  5
266
330
1
100
AcDbSymbolTableRecord
100
AcDbBlockTableRecord
  2
BLOCK_72
  0
BLOCK_RECORD
  5
26E
330
1
100
AcDbSymbolTableRecord
100
AcDbBlockTableRecord
  2
BLOCK_73
  0
BLOCK_RECORD
  5
276
330
1
100
AcDbSymbolTableRecord
100
AcDbBlockTableRecord
  2
BLOCK_74
  0
BLOCK_RECORD
  5
27E
330
1
100
AcDbSymbolTableRecord
100
AcDbBlockTableRecord
  2
BLOCK_75
  0
BLOCK_RECORD
  5
286
330
1
100
AcDbSymbolTableRecord
100
AcDbBlockTableRecord
  2
BLOCK_76
  0
BLOCK_RECORD
  5
28E
330
1
100
AcDbSymbolTableRecord
100
AcDbBlockTableRecord
  2
BLOCK_77
  0
BLOCK_RECORD
  5
296
330
1
100
AcDbSymbolTableRecord
100
AcDbBlockTableRecord
  2
BLOCK_78
  0
BLOCK_RECORD
  5
29E
330
1
100
AcDbSymbolTableRecord
100
AcDbBlockTableRecord
  2
BLOCK_79
  0
BLOCK_RECORD
  5
2A6
330
1
100
AcDbSymbolTableRecord
100
AcDbBlockTableRecord
  2
BLOCK_80
  0
BLOCK_RECORD
  5
2AE
330
1
100
AcDbSymbolTableRecord
100
AcDbBlockTableRecord
  2
BLOCK_81
  0
BLOCK_RECORD
  5
2B6
330
1
100
AcDbSymbolTableRecord
100
AcDbBlockTableRecord
  2
BLOCK_82
  0
BLOCK_RECORD
  5
2BE
330
1
100
AcDbSymbolTableRecord
100
AcDbBlockTableRecord
  2
BLOCK_83
  0
BLOCK_RECORD
  5
2C6
330
1
100
AcDbSymbolTableRecord
100
AcDbBlockTableRecord
  2
BLOCK_84
  0
BLOCK_RECORD
  5
2CE
330
1
100
AcDbSymbolTableRecord
100
AcDbBlockTableRecord
  2
BLOCK_85
  0
BLOCK_RECORD
  5
2D6
330
1
100
AcDbSymbolTableRecord
100
AcDbBlockTableRecord
  2
BLOCK_86
  0
BLOCK_RECORD
  5
2DE
330
1
100
AcDbSymbolTableRecord
100
AcDbBlockTableRecord
  2
BLOCK_87
  0
BLOCK_RECORD
  5
2E6
330
1
100
AcDbSymbolTableRecord
100
AcDbBlockTableRecord
  2
BLOCK_88
  0
BLOCK_RECORD
  5
2EE
330
1
100
AcDbSymbolTableRecord
100
AcDbBlockTableRecord
  2
BLOCK_89
  0
BLOCK_RECORD
  5
2F6
330
1
100
AcDbSymbolTableRecord
100
AcDbBlockTableRecord
  2
BLOCK_90
  0
BLOCK_RECORD
  5
2FE
330
1
100
AcDbSymbolTableRecord
100
AcDbBlockTableRecord
  2
BLOCK_91
  0
BLOCK_RECORD
  5
303
330
1
100
AcDbSymbolTableRecord
100
AcDbBlockTableRecord
  2
BLOCK_92
  0
BLOCK_RECORD
  5
308
330
1
100
AcDbSymbolTableRecord
100
AcDbBlockTableRecord
  2
BLOCK_93
  0
BLOCK_RECORD
  5
30D
330
1
100
AcDbSymbolTableRecord
100
AcDbBlockTableRecord
  2
BLOCK_94
  0
BLOCK_RECORD
  5
312
330
1
100
AcDbSymbolTableRecord
100
AcDbBlockTableRecord
  2
BLOCK_95
  0
BLOCK_RECORD
  5
317
330
1
100
AcDbSymbolTableRecord
100
AcDbBlockTableRecord
  2
BLOCK_96
  0
BLOCK_RECORD
  5
31C
330
1
100
AcDbSymbolTableRecord
100
AcDbBlockTableRecord
  2
BLOCK_97
  0
BLOCK_RECORD
  5
321
330
1
100
AcDbSymbolTableRecord
100
AcDbBlockTableRecord
  2
BLOCK_98
  0
BLOCK_RECORD
  5
326
330
1
100
AcDbSymbolTableRecord
100
AcDbBlockTableRecord
  2
BLOCK_99
  0
BLOCK_RECORD
  5
32B
330
1
100
AcDbSymbolTableRecord
100
AcDbBlockTableRecord
  2
BLOCK_100
  0
BLOCK_RECORD
  5
330
330
1
100
AcDbSymbolTableRecord
100
AcDbBlockTableRecord
  2
BLOCK_101
  0
BLOCK_RECORD
  5
335
330
1
100
AcDbSymbolTableRecord
100
AcDbBlockTableRecord
  2
BLOCK_102
  0
BLOCK_RECORD
  5
33A
330
1
100
AcDbSymbolTableRecord
100
AcDbBlockTableRecord
  2
BLOCK_103
  0
BLOCK_RECORD
  5
33F
330
1
100
AcDbSymbolTableRecord
100
AcDbBlockTableRecord
  2
BLOCK_104
  0
BLOCK_RECORD
  5
344
330
1
100
AcDbSymbolTableRecord
100
AcDbBlockTableRecord
  2
BLOCK_105
  0
BLOCK_RECORD
  5
349
330
1
100
AcDbSymbolTableRecord
100
AcDbBlockTableRecord
  2
BLOCK_106
  0
BLOCK_RECORD
  5
34E
330
1
100
AcDbSymbolTableRecord
100
AcDbBlockTableRecord
  2
BLOCK_107
  0
BLOCK_RECORD
  5
353
330
1
100
AcDbSymbolTableRecord
100
AcDbBlockTableRecord
  2
BLOCK_108
  0
BLOCK_RECORD
  5
358
330
1
100
AcDbSymbolTableRecord
100
AcDbBlockTableRecord
  2
BLOCK_109
  0
BLOCK_RECORD
  5
35D
330
1
100
AcDbSymbolTableRecord
100
AcDbBlockTableRecord
  2
BLOCK_110
  0
BLOCK_RECORD
  5
362
330
1
100
AcDbSymbolTableRecord
100
AcDbBlockTableRecord
  2
BLOCK_111
  0
BLOCK_RECORD
  5
367
330
1
100
AcDbSymbolTableRecord
100
AcDbBlockTableRecord
  2
BLOCK_112
  0
BLOCK_RECORD
  5
36C
330
1
100
AcDbSymbolTableRecord
100
AcDbBlockTableRecord
  2
BLOCK_113
  0
BLOCK_RECORD
  5
371
330
1
100
AcDbSymbolTableRecord
100
AcDbBlockTableRecord
  2
BLOCK_114
  0
BLOCK_RECORD
  5
376
330
1
100
AcDbSymbolTableRecord
100
AcDbBlockTableRecord
  2
BLOCK_115
  0
BLOCK_RECORD
  5
37B
330
1
100
AcDbSymbolTableRecord
100
AcDbBlockTableRecord
  2
BLOCK_116
  0
BLOCK_RECORD
  5
380
330
1
100
AcDbSymbolTableRecord
100
AcDbBlockTableRecord
  2
BLOCK_117
  0
BLOCK_RECORD
  5
385
330
1
100
AcDbSymbolTableRecord
100
AcDbBlockTableRecord
  2
BLOCK_118
  0
BLOCK_RECORD
  5
38A
330
1
100
AcDbSymbolTableRecord
100
AcDbBlockTableRecord
  2
BLOCK_119
  0
BLOCK_RECORD
  5
38F
330
1
100
AcDbSymbolTableRecord
100
AcDbBlockTableRecord
  2
BLOCK_120
  0
BLOCK_RECORD
  5
394
330
1
100
AcDbSymbolTableRecord
100
AcDbBlockTableRecord
  2
BLOCK_121
  0
BLOCK_RECORD
  5
399
330
1
100
AcDbSymbolTableRecord
100
AcDbBlockTableRecord
  2
BLOCK_122
  0
BLOCK_RECORD
  5
39E
330
1
100
AcDbSymbolTableRecord
100
AcDbBlockTableRecord
  2
BLOCK_123
  0
BLOCK_RECORD
  5
3A3
330
1
100
AcDbSymbolTableRecord
100
AcDbBlockTableRecord
  2
BLOCK_124
  0
BLOCK_RECORD
  5
3A8
330
1
100
AcDbSymbolTableRecord
100
AcDbBlockTableRecord
  2
BLOCK_125
  0
BLOCK_RECORD
  5
3AD
330
1
100
AcDbSymbolTableRecord
100
AcDbBlockTableRecord
  2
BLOCK_126
  0
BLOCK_RECORD
  5
3B2
330
1
100
AcDbSymbolTableRecord
100
AcDbBlockTableRecord
  2
BLOCK_127
  0
BLOCK_RECORD
  5
3B7
330
1
100
AcDbSymbolTableRecord
100
AcDbBlockTableRecord
  2
BLOCK_128
  0
BLOCK_RECORD
  5
3BC
330
1
100
AcDbSymbolTableRecord
100
AcDbBlockTableRecord
  2
BLOCK_129
  0
BLOCK_RECORD
  5
3C1
330
1
100
AcDbSymbolTableRecord
100
AcDbBlockTableRecord
  2
BLOCK_130
  0
BLOCK_RECORD
  5
3C6
330
1
100
AcDbSymbolTableRecord
100
AcDbBlockTableRecord
  2
BLOCK_131
  0
BLOCK_RECORD
  5
3CB
330
1
100
AcDbSymbolTableRecord
100
AcDbBlockTableRecord
  2
BLOCK_132
  0
BLOCK_RECORD
  5
3D0
330
1
100
AcDbSymbolTableRecord
100
AcDbBlockTableRecord
  2
BLOCK_133
  0
BLOCK_RECORD
  5
3D5
330
1
100
AcDbSymbolTableRecord
100
AcDbBlockTableRecord
  2
BLOCK_134
  0
BLOCK_RECORD
  5
3DA
330
1
100
AcDbSymbolTableRecord
100
AcDbBlockTableRecord
  2
BLOCK_135
  0
BLOCK_RECORD
  5
3DF
330
1
100
AcDbSymbolTableRecord
100
AcDbBlockTableRecord
  2
BLOCK_136
  0
BLOCK_RECORD
  5
3E4
330
1
100
AcDbSymbolTableRecord
100
AcDbBlockTableRecord
  2
BLOCK_137
  0
BLOCK_RECORD
  5
3E9
330
1
100
AcDbSymbolTableRecord
100
AcDbBlockTableRecord
  2
BLOCK_138
  0
BLOCK_RECORD
  5
3EE
330
1
100
AcDbSymbolTableRecord
100
AcDbBlockTableRecord
  2
BLOCK_139
  0
BLOCK_RECORD
  5
3F3
330
1
100
AcDbSymbolTableRecord
100
AcDbBlockTableRecord
  2
BLOCK_140
  0
BLOCK_RECORD
  5
3F8
330
1
100
AcDbSymbolTableRecord
100
AcDbBlockTableRecord
  2
BLOCK_141
  0
BLOCK_RECORD
  5
3FD
330
1
100
AcDbSymbolTableRecord
100
AcDbBlockTableRecord
  2
BLOCK_142
  0
BLOCK_RECORD
  5
402
330
1
100
AcDbSymbolTableRecord
100
AcDbBlockTableRecord
  2
BLOCK_143
  0
BLOCK_RECORD
  5
407
330
1
100
AcDbSymbolTableRecord
100
AcDbBlockTableRecord
  2
BLOCK_144
  0
BLOCK_RECORD
  5
40C
330
1
100
AcDbSymbolTableRecord
100
AcDbBlockTableRecord
  2
BLOCK_145
  0
BLOCK_RECORD
  5
411
330
1
100
AcDbSymbolTableRecord
100
AcDbBlockTableRecord
  2
BLOCK_146
  0
BLOCK_RECORD
  5
416
330
1
100
AcDbSymbolTableRecord
100
AcDbBlockTableRecord
  2
BLOCK_147
  0
BLOCK_RECORD
  5
41B
330
1
100
AcDbSymbolTableRecord
100
AcDbBlockTableRecord
  2
BLOCK_148
  0
BLOCK_RECORD
  5
420
330
1
100
AcDbSymbolTableRecord
100
AcDbBlockTableRecord
  2
BLOCK_149
  0
BLOCK_RECORD
  5
425
330
1
100
AcDbSymbolTableRecord
100
AcDbBlockTableRecord
  2
BLOCK_150
  0
BLOCK_RECORD
  5
42A
330
1
100
AcDbSymbolTableRecord
100
AcDbBlockTableRecord
  2
BLOCK_151
  0
BLOCK_RECORD
  5
42F
330
1
100
AcDbSymbolTableRecord
100
AcDbBlockTableRecord
  2
BLOCK_152
  0
BLOCK_RECORD
  5
434
330
1
100
AcDbSymbolTableRecord
100
AcDbBlockTableRecord
  2
BLOCK_153
  0
BLOCK_RECORD
  5
439
330
1
100
AcDbSymbolTableRecord
100
AcDbBlockTableRecord
  2
BLOCK_154
  0
BLOCK_RECORD
  5
43E
330
1
100
AcDbSymbolTableRecord
100
AcDbBlockTableRecord
  2
BLOCK_155
  0
BLOCK_RECORD
  5
443
330
1
100
AcDbSymbolTableRecord
100
AcDbBlockTableRecord
  2
BLOCK_156
  0
BLOCK_RECORD
  5
448
330
1
100
AcDbSymbolTableRecord
100
AcDbBlockTableRecord
  2
BLOCK_157
  0
BLOCK_RECORD
  5
44D
330
1
100
AcDbSymbolTableRecord
100
AcDbBlockTableRecord
  2
BLOCK_158
  0
BLOCK_RECORD
  5
452
330
1
100
AcDbSymbolTableRecord
100
AcDbBlockTableRecord
  2
BLOCK_159
  0
BLOCK_RECORD
  5
457
330
1
100
AcDbSymbolTableRecord
100
AcDbBlockTableRecord
  2
BLOCK_160
  0
BLOCK_RECORD
  5
45C
330
1
100
AcDbSymbolTableRecord
100
AcDbBlockTableRecord
  2
BLOCK_161
  0
BLOCK_RECORD
  5
461
330
1
100
AcDbSymbolTableRecord
100
AcDbBlockTableRecord
  2
BLOCK_162
  0
BLOCK_RECORD
  5
466
330
1
100
AcDbSymbolTableRecord
100
AcDbBlockTableRecord
  2
BLOCK_163
  0
BLOCK_RECORD
  5
46B
330
1
100
AcDbSymbolTableRecord
100
AcDbBlockTableRecord
  2
BLOCK_164
  0
BLOCK_RECORD
  5
470
330
1
100
AcDbSymbolTableRecord
100
AcDbBlockTableRecord
  2
BLOCK_165
  0
BLOCK_RECORD
  5
475
330
1
100
AcDbSymbolTableRecord
100
AcDbBlockTableRecord
  2
BLOCK_166
  0
BLOCK_RECORD
  5
47A
330
1
100
AcDbSymbolTableRecord
100
AcDbBlockTableRecord
  2
BLOCK_167
  0
BLOCK_RECORD
  5
47F
330
1
100
AcDbSymbolTableRecord
100
AcDbBlockTableRecord
  2
BLOCK_168
  0
BLOCK_RECORD
  5
484
330
1
100
AcDbSymbolTableRecord
100
AcDbBlockTableRecord
  2
BLOCK_169
  0
BLOCK_RECORD
  5
489
330
1
100
AcDbSymbolTableRecord
100
AcDbBlockTableRecord
  2
BLOCK_170
  0
BLOCK_RECORD
  5
48E
330
1
100
AcDbSymbolTableRecord
100
AcDbBlockTableRecord
  2
BLOCK_171
  0
BLOCK_RECORD
  5
493
330
1
100
AcDbSymbolTableRecord
100
AcDbBlockTableRecord
  2
BLOCK_172
  0
BLOCK_RECORD
  5
498
330
1
100
AcDbSymbolTableRecord
100
AcDbBlockTableRecord
  2
BLOCK_173
  0
BLOCK_RECORD
  5
49D
330
1
100
AcDbSymbolTableRecord
100
AcDbBlockTableRecord
  2
BLOCK_174
  0
BLOCK_RECORD
  5
4A2
330
1
100
AcDbSymbolTableRecord
100
AcDbBlockTableRecord
  2
BLOCK_175
  0
BLOCK_RECORD
  5
4A7
330
1
100
AcDbSymbolTableRecord
100
AcDbBlockTableRecord
  2
BLOCK_176
  0
BLOCK_RECORD
  5
4AC
330
1
100
AcDbSymbolTableRecord
100
AcDbBlockTableRecord
  2
BLOCK_177
  0
BLOCK_RECORD
  5
4B1
330
1
100
AcDbSymbolTableRecord
100
AcDbBlockTableRecord
  2
BLOCK_178
  0
BLOCK_RECORD
  5
4B6
330
1
100
AcDbSymbolTableRecord
100
AcDbBlockTableRecord
  2
BLOCK_179
  0
BLOCK_RECORD
  5
4BB
330
1
100
AcDbSymbolTableRecord
100
AcDbBlockTableRecord
  2
BLOCK_180
  0
BLOCK_RECORD
  5
4C0
330
1
100
AcDbSymbolTableRecord
100
AcDbBlockTableRecord
  2
BLOCK_181
  0
BLOCK_RECORD
  5
4C5
330
1
100
AcDbSymbolTableRecord
100
AcDbBlockTableRecord
  2
BLOCK_182
  0
BLOCK_RECORD
  5
4CA
330
1
100
AcDbSymbolTableRecord
100
AcDbBlockTableRecord
  2
BLOCK_183
  0
BLOCK_RECORD
  5
4CF
330
1
100
AcDbSymbolTableRecord
100
AcDbBlockTableRecord
  2
BLOCK_184
  0
BLOCK_RECORD
  5
4D4
330
1
100
AcDbSymbolTableRecord
100
AcDbBlockTableRecord
  2
BLOCK_185
  0
BLOCK_RECORD
  5
4D9
330
1
100
AcDbSymbolTableRecord
100
AcDbBlockTableRecord
  2
BLOCK_186
  0
BLOCK_RECORD
  5
4DE
330
1
100
AcDbSymbolTableRecord
100
AcDbBlockTableRecord
  2
BLOCK_187
  0
BLOCK_RECORD
  5
4E3
330
1
100
AcDbSymbolTableRecord
100
AcDbBlockTableRecord
  2
BLOCK_188
  0
BLOCK_RECORD
  5
4E8
330
1
100
AcDbSymbolTableRecord
100
AcDbBlockTableRecord
  2
BLOCK_189
  0
BLOCK_RECORD
  5
4ED
330
1
100
AcDbSymbolTableRecord
100
AcDbBlockTableRecord
  2
BLOCK_190
  0
BLOCK_RECORD
  5
4F2
330
1
100
AcDbSymbolTableRecord
100
AcDbBlockTableRecord
  2
BLOCK_191
  0
BLOCK_RECORD
  5
4F7
330
1
100
AcDbSymbolTableRecord
100
AcDbBlockTableRecord
  2
BLOCK_192
  0
BLOCK_RECORD
  5
4FC
330
1
100
AcDbSymbolTableRecord
100
AcDbBlockTableRecord
  2
BLOCK_193
  0
BLOCK_RECORD
  5
501
330
1
100
AcDbSymbolTableRecord
100
AcDbBlockTableRecord
  2
BLOCK_194
  0
BLOCK_RECORD
  5
506
330
1
100
AcDbSymbolTableRecord
100
AcDbBlockTableRecord
  2
BLOCK_195
  0
BLOCK_RECORD
  5
50B
330
1
100
AcDbSymbolTableRecord
100
AcDbBlockTableRecord
  2
BLOCK_196
  0
BLOCK_RECORD
  5
510
330
1
100
AcDbSymbolTableRecord
100
AcDbBlockTableRecord
  2
BLOCK_197
  0
BLOCK_RECORD
  5
515
330
1
100
AcDbSymbolTableRecord
100
AcDbBlockTableRecord
  2
BLOCK_198
  0
BLOCK_RECORD
  5
51D
330
1
100
AcDbSymbolTableRecord
100
AcDbBlockTableRecord
  2
BLOCK_199
  0
BLOCK_RECORD
  5
52A
330
1
100
AcDbSymbolTableRecord
100
AcDbBlockTableRecord
  2
BLOCK_200
  0
BLOCK_RECORD
  5
532
330
1
100
AcDbSymbolTableRecord
100
AcDbBlockTableRecord
  2
BLOCK_201
  0
BLOCK_RECORD
  5
53A
330
1
100
AcDbSymbolTableRecord
100
AcDbBlockTableRecord
  2
BLOCK_202
  0
BLOCK_RECORD
  5
542
330
1
100
AcDbSymbolTableRecord
100
AcDbBlockTableRecord
  2
BLOCK_203
  0
BLOCK_RECORD
  5
54A
330
1
100
AcDbSymbolTableRecord
100
AcDbBlockTableRecord
  2
BLOCK_204
  0
BLOCK_RECORD
  5
552
330
1
100
AcDbSymbolTableRecord
100
AcDbBlockTableRecord
  2
BLOCK_205
  0
BLOCK_RECORD
  5
55A
330
1
100
AcDbSymbolTableRecord
100
AcDbBlockTableRecord
  2
BLOCK_206
  0
BLOCK_RECORD
  5
562
330
1
100
AcDbSymbolTableRecord
100
AcDbBlockTableRecord
  2
BLOCK_207
  0
BLOCK_RECORD
  5
56A
330
1
100
AcDbSymbolTableRecord
100
AcDbBlockTableRecord
  2
BLOCK_208
  0
BLOCK_RECORD
  5
572
330
1
100
AcDbSymbolTableRecord
100
AcDbBlockTableRecord
  2
BLOCK_209
  0
BLOCK_RECORD
  5
57A
330
1
100
AcDbSymbolTableRecord
100
AcDbBlockTableRecord
  2
BLOCK_210
  0
BLOCK_RECORD
  5
582
330
1
100
AcDbSymbolTableRecord
100
AcDbBlockTableRecord
  2
BLOCK_211
  0
BLOCK_RECORD
  5
58A
330
1
100
AcDbSymbolTableRecord
100
AcDbBlockTableRecord
  2
BLOCK_212
  0
BLOCK_RECORD
  5
592
330
1
100
AcDbSymbolTableRecord
100
AcDbBlockTableRecord
  2
BLOCK_213
  0
BLOCK_RECORD
  5
59A
330
1
100
AcDbSymbolTableRecord
100
AcDbBlockTableRecord
  2
BLOCK_214
  0
BLOCK_RECORD
  5
5A2
330
1
100
AcDbSymbolTableRecord
100
AcDbBlockTableRecord
  2
BLOCK_215
  0
BLOCK_RECORD
  5
5AA
330
1
100
AcDbSymbolTableRecord
100
AcDbBlockTableRecord
  2
BLOCK_216
  0
BLOCK_RECORD
  5
5B2
330
1
100
AcDbSymbolTableRecord
100
AcDbBlockTableRecord
  2
BLOCK_217
  0
BLOCK_RECORD
  5
5BA
330
1
100
AcDbSymbolTableRecord
100
AcDbBlockTableRecord
  2
BLOCK_218
  0
BLOCK_RECORD
  5
5C2
330
1
100
AcDbSymbolTableRecord
100
AcDbBlockTableRecord
  2
BLOCK_219
  0
BLOCK_RECORD
  5
5CA
330
1
100
AcDbSymbolTableRecord
100
AcDbBlockTableRecord
  2
BLOCK_220
  0
BLOCK_RECORD
  5
5D2
330
1
100
AcDbSymbolTableRecord
100
AcDbBlockTableRecord
  2
BLOCK_221
  0
BLOCK_RECORD
  5
5DA
330
1
100
AcDbSymbolTableRecord
100
AcDbBlockTableRecord
  2
BLOCK_222
  0
BLOCK_RECORD
  5
5E2
330
1
100
AcDbSymbolTableRecord
100
AcDbBlockTableRecord
  2
BLOCK_223
  0
BLOCK_RECORD
  5
5EA
330
1
100
AcDbSymbolTableRecord
100
AcDbBlockTableRecord
  2
BLOCK_224
  0
BLOCK_RECORD
  5
5F2
330
1
100
AcDbSymbolTableRecord
100
AcDbBlockTableRecord
  2
BLOCK_225
  0
BLOCK_RECORD
  5
5FA
330
1
100
AcDbSymbolTableRecord
100
AcDbBlockTableRecord
  2
BLOCK_226
  0
BLOCK_RECORD
  5
602
330
1
100
AcDbSymbolTableRecord
100
AcDbBlockTableRecord
  2
BLOCK_227
  0
BLOCK_RECORD
  5
60A
330
1
100
AcDbSymbolTableRecord
100
AcDbBlockTableRecord
  2
BLOCK_228
  0
BLOCK_RECORD
  5
612
330
1
100
AcDbSymbolTableRecord
100
AcDbBlockTableRecord
  2
BLOCK_229
  0
BLOCK_RECORD
  5
61A
330
1
100
AcDbSymbolTableRecord
100
AcDbBlockTableRecord
  2
BLOCK_230
  0
BLOCK_RECORD
  5
622
330
1
100
AcDbSymbolTableRecord
100
AcDbBlockTableRecord
  2
BLOCK_231
  0
BLOCK_RECORD
  5
62A
330
1
100
AcDbSymbolTableRecord
100
AcDbBlockTableRecord
  2
BLOCK_232
  0
BLOCK_RECORD
  5
632
330
1
100
AcDbSymbolTableRecord
100
AcDbBlockTableRecord
  2
BLOCK_233
  0
BLOCK_RECORD
  5
63A
330
1
100
AcDbSymbolTableRecord
100
AcDbBlockTableRecord
  2
BLOCK_234
  0
BLOCK_RECORD
  5
642
330
1
100
AcDbSymbolTableRecord
100
AcDbBlockTableRecord
  2
BLOCK_235
  0
BLOCK_RECORD
  5
64A
330
1
100
AcDbSymbolTableRecord
100
AcDbBlockTableRecord
  2
BLOCK_236
  0
BLOCK_RECORD
  5
652
330
1
100
AcDbSymbolTableRecord
100
AcDbBlockTableRecord
  2
BLOCK_237
  0
BLOCK_RECORD
  5
65A
330
1
100
AcDbSymbolTableRecord
100
AcDbBlockTableRecord
  2
BLOCK_238
  0
BLOCK_RECORD
  5
65F
330
1
100
AcDbSymbolTableRecord
100
AcDbBlockTableRecord
  2
BLOCK_239
  0
BLOCK_RECORD
  5
664
330
1
100
AcDbSymbolTableRecord
100
AcDbBlockTableRecord
  2
BLOCK_240
  0
BLOCK_RECORD
  5
669
330
1
100
AcDbSymbolTableRecord
100
AcDbBlockTableRecord
  2
BLOCK_241
  0
BLOCK_RECORD
  5
66E
330
1
100
AcDbSymbolTableRecord
100
AcDbBlockTableRecord
  2
BLOCK_242
  0
BLOCK_RECORD
  5
673
330
1
100
AcDbSymbolTableRecord
100
AcDbBlockTableRecord
  2
BLOCK_243
  0
BLOCK_RECORD
  5
678
330
1
100
AcDbSymbolTableRecord
100
AcDbBlockTableRecord
  2
BLOCK_244
  0
BLOCK_RECORD
  5
67D
330
1
100
AcDbSymbolTableRecord
100
AcDbBlockTableRecord
  2
BLOCK_245
  0
BLOCK_RECORD
  5
682
330
1
100
AcDbSymbolTableRecord
100
AcDbBlockTableRecord
  2
BLOCK_246
  0
BLOCK_RECORD
  5
687
330
1
100
AcDbSymbolTableRecord
100
AcDbBlockTableRecord
  2
BLOCK_247
  0
BLOCK_RECORD
  5
68C
330
1
100
AcDbSymbolTableRecord
100
AcDbBlockTableRecord
  2
BLOCK_248
  0
BLOCK_RECORD
  5
691
330
1
100
AcDbSymbolTableRecord
100
AcDbBlockTableRecord
  2
BLOCK_249
  0
BLOCK_RECORD
  5
696
330
1
100
AcDbSymbolTableRecord
100
AcDbBlockTableRecord
  2
BLOCK_250
  0
BLOCK_RECORD
  5
69B
330
1
100
AcDbSymbolTableRecord
100
AcDbBlockTableRecord
  2
BLOCK_251
  0
BLOCK_RECORD
  5
6A0
330
1
100
AcDbSymbolTableRecord
100
AcDbBlockTableRecord
  2
BLOCK_252
  0
BLOCK_RECORD
  5
6A5
330
1
100
AcDbSymbolTableRecord
100
AcDbBlockTableRecord
  2
BLOCK_253
  0
BLOCK_RECORD
  5
6AA
330
1
100
AcDbSymbolTableRecord
100
AcDbBlockTableRecord
  2
BLOCK_254
  0
BLOCK_RECORD
  5
6AF
330
1
100
AcDbSymbolTableRecord
100
AcDbBlockTableRecord
  2
BLOCK_255
  0
BLOCK_RECORD
  5
6B4
330
1
100
AcDbSymbolTableRecord
100
AcDbBlockTableRecord
  2
BLOCK_256
  0
BLOCK_RECORD
  5
6B9
330
1
100
AcDbSymbolTableRecord
100
AcDbBlockTableRecord
  2
BLOCK_257
  0
BLOCK_RECORD
  5
6BE
330
1
100
AcDbSymbolTableRecord
100
AcDbBlockTableRecord
  2
BLOCK_258
  0
BLOCK_RECORD
  5
6C3
330
1
100
AcDbSymbolTableRecord
100
AcDbBlockTableRecord
  2
BLOCK_259
  0
BLOCK_RECORD
  5
6C8
330
1
100
AcDbSymbolTableRecord
100
AcDbBlockTableRecord
  2
BLOCK_260
  0
BLOCK_RECORD
  5
6CD
330
1
100
AcDbSymbolTableRecord
100
AcDbBlockTableRecord
  2
BLOCK_261
  0
BLOCK_RECORD
  5
6D2
330
1
100
AcDbSymbolTableRecord
100
AcDbBlockTableRecord
  2
BLOCK_262
  0
BLOCK_RECORD
  5
6D7
330
1
100
AcDbSymbolTableRecord
100
AcDbBlockTableRecord
  2
BLOCK_263
  0
BLOCK_RECORD
  5
6DC
330
1
100
AcDbSymbolTableRecord
100
AcDbBlockTableRecord
  2
BLOCK_264
  0
BLOCK_RECORD
  5
6E1
330
1
100
AcDbSymbolTableRecord
100
AcDbBlockTableRecord
  2
BLOCK_265
  0
BLOCK_RECORD
  5
6E6
330
1
100
AcDbSymbolTableRecord
100
AcDbBlockTableRecord
  2
BLOCK_266
  0
BLOCK_RECORD
  5
6EB
330
1
100
AcDbSymbolTableRecord
100
AcDbBlockTableRecord
  2
BLOCK_267
  0
BLOCK_RECORD
  5
6F0
330
1
100
AcDbSymbolTableRecord
100
AcDbBlockTableRecord
  2
BLOCK_268
  0
BLOCK_RECORD
  5
6F5
330
1
100
AcDbSymbolTableRecord
100
AcDbBlockTableRecord
  2
BLOCK_269
  0
BLOCK_RECORD
  5
6FA
330
1
100
AcDbSymbolTableRecord
100
AcDbBlockTableRecord
  2
BLOCK_270
  0
BLOCK_RECORD
  5
6FF
330
1
100
AcDbSymbolTableRecord
100
AcDbBlockTableRecord
  2
BLOCK_271
  0
BLOCK_RECORD
  5
704
330
1
100
AcDbSymbolTableRecord
100
AcDbBlockTableRecord
  2
BLOCK_272
  0
BLOCK_RECORD
  5
709
330
1
100
AcDbSymbolTableRecord
100
AcDbBlockTableRecord
  2
BLOCK_273
  0
BLOCK_RECORD
  5
70E
330
1
100
AcDbSymbolTableRecord
100
AcDbBlockTableRecord
  2
BLOCK_274
  0
BLOCK_RECORD
  5
713
330
1
100
AcDbSymbolTableRecord
100
AcDbBlockTableRecord
  2
BLOCK_275
  0
BLOCK_RECORD
  5
718
330
1
100
AcDbSymbolTableRecord
100
AcDbBlockTableRecord
  2
BLOCK_276
  0
BLOCK_RECORD
  5
71D
330
1
100
AcDbSymbolTableRecord
100
AcDbBlockTableRecord
  2
BLOCK_277
  0
BLOCK_RECORD
  5
722
330
1
100
AcDbSymbolTableRecord
100
AcDbBlockTableRecord
  2
BLOCK_278
  0
BLOCK_RECORD
  5
727
330
1
100
AcDbSymbolTableRecord
100
AcDbBlockTableRecord
  2
BLOCK_279
  0
BLOCK_RECORD
  5
72C
330
1
100
AcDbSymbolTableRecord
100
AcDbBlockTableRecord
  2
BLOCK_280
  0
BLOCK_RECORD
  5
731
330
1
100
AcDbSymbolTableRecord
100
AcDbBlockTableRecord
  2
BLOCK_281
  0
BLOCK_RECORD
  5
736
330
1
100
AcDbSymbolTableRecord
100
AcDbBlockTableRecord
  2
BLOCK_282
  0
BLOCK_RECORD
  5
73B
330
1
100
AcDbSymbolTableRecord
100
AcDbBlockTableRecord
  2
BLOCK_283
  0
BLOCK_RECORD
  5
740
330
1
100
AcDbSymbolTableRecord
100
AcDbBlockTableRecord
  2
BLOCK_284
  0
BLOCK_RECORD
  5
745
330
1
100
AcDbSymbolTableRecord
100
AcDbBlockTableRecord
  2
BLOCK_285
  0
BLOCK_RECORD
  5
74A
330
1
100
AcDbSymbolTableRecord
100
AcDbBlockTableRecord
  2
BLOCK_286
  0
BLOCK_RECORD
  5
74F
330
1
100
AcDbSymbolTableRecord
100
AcDbBlockTableRecord
  2
BLOCK_287
  0
BLOCK_RECORD
  5
754
330
1
100
AcDbSymbolTableRecord
100
AcDbBlockTableRecord
  2
BLOCK_288
  0
BLOCK_RECORD
  5
759
330
1
100
AcDbSymbolTableRecord
100
AcDbBlockTableRecord
  2
BLOCK_289
  0
BLOCK_RECORD
  5
75E
330
1
100
AcDbSymbolTableRecord
100
AcDbBlockTableRecord
  2
BLOCK_290
  0
BLOCK_RECORD
  5
763
330
1
100
AcDbSymbolTableRecord
100
AcDbBlockTableRecord
  2
BLOCK_291
  0
BLOCK_RECORD
  5
768
330
1
100
AcDbSymbolTableRecord
100
AcDbBlockTableRecord
  2
BLOCK_292
  0
BLOCK_RECORD
  5
76D
330
1
100
AcDbSymbolTableRecord
100
AcDbBlockTableRecord
  2
BLOCK_293
  0
BLOCK_RECORD
  5
775
330
1
100
AcDbSymbolTableRecord
100
AcDbBlockTableRecord
  2
BLOCK_294
  0
BLOCK_RECORD
  5
77D
330
1
100
AcDbSymbolTableRecord
100
AcDbBlockTableRecord
  2
BLOCK_295
  0
BLOCK_RECORD
  5
785
330
1
100
AcDbSymbolTableRecord
100
AcDbBlockTableRecord
  2
BLOCK_296
  0
BLOCK_RECORD
  5
78D
330
1
100
AcDbSymbolTableRecord
100
AcDbBlockTableRecord
  2
BLOCK_297
  0
BLOCK_RECORD
  5
795
330
1
100
AcDbSymbolTableRecord
100
AcDbBlockTableRecord
  2
BLOCK_298
  0
BLOCK_RECORD
  5
79D
330
1
100
AcDbSymbolTableRecord
100
AcDbBlockTableRecord
  2
BLOCK_299
  0
BLOCK_RECORD
  5
7A5
330
1
100
AcDbSymbolTableRecord
100
AcDbBlockTableRecord
  2
BLOCK_300
  0
BLOCK_RECORD
  5
7AD
330
1
100
AcDbSymbolTableRecord
100
AcDbBlockTableRecord
  2
BLOCK_301
  0
BLOCK_RECORD
  5
7B5
330
1
100
AcDbSymbolTableRecord
100
AcDbBlockTableRecord
  2
BLOCK_302
  0
BLOCK_RECORD
  5
7BD
330
1
100
AcDbSymbolTableRecord
100
AcDbBlockTableRecord
  2
BLOCK_303
  0
BLOCK_RECORD
  5
7C5
330
1
100
AcDbSymbolTableRecord
100
AcDbBlockTableRecord
  2
BLOCK_304
  0
BLOCK_RECORD
  5
7CD
330
1
100
AcDbSymbolTableRecord
100
AcDbBlockTableRecord
  2
BLOCK_305
  0
BLOCK_RECORD
  5
7D5
330
1
100
AcDbSymbolTableRecord
100
AcDbBlockTableRecord
  2
BLOCK_306
  0
BLOCK_RECORD
  5
7DD
330
1
100
AcDbSymbolTableRecord
100
AcDbBlockTableRecord
  2
BLOCK_307
  0
BLOCK_RECORD
  5
7E5
330
1
100
AcDbSymbolTableRecord
100
AcDbBlockTableRecord
  2
BLOCK_308
  0
BLOCK_RECORD
  5
7ED
330
1
100
AcDbSymbolTableRecord
100
AcDbBlockTableRecord
  2
BLOCK_309
  0
BLOCK_RECORD
  5
7F5
330
1
100
AcDbSymbolTableRecord
100
AcDbBlockTableRecord
  2
BLOCK_310
  0
BLOCK_RECORD
  5
7FD
330
1
100
AcDbSymbolTableRecord
100
AcDbBlockTableRecord
  2
BLOCK_311
  0
BLOCK_RECORD
  5
805
330
1
100
AcDbSymbolTableRecord
100
AcDbBlockTableRecord
  2
BLOCK_312
  0
BLOCK_RECORD
  5
80D
330
1
100
AcDbSymbolTableRecord
100
AcDbBlockTableRecord
  2
BLOCK_313
  0
BLOCK_RECORD
  5
815
330
1
100
AcDbSymbolTableRecord
100
AcDbBlockTableRecord
  2
BLOCK_314
  0
BLOCK_RECORD
  5
81D
330
1
100
AcDbSymbolTableRecord
100
AcDbBlockTableRecord
  2
BLOCK_315
  0
BLOCK_RECORD
  5
825
330
1
100
AcDbSymbolTableRecord
100
AcDbBlockTableRecord
  2
BLOCK_316
  0
BLOCK_RECORD
  5
82D
330
1
100
AcDbSymbolTableRecord
100
AcDbBlockTableRecord
  2
BLOCK_317
  0
BLOCK_RECORD
  5
835
330
1
100
AcDbSymbolTableRecord
100
AcDbBlockTableRecord
  2
BLOCK_318
  0
BLOCK_RECORD
  5
83D
330
1
100
AcDbSymbolTableRecord
100
AcDbBlockTableRecord
  2
BLOCK_319
  0
BLOCK_RECORD
  5
845
330
1
100
AcDbSymbolTableRecord
100
AcDbBlockTableRecord
  2
BLOCK_320
  0
BLOCK_RECORD
  5
84D
330
1
100
AcDbSymbolTableRecord
100
AcDbBlockTableRecord
  2
BLOCK_321
  0
BLOCK_RECORD
  5
855
330
1
100
AcDbSymbolTableRecord
100
AcDbBlockTableRecord
  2
BLOCK_322
  0
BLOCK_RECORD
  5
85D
330
1
100
AcDbSymbolTableRecord
100
AcDbBlockTableRecord
  2
BLOCK_323
  0
BLOCK_RECORD
  5
865
330
1
100
AcDbSymbolTableRecord
100
AcDbBlockTableRecord
  2
BLOCK_324
  0
BLOCK_RECORD
  5
86D
330
1
100
AcDbSymbolTableRecord
100
AcDbBlockTableRecord
  2
BLOCK_325
  0
BLOCK_RECORD
  5
875
330
1
100
AcDbSymbolTableRecord
100
AcDbBlockTableRecord
  2
BLOCK_326
  0
BLOCK_RECORD
  5
87D
330
1
100
AcDbSymbolTableRecord
100
AcDbBlockTableRecord
  2
BLOCK_327
  0
BLOCK_RECORD
  5
885
330
1
100
AcDbSymbolTableRecord
100
AcDbBlockTableRecord
  2
BLOCK_328
  0
BLOCK_RECORD
  5
88D
330
1
100
AcDbSymbolTableRecord
100
AcDbBlockTableRecord
  2
BLOCK_329
  0
BLOCK_RECORD
  5
895
330
1
100
AcDbSymbolTableRecord
100
AcDbBlockTableRecord
  2
BLOCK_330
  0
BLOCK_RECORD
  5
89D
330
1
100
AcDbSymbolTableRecord
100
AcDbBlockTableRecord
  2
BLOCK_331
  0
BLOCK_RECORD
  5
8A5
330
1
100
AcDbSymbolTableRecord
100
AcDbBlockTableRecord
  2
BLOCK_332
  0
BLOCK_RECORD
  5
8AD
330
1
100
AcDbSymbolTableRecord
100
AcDbBlockTableRecord
  2
BLOCK_333
  0
BLOCK_RECORD
  5
8B5
330
1
100
AcDbSymbolTableRecord
100
AcDbBlockTableRecord
  2
BLOCK_334
  0
BLOCK_RECORD
  5
8BA
330
1
100
AcDbSymbolTableRecord
100
AcDbBlockTableRecord
  2
BLOCK_335
  0
BLOCK_RECORD
  5
8BF
330
1
100
AcDbSymbolTableRecord
100
AcDbBlockTableRecord
  2
BLOCK_336
  0
BLOCK_RECORD
  5
8C4
330
1
100
AcDbSymbolTableRecord
100
AcDbBlockTableRecord
  2
BLOCK_337
  0
BLOCK_RECORD
  5
8C9
330
1
100
AcDbSymbolTableRecord
100
AcDbBlockTableRecord
  2
BLOCK_338
  0
BLOCK_RECORD
  5
8CE
330
1
100
AcDbSymbolTableRecord
100
AcDbBlockTableRecord
  2
BLOCK_339
  0
BLOCK_RECORD
  5
8D3
330
1
100
AcDbSymbolTableRecord
100
AcDbBlockTableRecord
  2
BLOCK_340
  0
BLOCK_RECORD
  5
8D8
330
1
100
AcDbSymbolTableRecord
100
AcDbBlockTableRecord
  2
BLOCK_341
  0
BLOCK_RECORD
  5
8DD
330
1
100
AcDbSymbolTableRecord
100
AcDbBlockTableRecord
  2
BLOCK_342
  0
BLOCK_RECORD
  5
8E2
330
1
100
AcDbSymbolTableRecord
100
AcDbBlockTableRecord
  2
BLOCK_343
  0
BLOCK_RECORD
  5
8E7
330
1
100
AcDbSymbolTableRecord
100
AcDbBlockTableRecord
  2
BLOCK_344
  0
BLOCK_RECORD
  5
8EC
330
1
100
AcDbSymbolTableRecord
100
AcDbBlockTableRecord
  2
BLOCK_345
  0
BLOCK_RECORD
  5
8F1
330
1
100
AcDbSymbolTableRecord
100
AcDbBlockTableRecord
  2
BLOCK_346
  0
BLOCK_RECORD
  5
8F6
330
1
100
AcDbSymbolTableRecord
100
AcDbBlockTableRecord
  2
BLOCK_347
  0
BLOCK_RECORD
  5
8FB
330
1
100
AcDbSymbolTableRecord
100
AcDbBlockTableRecord
  2
BLOCK_348
  0
BLOCK_RECORD
  5
900
330
1
100
AcDbSymbolTableRecord
100
AcDbBlockTableRecord
  2
BLOCK_349
  0
BLOCK_RECORD
  5
905
330
1
100
AcDbSymbolTableRecord
100
AcDbBlockTableRecord
  2
BLOCK_350
  0
BLOCK_RECORD
  5
90A
330
1
100
AcDbSymbolTableRecord
100
AcDbBlockTableRecord
  2
BLOCK_351
  0
BLOCK_RECORD
  5
90F
330
1
100
AcDbSymbolTableRecord
100
AcDbBlockTableRecord
  2
BLOCK_352
  0
BLOCK_RECORD
  5
914
330
1
100
AcDbSymbolTableRecord
100
AcDbBlockTableRecord
  2
BLOCK_353
  0
BLOCK_RECORD
  5
919
330
1
100
AcDbSymbolTableRecord
100
AcDbBlockTableRecord
  2
BLOCK_354
  0
BLOCK_RECORD
  5
91E
330
1
100
AcDbSymbolTableRecord
100
AcDbBlockTableRecord
  2
BLOCK_355
  0
BLOCK_RECORD
  5
923
330
1
100
AcDbSymbolTableRecord
100
AcDbBlockTableRecord
  2
BLOCK_356
  0
BLOCK_RECORD
  5
928
330
1
100
AcDbSymbolTableRecord
100
AcDbBlockTableRecord
  2
BLOCK_357
  0
BLOCK_RECORD
  5
92D
330
1
100
AcDbSymbolTableRecord
100
AcDbBlockTableRecord
  2
BLOCK_358
  0
BLOCK_RECORD
  5
932
330
1
100
AcDbSymbolTableRecord
100
AcDbBlockTableRecord
  2
BLOCK_359
  0
BLOCK_RECORD
  5
937
330
1
100
AcDbSymbolTableRecord
100
AcDbBlockTableRecord
  2
BLOCK_360
  0
BLOCK_RECORD
  5
93C
330
1
100
AcDbSymbolTableRecord
100
AcDbBlockTableRecord
  2
BLOCK_361
  0
BLOCK_RECORD
  5
941
330
1
100
AcDbSymbolTableRecord
100
AcDbBlockTableRecord
  2
BLOCK_362
  0
BLOCK_RECORD
  5
946
330
1
100
AcDbSymbolTableRecord
100
AcDbBlockTableRecord
  2
BLOCK_363
  0
BLOCK_RECORD
  5
94B
330
1
100
AcDbSymbolTableRecord
100
AcDbBlockTableRecord
  2
BLOCK_364
  0
BLOCK_RECORD
  5
950
330
1
100
AcDbSymbolTableRecord
100
AcDbBlockTableRecord
  2
BLOCK_365
  0
BLOCK_RECORD
  5
955
330
1
100
AcDbSymbolTableRecord
100
AcDbBlockTableRecord
  2
BLOCK_366
  0
BLOCK_RECORD
  5
95A
330
1
100
AcDbSymbolTableRecord
100
AcDbBlockTableRecord
  2
BLOCK_367
  0
BLOCK_RECORD
  5
95F
330
1
100
AcDbSymbolTableRecord
100
AcDbBlockTableRecord
  2
BLOCK_368
  0
BLOCK_RECORD
  5
964
330
1
100
AcDbSymbolTableRecord
100
AcDbBlockTableRecord
  2
BLOCK_369
  0
BLOCK_RECORD
  5
969
330
1
100
AcDbSymbolTableRecord
100
AcDbBlockTableRecord
  2
BLOCK_370
  0
BLOCK_RECORD
  5
96E
330
1
100
AcDbSymbolTableRecord
100
AcDbBlockTableRecord
  2
BLOCK_371
  0
BLOCK_RECORD
  5
973
330
1
100
AcDbSymbolTableRecord
100
AcDbBlockTableRecord
  2
BLOCK_372
  0
BLOCK_RECORD
  5
978
330
1
100
AcDbSymbolTableRecord
100
AcDbBlockTableRecord
  2
BLOCK_373
  0
BLOCK_RECORD
  5
97D
330
1
100
AcDbSymbolTableRecord
100
AcDbBlockTableRecord
  2
BLOCK_374
  0
BLOCK_RECORD
  5
982
330
1
100
AcDbSymbolTableRecord
100
AcDbBlockTableRecord
  2
BLOCK_375
  0
BLOCK_RECORD
  5
987
330
1
100
AcDbSymbolTableRecord
100
AcDbBlockTableRecord
  2
BLOCK_376
  0
BLOCK_RECORD
  5
98C
330
1
100
AcDbSymbolTableRecord
100
AcDbBlockTableRecord
  2
BLOCK_377
  0
BLOCK_RECORD
  5
991
330
1
100
AcDbSymbolTableRecord
100
AcDbBlockTableRecord
  2
BLOCK_378
  0
BLOCK_RECORD
  5
996
330
1
100
AcDbSymbolTableRecord
100
AcDbBlockTableRecord
  2
BLOCK_379
  0
BLOCK_RECORD
  5
99B
330
1
100
AcDbSymbolTableRecord
100
AcDbBlockTableRecord
  2
BLOCK_380
  0
BLOCK_RECORD
  5
9A0
330
1
100
AcDbSymbolTableRecord
100
AcDbBlockTableRecord
  2
BLOCK_381
  0
BLOCK_RECORD
  5
9A5
330
1
100
AcDbSymbolTableRecord
100
AcDbBlockTableRecord
  2
BLOCK_382
  0
BLOCK_RECORD
  5
9AA
330
1
100
AcDbSymbolTableRecord
100
AcDbBlockTableRecord
  2
BLOCK_383
  0
BLOCK_RECORD
  5
9AF
330
1
100
AcDbSymbolTableRecord
100
AcDbBlockTableRecord
  2
BLOCK_384
  0
BLOCK_RECORD
  5
9B4
330
1
100
AcDbSymbolTableRecord
100
AcDbBlockTableRecord
  2
BLOCK_385
  0
BLOCK_RECORD
  5
9B9
330
1
100
AcDbSymbolTableRecord
100
AcDbBlockTableRecord
  2
BLOCK_386
  0
BLOCK_RECORD
  5
9BE
330
1
100
AcDbSymbolTableRecord
100
AcDbBlockTableRecord
  2
BLOCK_387
  0
BLOCK_RECORD
  5
9CB
330
1
100
AcDbSymbolTableRecord
100
AcDbBlockTableRecord
  2
BLOCK_388
  0
ENDTAB
  0
ENDSEC
  0
SECTION
  2
BLOCKS
  0
BLOCK
  5
20
330
1F
100
AcDbEntity
  8
0
100
AcDbBlockBegin
  2
*MODEL_SPACE
 70
     0
 71
     0
 10
0.0
 20
0.0
 30
0.0
  3
*MODEL_SPACE
  1

  0
ENDBLK
  5
21
330
1F
100
AcDbEntity
  8
0
100
AcDbBlockEnd
  0
BLOCK
  5
1C
330
1B
100
AcDbEntity
 67
     1
  8
0
100
AcDbBlockBegin
  2
*PAPER_SPACE
 70
     0
 71
     0
 10
0.0
 20
0.0
 30
0.0
  3
*PAPER_SPACE
  1

  0
ENDBLK
  5
1D
330
1B
100
AcDbEntity
 67
     1
  8
0
100
AcDbBlockEnd
  0
BLOCK
  5
3E
330
3C
100
AcDbEntity
  8
0
100
AcDbBlockBegin
  2
BLOCK_2
 70
     0
 71
     0
 10
0.0
 20
0.0
 30
0.0
  3
BLOCK_2
  1

  0
POLYLINE
  5
40
330
3C
100
AcDbEntity
  8
GR1_16
 62
     7
100
AcDb2dPolyline
 66
     1
 10
0.0
 20
0.0
 30
0.0
  0
VERTEX
  5
41
330
40
100
AcDbEntity
  8
GR1_16
 62
     7
100
AcDbVertex
100
AcDb2dVertex
 10
18.62780354352013
 20
12.01959363848816
 30
0.0
  0
VERTEX
  5
42
330
40
100
AcDbEntity
  8
GR1_16
 62
     7
100
AcDbVertex
100
AcDb2dVertex
 10
18.62780354352013
 20
285.0194674309153
 30
0.0
  0
SEQEND
  5
43
330
40
100
AcDbEntity
  8
GR1_16
  0
ENDBLK
  5
3F
330
3C
100
AcDbEntity
  8
0
100
AcDbBlockEnd
  0
BLOCK
  5
46
330
44
100
AcDbEntity
  8
0
100
AcDbBlockBegin
  2
BLOCK_3
 70
     0
 71
     0
 10
0.0
 20
0.0
 30
0.0
  3
BLOCK_3
  1

  0
POLYLINE
  5
48
330
44
100
AcDbEntity
  8
GR1_16
 62
     7
100
AcDb2dPolyline
 66
     1
 10
0.0
 20
0.0
 30
0.0
  0
VERTEX
  5
49
330
48
100
AcDbEntity
  8
GR1_16
 62
     7
100
AcDbVertex
100
AcDb2dVertex
 10
191.6279242142458
 20
285.0194674309153
 30
0.0
  0
VERTEX
  5
4A
330
48
100
AcDbEntity
  8
GR1_16
 62
     7
100
AcDbVertex
100
AcDb2dVertex
 10
18.62780354352013
 20
285.0194674309153
 30
0.0
  0
SEQEND
  5
4B
330
48
100
AcDbEntity
  8
GR1_16
  0
ENDBLK
  5
47
330
44
100
AcDbEntity
  8
0
100
AcDbBlockEnd
  0
BLOCK
  5
4E
330
4C
100
AcDbEntity
  8
0
100
AcDbBlockBegin
  2
BLOCK_4
 70
     0
 71
     0
 10
0.0
 20
0.0
 30
0.0
  3
BLOCK_4
  1

  0
POLYLINE
  5
50
330
4C
100
AcDbEntity
  8
GR1_16
 62
     7
100
AcDb2dPolyline
 66
     1
 10
0.0
 20
0.0
 30
0.0
  0
VERTEX
  5
51
330
50
100
AcDbEntity
  8
GR1_16
 62
     7
100
AcDbVertex
100
AcDb2dVertex
 10
191.6279242142458
 20
285.0194674309153
 30
0.0
  0
VERTEX
  5
52
330
50
100
AcDbEntity
  8
GR1_16
 62
     7
100
AcDbVertex
100
AcDb2dVertex
 10
191.6279242142458
 20
12.01959363848816
 30
0.0
  0
SEQEND
  5
53
330
50
100
AcDbEntity
  8
GR1_16
  0
ENDBLK
  5
4F
330
4C
100
AcDbEntity
  8
0
100
AcDbBlockEnd
  0
BLOCK
  5
56
330
54
100
AcDbEntity
  8
0
100
AcDbBlockBegin
  2
BLOCK_5
 70
     0
 71
     0
 10
0.0
 20
0.0
 30
0.0
  3
BLOCK_5
  1

  0
POLYLINE
  5
58
330
54
100
AcDbEntity
  8
GR1_16
 62
     7
100
AcDb2dPolyline
 66
     1
 10
0.0
 20
0.0
 30
0.0
  0
VERTEX
  5
59
330
58
100
AcDbEntity
  8
GR1_16
 62
     7
100
AcDbVertex
100
AcDb2dVertex
 10
191.6279242142458
 20
12.01959363848816
 30
0.0
  0
VERTEX
  5
5A
330
58
100
AcDbEntity
  8
GR1_16
 62
     7
100
AcDbVertex
100
AcDb2dVertex
 10
18.62780354352013
 20
12.01959363848816
 30
0.0
  0
SEQEND
  5
5B
330
58
100
AcDbEntity
  8
GR1_16
  0
ENDBLK
  5
57
330
54
100
AcDbEntity
  8
0
100
AcDbBlockEnd
  0
BLOCK
  5
5F
330
5D
100
AcDbEntity
  8
0
100
AcDbBlockBegin
  2
BLOCK_6
 70
     0
 71
     0
 10
0.0
 20
0.0
 30
0.0
  3
BLOCK_6
  1

  0
POLYLINE
  5
61
330
5D
100
AcDbEntity
  8
GR2_01
 62
     7
100
AcDb2dPolyline
 66
     1
 10
0.0
 20
0.0
 30
0.0
  0
VERTEX
  5
62
330
61
100
AcDbEntity
  8
GR2_01
 62
     7
100
AcDbVertex
100
AcDb2dVertex
 10
37.78305120583202
 20
250.0195366128424
 30
0.0
  0
VERTEX
  5
63
330
61
100
AcDbEntity
  8
GR2_01
 62
     7
100
AcDbVertex
100
AcDb2dVertex
 10
55.28293048748135
 20
250.0195366128424
 30
0.0
  0
SEQEND
  5
64
330
61
100
AcDbEntity
  8
GR2_01
  0
ENDBLK
  5
60
330
5D
100
AcDbEntity
  8
0
100
AcDbBlockEnd
  0
BLOCK
  5
67
330
65
100
AcDbEntity
  8
0
100
AcDbBlockBegin
  2
BLOCK_7
 70
     0
 71
     0
 10
0.0
 20
0.0
 30
0.0
  3
BLOCK_7
  1

  0
MTEXT
  5
69
330
65
100
AcDbEntity
  8
GR2_01
 62
     7
100
AcDbMText
 10
42.20879312095822
 20
251.0730468122318
 30
0.0
 40
3.030302974367208
 41
0.0
 71
     7
 72
     1
  1
\fMS Gothic|b0|i0|c0|p34;\W1.26923;表面
  0
ENDBLK
  5
68
330
65
100
AcDbEntity
  8
0
100
AcDbBlockEnd
  0
BLOCK
  5
6C
330
6A
100
AcDbEntity
  8
0
100
AcDbBlockBegin
  2
BLOCK_8
 70
     0
 71
     0
 10
0.0
 20
0.0
 30
0.0
  3
BLOCK_8
  1

  0
POLYLINE
  5
6E
330
6A
100
AcDbEntity
  8
GR2_01
  6
AI-LINETYPE-1
 62
     7
100
AcDb2dPolyline
 66
     1
 10
0.0
 20
0.0
 30
0.0
  0
VERTEX
  5
6F
330
6E
100
AcDbEntity
  8
GR2_01
  6
AI-LINETYPE-1
 62
     7
100
AcDbVertex
100
AcDb2dVertex
 10
38.62778861881527
 20
104.019490533891
 30
0.0
  0
VERTEX
  5
70
330
6E
100
AcDbEntity
  8
GR2_01
  6
AI-LINETYPE-1
 62
     7
100
AcDbVertex
100
AcDb2dVertex
 10
18.62780354352013
 20
104.019490533891
 30
0.0
  0
SEQEND
  5
71
330
6E
100
AcDbEntity
  8
GR2_01
  6
AI-LINETYPE-1
  0
ENDBLK
  5
6D
330
6A
100
AcDbEntity
  8
0
100
AcDbBlockEnd
  0
BLOCK
  5
75
330
73
100
AcDbEntity
  8
0
100
AcDbBlockBegin
  2
BLOCK_9
 70
     0
 71
     0
 10
0.0
 20
0.0
 30
0.0
  3
BLOCK_9
  1

  0
POLYLINE
  5
77
330
73
100
AcDbEntity
  8
GR2_01
  6
AI-LINETYPE-2
 62
     7
100
AcDb2dPolyline
 66
     1
 10
0.0
 20
0.0
 30
0.0
  0
VERTEX
  5
78
330
77
100
AcDbEntity
  8
GR2_01
  6
AI-LINETYPE-2
 62
     7
100
AcDbVertex
100
AcDb2dVertex
 10
172.6278781035444
 20
104.019490533891
 30
0.0
  0
VERTEX
  5
79
330
77
100
AcDbEntity
  8
GR2_01
  6
AI-LINETYPE-2
 62
     7
100
AcDbVertex
100
AcDb2dVertex
 10
191.6279242142458
 20
104.019490533891
 30
0.0
  0
SEQEND
  5
7A
330
77
100
AcDbEntity
  8
GR2_01
  6
AI-LINETYPE-2
  0
ENDBLK
  5
76
330
73
100
AcDbEntity
  8
0
100
AcDbBlockEnd
  0
BLOCK
  5
7E
330
7C
100
AcDbEntity
  8
0
100
AcDbBlockBegin
  2
BLOCK_10
 70
     0
 71
     0
 10
0.0
 20
0.0
 30
0.0
  3
BLOCK_10
  1

  0
MTEXT
  5
80
330
7C
100
AcDbEntity
  8
GR2_01
 62
     7
100
AcDbMText
 10
120.8677300045053
 20
13.57298719278731
 30
0.0
 40
3.030302974367208
 41
0.0
 71
     7
 72
     1
  1
\fMS Gothic|b0|i0|c0|p34;\W0.888462;ＦＡ１－ＴＨ１Ｅ１６Ｙ２ＲＡ２０Ｓ
  0
ENDBLK
  5
7F
330
7C
100
AcDbEntity
  8
0
100
AcDbBlockEnd
  0
BLOCK
  5
83
330
81
100
AcDbEntity
  8
0
100
AcDbBlockBegin
  2
BLOCK_11
 70
     0
 71
     0
 10
0.0
 20
0.0
 30
0.0
  3
BLOCK_11
  1

  0
POLYLINE
  5
85
330
81
100
AcDbEntity
  8
GR2_01
 62
     7
100
AcDb2dPolyline
 66
     1
 10
0.0
 20
0.0
 30
0.0
  0
VERTEX
  5
86
330
85
100
AcDbEntity
  8
GR2_01
 62
     7
100
AcDbVertex
100
AcDb2dVertex
 10
37.78305120583202
 20
190.0194091321827
 30
0.0
  0
VERTEX
  5
87
330
85
100
AcDbEntity
  8
GR2_01
 62
     7
100
AcDbVertex
100
AcDb2dVertex
 10
55.28293048748135
 20
190.0194091321827
 30
0.0
  0
SEQEND
  5
88
330
85
100
AcDbEntity
  8
GR2_01
  0
ENDBLK
  5
84
330
81
100
AcDbEntity
  8
0
100
AcDbBlockEnd
  0
BLOCK
  5
8B
330
89
100
AcDbEntity
  8
0
100
AcDbBlockBegin
  2
BLOCK_12
 70
     0
 71
     0
 10
0.0
 20
0.0
 30
0.0
  3
BLOCK_12
  1

  0
MTEXT
  5
8D
330
89
100
AcDbEntity
  8
GR2_01
 62
     7
100
AcDbMText
 10
42.20879312095822
 20
191.0729193315721
 30
0.0
 40
3.030302974367208
 41
0.0
 71
     7
 72
     1
  1
\fMS Gothic|b0|i0|c0|p34;\W1.26923;裏面
  0
ENDBLK
  5
8C
330
89
100
AcDbEntity
  8
0
100
AcDbBlockEnd
  0
BLOCK
  5
90
330
8E
100
AcDbEntity
  8
0
100
AcDbBlockBegin
  2
BLOCK_13
 70
     0
 71
     0
 10
0.0
 20
0.0
 30
0.0
  3
BLOCK_13
  1

  0
POLYLINE
  5
92
330
8E
100
AcDbEntity
  8
GR2_01
 62
     7
100
AcDb2dPolyline
 66
     1
 10
0.0
 20
0.0
 30
0.0
  0
VERTEX
  5
93
330
92
100
AcDbEntity
  8
GR2_01
 62
     7
100
AcDbVertex
100
AcDb2dVertex
 10
38.62778861881527
 20
164.0194457597764
 30
0.0
  0
VERTEX
  5
94
330
92
100
AcDbEntity
  8
GR2_01
 62
     7
100
AcDbVertex
100
AcDb2dVertex
 10
172.6278781035444
 20
164.0194457597764
 30
0.0
  0
SEQEND
  5
95
330
92
100
AcDbEntity
  8
GR2_01
  0
ENDBLK
  5
91
330
8E
100
AcDbEntity
  8
0
100
AcDbBlockEnd
  0
BLOCK
  5
98
330
96
100
AcDbEntity
  8
0
100
AcDbBlockBegin
  2
BLOCK_14
 70
     0
 71
     0
 10
0.0
 20
0.0
 30
0.0
  3
BLOCK_14
  1

  0
POLYLINE
  5
9A
330
96
100
AcDbEntity
  8
GR2_01
 62
     7
100
AcDb2dPolyline
 66
     1
 10
0.0
 20
0.0
 30
0.0
  0
VERTEX
  5
9B
330
9A
100
AcDbEntity
  8
GR2_01
 62
     7
100
AcDbVertex
100
AcDb2dVertex
 10
172.6278781035444
 20
245.019497280325
 30
0.0
  0
VERTEX
  5
9C
330
9A
100
AcDbEntity
  8
GR2_01
 62
     7
100
AcDbVertex
100
AcDb2dVertex
 10
38.62778861881527
 20
245.019497280325
 30
0.0
  0
SEQEND
  5
9D
330
9A
100
AcDbEntity
  8
GR2_01
  0
ENDBLK
  5
99
330
96
100
AcDbEntity
  8
0
100
AcDbBlockEnd
  0
BLOCK
  5
A0
330
9E
100
AcDbEntity
  8
0
100
AcDbBlockBegin
  2
BLOCK_15
 70
     0
 71
     0
 10
0.0
 20
0.0
 30
0.0
  3
BLOCK_15
  1

  0
POLYLINE
  5
A2
330
9E
100
AcDbEntity
  8
GR2_01
 62
     7
100
AcDb2dPolyline
 66
     1
 10
0.0
 20
0.0
 30
0.0
  0
VERTEX
  5
A3
330
A2
100
AcDbEntity
  8
GR2_01
 62
     7
100
AcDbVertex
100
AcDb2dVertex
 10
170.3978677959422
 20
245.019497280325
 30
0.0
  0
VERTEX
  5
A4
330
A2
100
AcDbEntity
  8
GR2_01
 62
     7
100
AcDbVertex
100
AcDb2dVertex
 10
170.3978677959422
 20
224.0194009856618
 30
0.0
  0
SEQEND
  5
A5
330
A2
100
AcDbEntity
  8
GR2_01
  0
ENDBLK
  5
A1
330
9E
100
AcDbEntity
  8
0
100
AcDbBlockEnd
  0
BLOCK
  5
A8
330
A6
100
AcDbEntity
  8
0
100
AcDbBlockBegin
  2
BLOCK_16
 70
     0
 71
     0
 10
0.0
 20
0.0
 30
0.0
  3
BLOCK_16
  1

  0
POLYLINE
  5
AA
330
A6
100
AcDbEntity
  8
GR2_01
 62
     7
100
AcDb2dPolyline
 66
     1
 10
0.0
 20
0.0
 30
0.0
  0
VERTEX
  5
AB
330
AA
100
AcDbEntity
  8
GR2_01
 62
     7
100
AcDbVertex
100
AcDb2dVertex
 10
162.7776610921181
 20
245.019497280325
 30
0.0
  0
VERTEX
  5
AC
330
AA
100
AcDbEntity
  8
GR2_01
 62
     7
100
AcDbVertex
100
AcDb2dVertex
 10
162.7776610921181
 20
224.0194009856618
 30
0.0
  0
SEQEND
  5
AD
330
AA
100
AcDbEntity
  8
GR2_01
  0
ENDBLK
  5
A9
330
A6
100
AcDbEntity
  8
0
100
AcDbBlockEnd
  0
BLOCK
  5
B0
330
AE
100
AcDbEntity
  8
0
100
AcDbBlockBegin
  2
BLOCK_17
 70
     0
 71
     0
 10
0.0
 20
0.0
 30
0.0
  3
BLOCK_17
  1

  0
POLYLINE
  5
B2
330
AE
100
AcDbEntity
  8
GR2_01
 62
     7
100
AcDb2dPolyline
 66
     1
 10
0.0
 20
0.0
 30
0.0
  0
VERTEX
  5
B3
330
B2
100
AcDbEntity
  8
GR2_01
 62
     7
100
AcDbVertex
100
AcDb2dVertex
 10
155.1577988978425
 20
245.019497280325
 30
0.0
  0
VERTEX
  5
B4
330
B2
100
AcDbEntity
  8
GR2_01
 62
     7
100
AcDbVertex
100
AcDb2dVertex
 10
155.1577988978425
 20
224.0194009856618
 30
0.0
  0
SEQEND
  5
B5
330
B2
100
AcDbEntity
  8
GR2_01
  0
ENDBLK
  5
B1
330
AE
100
AcDbEntity
  8
0
100
AcDbBlockEnd
  0
BLOCK
  5
B8
330
B6
100
AcDbEntity
  8
0
100
AcDbBlockBegin
  2
BLOCK_18
 70
     0
 71
     0
 10
0.0
 20
0.0
 30
0.0
  3
BLOCK_18
  1

  0
POLYLINE
  5
BA
330
B6
100
AcDbEntity
  8
GR2_01
 62
     7
100
AcDb2dPolyline
 66
     1
 10
0.0
 20
0.0
 30
0.0
  0
VERTEX
  5
BB
330
BA
100
AcDbEntity
  8
GR2_01
 62
     7
100
AcDbVertex
100
AcDb2dVertex
 10
147.5379367035669
 20
245.019497280325
 30
0.0
  0
VERTEX
  5
BC
330
BA
100
AcDbEntity
  8
GR2_01
 62
     7
100
AcDbVertex
100
AcDb2dVertex
 10
147.5379367035669
 20
224.0194009856618
 30
0.0
  0
SEQEND
  5
BD
330
BA
100
AcDbEntity
  8
GR2_01
  0
ENDBLK
  5
B9
330
B6
100
AcDbEntity
  8
0
100
AcDbBlockEnd
  0
BLOCK
  5
C0
330
BE
100
AcDbEntity
  8
0
100
AcDbBlockBegin
  2
BLOCK_19
 70
     0
 71
     0
 10
0.0
 20
0.0
 30
0.0
  3
BLOCK_19
  1

  0
POLYLINE
  5
C2
330
BE
100
AcDbEntity
  8
GR2_01
 62
     7
100
AcDb2dPolyline
 66
     1
 10
0.0
 20
0.0
 30
0.0
  0
VERTEX
  5
C3
330
C2
100
AcDbEntity
  8
GR2_01
 62
     7
100
AcDbVertex
100
AcDb2dVertex
 10
139.9177299997428
 20
245.019497280325
 30
0.0
  0
VERTEX
  5
C4
330
C2
100
AcDbEntity
  8
GR2_01
 62
     7
100
AcDbVertex
100
AcDb2dVertex
 10
139.9177299997428
 20
224.0194009856618
 30
0.0
  0
SEQEND
  5
C5
330
C2
100
AcDbEntity
  8
GR2_01
  0
ENDBLK
  5
C1
330
BE
100
AcDbEntity
  8
0
100
AcDbBlockEnd
  0
BLOCK
  5
C8
330
C6
100
AcDbEntity
  8
0
100
AcDbBlockBegin
  2
BLOCK_20
 70
     0
 71
     0
 10
0.0
 20
0.0
 30
0.0
  3
BLOCK_20
  1

  0
POLYLINE
  5
CA
330
C6
100
AcDbEntity
  8
GR2_01
 62
     7
100
AcDb2dPolyline
 66
     1
 10
0.0
 20
0.0
 30
0.0
  0
VERTEX
  5
CB
330
CA
100
AcDbEntity
  8
GR2_01
 62
     7
100
AcDbVertex
100
AcDb2dVertex
 10
132.2978678054672
 20
245.019497280325
 30
0.0
  0
VERTEX
  5
CC
330
CA
100
AcDbEntity
  8
GR2_01
 62
     7
100
AcDbVertex
100
AcDb2dVertex
 10
132.2978678054672
 20
224.0194009856618
 30
0.0
  0
SEQEND
  5
CD
330
CA
100
AcDbEntity
  8
GR2_01
  0
ENDBLK
  5
C9
330
C6
100
AcDbEntity
  8
0
100
AcDbBlockEnd
  0
BLOCK
  5
D0
330
CE
100
AcDbEntity
  8
0
100
AcDbBlockBegin
  2
BLOCK_21
 70
     0
 71
     0
 10
0.0
 20
0.0
 30
0.0
  3
BLOCK_21
  1

  0
POLYLINE
  5
D2
330
CE
100
AcDbEntity
  8
GR2_01
 62
     7
100
AcDb2dPolyline
 66
     1
 10
0.0
 20
0.0
 30
0.0
  0
VERTEX
  5
D3
330
D2
100
AcDbEntity
  8
GR2_01
 62
     7
100
AcDbVertex
100
AcDb2dVertex
 10
124.6776611016431
 20
245.019497280325
 30
0.0
  0
VERTEX
  5
D4
330
D2
100
AcDbEntity
  8
GR2_01
 62
     7
100
AcDbVertex
100
AcDb2dVertex
 10
124.6776611016431
 20
224.0194009856618
 30
0.0
  0
SEQEND
  5
D5
330
D2
100
AcDbEntity
  8
GR2_01
  0
ENDBLK
  5
D1
330
CE
100
AcDbEntity
  8
0
100
AcDbBlockEnd
  0
BLOCK
  5
D8
330
D6
100
AcDbEntity
  8
0
100
AcDbBlockBegin
  2
BLOCK_22
 70
     0
 71
     0
 10
0.0
 20
0.0
 30
0.0
  3
BLOCK_22
  1

  0
POLYLINE
  5
DA
330
D6
100
AcDbEntity
  8
GR2_01
 62
     7
100
AcDb2dPolyline
 66
     1
 10
0.0
 20
0.0
 30
0.0
  0
VERTEX
  5
DB
330
DA
100
AcDbEntity
  8
GR2_01
 62
     7
100
AcDbVertex
100
AcDb2dVertex
 10
117.0577989073675
 20
245.019497280325
 30
0.0
  0
VERTEX
  5
DC
330
DA
100
AcDbEntity
  8
GR2_01
 62
     7
100
AcDbVertex
100
AcDb2dVertex
 10
117.0577989073675
 20
224.0194009856618
 30
0.0
  0
SEQEND
  5
DD
330
DA
100
AcDbEntity
  8
GR2_01
  0
ENDBLK
  5
D9
330
D6
100
AcDbEntity
  8
0
100
AcDbBlockEnd
  0
BLOCK
  5
E0
330
DE
100
AcDbEntity
  8
0
100
AcDbBlockBegin
  2
BLOCK_23
 70
     0
 71
     0
 10
0.0
 20
0.0
 30
0.0
  3
BLOCK_23
  1

  0
POLYLINE
  5
E2
330
DE
100
AcDbEntity
  8
GR2_01
 62
     7
100
AcDb2dPolyline
 66
     1
 10
0.0
 20
0.0
 30
0.0
  0
VERTEX
  5
E3
330
E2
100
AcDbEntity
  8
GR2_01
 62
     7
100
AcDbVertex
100
AcDb2dVertex
 10
109.4379367130919
 20
245.019497280325
 30
0.0
  0
VERTEX
  5
E4
330
E2
100
AcDbEntity
  8
GR2_01
 62
     7
100
AcDbVertex
100
AcDb2dVertex
 10
109.4379367130919
 20
224.0194009856618
 30
0.0
  0
SEQEND
  5
E5
330
E2
100
AcDbEntity
  8
GR2_01
  0
ENDBLK
  5
E1
330
DE
100
AcDbEntity
  8
0
100
AcDbBlockEnd
  0
BLOCK
  5
E8
330
E6
100
AcDbEntity
  8
0
100
AcDbBlockBegin
  2
BLOCK_24
 70
     0
 71
     0
 10
0.0
 20
0.0
 30
0.0
  3
BLOCK_24
  1

  0
POLYLINE
  5
EA
330
E6
100
AcDbEntity
  8
GR2_01
 62
     7
100
AcDb2dPolyline
 66
     1
 10
0.0
 20
0.0
 30
0.0
  0
VERTEX
  5
EB
330
EA
100
AcDbEntity
  8
GR2_01
 62
     7
100
AcDbVertex
100
AcDb2dVertex
 10
101.8177300092678
 20
245.019497280325
 30
0.0
  0
VERTEX
  5
EC
330
EA
100
AcDbEntity
  8
GR2_01
 62
     7
100
AcDbVertex
100
AcDb2dVertex
 10
101.8177300092678
 20
224.0194009856618
 30
0.0
  0
SEQEND
  5
ED
330
EA
100
AcDbEntity
  8
GR2_01
  0
ENDBLK
  5
E9
330
E6
100
AcDbEntity
  8
0
100
AcDbBlockEnd
  0
BLOCK
  5
F0
330
EE
100
AcDbEntity
  8
0
100
AcDbBlockBegin
  2
BLOCK_25
 70
     0
 71
     0
 10
0.0
 20
0.0
 30
0.0
  3
BLOCK_25
  1

  0
POLYLINE
  5
F2
330
EE
100
AcDbEntity
  8
GR2_01
 62
     7
100
AcDb2dPolyline
 66
     1
 10
0.0
 20
0.0
 30
0.0
  0
VERTEX
  5
F3
330
F2
100
AcDbEntity
  8
GR2_01
 62
     7
100
AcDbVertex
100
AcDb2dVertex
 10
94.19786781499221
 20
245.019497280325
 30
0.0
  0
VERTEX
  5
F4
330
F2
100
AcDbEntity
  8
GR2_01
 62
     7
100
AcDbVertex
100
AcDb2dVertex
 10
94.19786781499221
 20
224.0194009856618
 30
0.0
  0
SEQEND
  5
F5
330
F2
100
AcDbEntity
  8
GR2_01
  0
ENDBLK
  5
F1
330
EE
100
AcDbEntity
  8
0
100
AcDbBlockEnd
  0
BLOCK
  5
F8
330
F6
100
AcDbEntity
  8
0
100
AcDbBlockBegin
  2
BLOCK_26
 70
     0
 71
     0
 10
0.0
 20
0.0
 30
0.0
  3
BLOCK_26
  1

  0
POLYLINE
  5
FA
330
F6
100
AcDbEntity
  8
GR2_01
 62
     7
100
AcDb2dPolyline
 66
     1
 10
0.0
 20
0.0
 30
0.0
  0
VERTEX
  5
FB
330
FA
100
AcDbEntity
  8
GR2_01
 62
     7
100
AcDbVertex
100
AcDb2dVertex
 10
86.57783336594235
 20
245.019497280325
 30
0.0
  0
VERTEX
  5
FC
330
FA
100
AcDbEntity
  8
GR2_01
 62
     7
100
AcDbVertex
100
AcDb2dVertex
 10
86.57783336594235
 20
224.0194009856618
 30
0.0
  0
SEQEND
  5
FD
330
FA
100
AcDbEntity
  8
GR2_01
  0
ENDBLK
  5
F9
330
F6
100
AcDbEntity
  8
0
100
AcDbBlockEnd
  0
BLOCK
  5
100
330
FE
100
AcDbEntity
  8
0
100
AcDbBlockBegin
  2
BLOCK_27
 70
     0
 71
     0
 10
0.0
 20
0.0
 30
0.0
  3
BLOCK_27
  1

  0
POLYLINE
  5
102
330
FE
100
AcDbEntity
  8
GR2_01
 62
     7
100
AcDb2dPolyline
 66
     1
 10
0.0
 20
0.0
 30
0.0
  0
VERTEX
  5
103
330
102
100
AcDbEntity
  8
GR2_01
 62
     7
100
AcDbVertex
100
AcDb2dVertex
 10
78.9577989168925
 20
245.019497280325
 30
0.0
  0
VERTEX
  5
104
330
102
100
AcDbEntity
  8
GR2_01
 62
     7
100
AcDbVertex
100
AcDb2dVertex
 10
78.9577989168925
 20
224.0194009856618
 30
0.0
  0
SEQEND
  5
105
330
102
100
AcDbEntity
  8
GR2_01
  0
ENDBLK
  5
101
330
FE
100
AcDbEntity
  8
0
100
AcDbBlockEnd
  0
BLOCK
  5
108
330
106
100
AcDbEntity
  8
0
100
AcDbBlockBegin
  2
BLOCK_28
 70
     0
 71
     0
 10
0.0
 20
0.0
 30
0.0
  3
BLOCK_28
  1

  0
POLYLINE
  5
10A
330
106
100
AcDbEntity
  8
GR2_01
 62
     7
100
AcDb2dPolyline
 66
     1
 10
0.0
 20
0.0
 30
0.0
  0
VERTEX
  5
10B
330
10A
100
AcDbEntity
  8
GR2_01
 62
     7
100
AcDbVertex
100
AcDb2dVertex
 10
71.33776446784265
 20
245.019497280325
 30
0.0
  0
VERTEX
  5
10C
330
10A
100
AcDbEntity
  8
GR2_01
 62
     7
100
AcDbVertex
100
AcDb2dVertex
 10
71.33776446784265
 20
224.0194009856618
 30
0.0
  0
SEQEND
  5
10D
330
10A
100
AcDbEntity
  8
GR2_01
  0
ENDBLK
  5
109
330
106
100
AcDbEntity
  8
0
100
AcDbBlockEnd
  0
BLOCK
  5
110
330
10E
100
AcDbEntity
  8
0
100
AcDbBlockBegin
  2
BLOCK_29
 70
     0
 71
     0
 10
0.0
 20
0.0
 30
0.0
  3
BLOCK_29
  1

  0
POLYLINE
  5
112
330
10E
100
AcDbEntity
  8
GR2_01
 62
     7
100
AcDb2dPolyline
 66
     1
 10
0.0
 20
0.0
 30
0.0
  0
VERTEX
  5
113
330
112
100
AcDbEntity
  8
GR2_01
 62
     7
100
AcDbVertex
100
AcDb2dVertex
 10
63.71773001879279
 20
245.019497280325
 30
0.0
  0
VERTEX
  5
114
330
112
100
AcDbEntity
  8
GR2_01
 62
     7
100
AcDbVertex
100
AcDb2dVertex
 10
63.71773001879279
 20
224.0194009856618
 30
0.0
  0
SEQEND
  5
115
330
112
100
AcDbEntity
  8
GR2_01
  0
ENDBLK
  5
111
330
10E
100
AcDbEntity
  8
0
100
AcDbBlockEnd
  0
BLOCK
  5
118
330
116
100
AcDbEntity
  8
0
100
AcDbBlockBegin
  2
BLOCK_30
 70
     0
 71
     0
 10
0.0
 20
0.0
 30
0.0
  3
BLOCK_30
  1

  0
POLYLINE
  5
11A
330
116
100
AcDbEntity
  8
GR2_01
 62
     7
100
AcDb2dPolyline
 66
     1
 10
0.0
 20
0.0
 30
0.0
  0
VERTEX
  5
11B
330
11A
100
AcDbEntity
  8
GR2_01
 62
     7
100
AcDbVertex
100
AcDb2dVertex
 10
56.09769556974294
 20
245.019497280325
 30
0.0
  0
VERTEX
  5
11C
330
11A
100
AcDbEntity
  8
GR2_01
 62
     7
100
AcDbVertex
100
AcDb2dVertex
 10
56.09769556974294
 20
224.0194009856618
 30
0.0
  0
SEQEND
  5
11D
330
11A
100
AcDbEntity
  8
GR2_01
  0
ENDBLK
  5
119
330
116
100
AcDbEntity
  8
0
100
AcDbBlockEnd
  0
BLOCK
  5
120
330
11E
100
AcDbEntity
  8
0
100
AcDbBlockBegin
  2
BLOCK_31
 70
     0
 71
     0
 10
0.0
 20
0.0
 30
0.0
  3
BLOCK_31
  1

  0
POLYLINE
  5
122
330
11E
100
AcDbEntity
  8
GR2_01
 62
     7
100
AcDb2dPolyline
 66
     1
 10
0.0
 20
0.0
 30
0.0
  0
VERTEX
  5
123
330
122
100
AcDbEntity
  8
GR2_01
 62
     7
100
AcDbVertex
100
AcDb2dVertex
 10
48.47783337546735
 20
245.019497280325
 30
0.0
  0
VERTEX
  5
124
330
122
100
AcDbEntity
  8
GR2_01
 62
     7
100
AcDbVertex
100
AcDb2dVertex
 10
48.47783337546735
 20
224.0194009856618
 30
0.0
  0
SEQEND
  5
125
330
122
100
AcDbEntity
  8
GR2_01
  0
ENDBLK
  5
121
330
11E
100
AcDbEntity
  8
0
100
AcDbBlockEnd
  0
BLOCK
  5
128
330
126
100
AcDbEntity
  8
0
100
AcDbBlockBegin
  2
BLOCK_32
 70
     0
 71
     0
 10
0.0
 20
0.0
 30
0.0
  3
BLOCK_32
  1

  0
POLYLINE
  5
12A
330
126
100
AcDbEntity
  8
GR2_01
 62
     7
100
AcDb2dPolyline
 66
     1
 10
0.0
 20
0.0
 30
0.0
  0
VERTEX
  5
12B
330
12A
100
AcDbEntity
  8
GR2_01
 62
     7
100
AcDbVertex
100
AcDb2dVertex
 10
44.66773002355529
 20
245.019497280325
 30
0.0
  0
VERTEX
  5
12C
330
12A
100
AcDbEntity
  8
GR2_01
 62
     7
100
AcDbVertex
100
AcDb2dVertex
 10
44.66773002355529
 20
224.0194009856618
 30
0.0
  0
SEQEND
  5
12D
330
12A
100
AcDbEntity
  8
GR2_01
  0
ENDBLK
  5
129
330
126
100
AcDbEntity
  8
0
100
AcDbBlockEnd
  0
BLOCK
  5
130
330
12E
100
AcDbEntity
  8
0
100
AcDbBlockBegin
  2
BLOCK_33
 70
     0
 71
     0
 10
0.0
 20
0.0
 30
0.0
  3
BLOCK_33
  1

  0
POLYLINE
  5
132
330
12E
100
AcDbEntity
  8
GR2_01
 62
     7
100
AcDb2dPolyline
 66
     1
 10
0.0
 20
0.0
 30
0.0
  0
VERTEX
  5
133
330
132
100
AcDbEntity
  8
GR2_01
 62
     7
100
AcDbVertex
100
AcDb2dVertex
 10
52.28776447260515
 20
245.019497280325
 30
0.0
  0
VERTEX
  5
134
330
132
100
AcDbEntity
  8
GR2_01
 62
     7
100
AcDbVertex
100
AcDb2dVertex
 10
52.28776447260515
 20
224.0194009856618
 30
0.0
  0
SEQEND
  5
135
330
132
100
AcDbEntity
  8
GR2_01
  0
ENDBLK
  5
131
330
12E
100
AcDbEntity
  8
0
100
AcDbBlockEnd
  0
BLOCK
  5
138
330
136
100
AcDbEntity
  8
0
100
AcDbBlockBegin
  2
BLOCK_34
 70
     0
 71
     0
 10
0.0
 20
0.0
 30
0.0
  3
BLOCK_34
  1

  0
POLYLINE
  5
13A
330
136
100
AcDbEntity
  8
GR2_01
 62
     7
100
AcDb2dPolyline
 66
     1
 10
0.0
 20
0.0
 30
0.0
  0
VERTEX
  5
13B
330
13A
100
AcDbEntity
  8
GR2_01
 62
     7
100
AcDbVertex
100
AcDb2dVertex
 10
59.907798921655
 20
245.019497280325
 30
0.0
  0
VERTEX
  5
13C
330
13A
100
AcDbEntity
  8
GR2_01
 62
     7
100
AcDbVertex
100
AcDb2dVertex
 10
59.907798921655
 20
224.0194009856618
 30
0.0
  0
SEQEND
  5
13D
330
13A
100
AcDbEntity
  8
GR2_01
  0
ENDBLK
  5
139
330
136
100
AcDbEntity
  8
0
100
AcDbBlockEnd
  0
BLOCK
  5
140
330
13E
100
AcDbEntity
  8
0
100
AcDbBlockBegin
  2
BLOCK_35
 70
     0
 71
     0
 10
0.0
 20
0.0
 30
0.0
  3
BLOCK_35
  1

  0
POLYLINE
  5
142
330
13E
100
AcDbEntity
  8
GR2_01
 62
     7
100
AcDb2dPolyline
 66
     1
 10
0.0
 20
0.0
 30
0.0
  0
VERTEX
  5
143
330
142
100
AcDbEntity
  8
GR2_01
 62
     7
100
AcDbVertex
100
AcDb2dVertex
 10
67.52783337070485
 20
245.019497280325
 30
0.0
  0
VERTEX
  5
144
330
142
100
AcDbEntity
  8
GR2_01
 62
     7
100
AcDbVertex
100
AcDb2dVertex
 10
67.52783337070485
 20
224.0194009856618
 30
0.0
  0
SEQEND
  5
145
330
142
100
AcDbEntity
  8
GR2_01
  0
ENDBLK
  5
141
330
13E
100
AcDbEntity
  8
0
100
AcDbBlockEnd
  0
BLOCK
  5
148
330
146
100
AcDbEntity
  8
0
100
AcDbBlockBegin
  2
BLOCK_36
 70
     0
 71
     0
 10
0.0
 20
0.0
 30
0.0
  3
BLOCK_36
  1

  0
POLYLINE
  5
14A
330
146
100
AcDbEntity
  8
GR2_01
 62
     7
100
AcDb2dPolyline
 66
     1
 10
0.0
 20
0.0
 30
0.0
  0
VERTEX
  5
14B
330
14A
100
AcDbEntity
  8
GR2_01
 62
     7
100
AcDbVertex
100
AcDb2dVertex
 10
75.14769556498044
 20
245.019497280325
 30
0.0
  0
VERTEX
  5
14C
330
14A
100
AcDbEntity
  8
GR2_01
 62
     7
100
AcDbVertex
100
AcDb2dVertex
 10
75.14769556498044
 20
224.0194009856618
 30
0.0
  0
SEQEND
  5
14D
330
14A
100
AcDbEntity
  8
GR2_01
  0
ENDBLK
  5
149
330
146
100
AcDbEntity
  8
0
100
AcDbBlockEnd
  0
BLOCK
  5
150
330
14E
100
AcDbEntity
  8
0
100
AcDbBlockBegin
  2
BLOCK_37
 70
     0
 71
     0
 10
0.0
 20
0.0
 30
0.0
  3
BLOCK_37
  1

  0
POLYLINE
  5
152
330
14E
100
AcDbEntity
  8
GR2_01
 62
     7
100
AcDb2dPolyline
 66
     1
 10
0.0
 20
0.0
 30
0.0
  0
VERTEX
  5
153
330
152
100
AcDbEntity
  8
GR2_01
 62
     7
100
AcDbVertex
100
AcDb2dVertex
 10
82.76773001403029
 20
245.019497280325
 30
0.0
  0
VERTEX
  5
154
330
152
100
AcDbEntity
  8
GR2_01
 62
     7
100
AcDbVertex
100
AcDb2dVertex
 10
82.76773001403029
 20
224.0194009856618
 30
0.0
  0
SEQEND
  5
155
330
152
100
AcDbEntity
  8
GR2_01
  0
ENDBLK
  5
151
330
14E
100
AcDbEntity
  8
0
100
AcDbBlockEnd
  0
BLOCK
  5
158
330
156
100
AcDbEntity
  8
0
100
AcDbBlockBegin
  2
BLOCK_38
 70
     0
 71
     0
 10
0.0
 20
0.0
 30
0.0
  3
BLOCK_38
  1

  0
POLYLINE
  5
15A
330
156
100
AcDbEntity
  8
GR2_01
 62
     7
100
AcDb2dPolyline
 66
     1
 10
0.0
 20
0.0
 30
0.0
  0
VERTEX
  5
15B
330
15A
100
AcDbEntity
  8
GR2_01
 62
     7
100
AcDbVertex
100
AcDb2dVertex
 10
90.38776446308015
 20
245.019497280325
 30
0.0
  0
VERTEX
  5
15C
330
15A
100
AcDbEntity
  8
GR2_01
 62
     7
100
AcDbVertex
100
AcDb2dVertex
 10
90.38776446308015
 20
224.0194009856618
 30
0.0
  0
SEQEND
  5
15D
330
15A
100
AcDbEntity
  8
GR2_01
  0
ENDBLK
  5
159
330
156
100
AcDbEntity
  8
0
100
AcDbBlockEnd
  0
BLOCK
  5
160
330
15E
100
AcDbEntity
  8
0
100
AcDbBlockBegin
  2
BLOCK_39
 70
     0
 71
     0
 10
0.0
 20
0.0
 30
0.0
  3
BLOCK_39
  1

  0
POLYLINE
  5
162
330
15E
100
AcDbEntity
  8
GR2_01
 62
     7
100
AcDb2dPolyline
 66
     1
 10
0.0
 20
0.0
 30
0.0
  0
VERTEX
  5
163
330
162
100
AcDbEntity
  8
GR2_01
 62
     7
100
AcDbVertex
100
AcDb2dVertex
 10
98.00779891213
 20
245.019497280325
 30
0.0
  0
VERTEX
  5
164
330
162
100
AcDbEntity
  8
GR2_01
 62
     7
100
AcDbVertex
100
AcDb2dVertex
 10
98.00779891213
 20
224.0194009856618
 30
0.0
  0
SEQEND
  5
165
330
162
100
AcDbEntity
  8
GR2_01
  0
ENDBLK
  5
161
330
15E
100
AcDbEntity
  8
0
100
AcDbBlockEnd
  0
BLOCK
  5
168
330
166
100
AcDbEntity
  8
0
100
AcDbBlockBegin
  2
BLOCK_40
 70
     0
 71
     0
 10
0.0
 20
0.0
 30
0.0
  3
BLOCK_40
  1

  0
POLYLINE
  5
16A
330
166
100
AcDbEntity
  8
GR2_01
 62
     7
100
AcDb2dPolyline
 66
     1
 10
0.0
 20
0.0
 30
0.0
  0
VERTEX
  5
16B
330
16A
100
AcDbEntity
  8
GR2_01
 62
     7
100
AcDbVertex
100
AcDb2dVertex
 10
105.6276611064056
 20
245.019497280325
 30
0.0
  0
VERTEX
  5
16C
330
16A
100
AcDbEntity
  8
GR2_01
 62
     7
100
AcDbVertex
100
AcDb2dVertex
 10
105.6276611064056
 20
224.0194009856618
 30
0.0
  0
SEQEND
  5
16D
330
16A
100
AcDbEntity
  8
GR2_01
  0
ENDBLK
  5
169
330
166
100
AcDbEntity
  8
0
100
AcDbBlockEnd
  0
BLOCK
  5
170
330
16E
100
AcDbEntity
  8
0
100
AcDbBlockBegin
  2
BLOCK_41
 70
     0
 71
     0
 10
0.0
 20
0.0
 30
0.0
  3
BLOCK_41
  1

  0
POLYLINE
  5
172
330
16E
100
AcDbEntity
  8
GR2_01
 62
     7
100
AcDb2dPolyline
 66
     1
 10
0.0
 20
0.0
 30
0.0
  0
VERTEX
  5
173
330
172
100
AcDbEntity
  8
GR2_01
 62
     7
100
AcDbVertex
100
AcDb2dVertex
 10
113.2478678102297
 20
245.019497280325
 30
0.0
  0
VERTEX
  5
174
330
172
100
AcDbEntity
  8
GR2_01
 62
     7
100
AcDbVertex
100
AcDb2dVertex
 10
113.2478678102297
 20
224.0194009856618
 30
0.0
  0
SEQEND
  5
175
330
172
100
AcDbEntity
  8
GR2_01
  0
ENDBLK
  5
171
330
16E
100
AcDbEntity
  8
0
100
AcDbBlockEnd
  0
BLOCK
  5
178
330
176
100
AcDbEntity
  8
0
100
AcDbBlockBegin
  2
BLOCK_42
 70
     0
 71
     0
 10
0.0
 20
0.0
 30
0.0
  3
BLOCK_42
  1

  0
POLYLINE
  5
17A
330
176
100
AcDbEntity
  8
GR2_01
 62
     7
100
AcDb2dPolyline
 66
     1
 10
0.0
 20
0.0
 30
0.0
  0
VERTEX
  5
17B
330
17A
100
AcDbEntity
  8
GR2_01
 62
     7
100
AcDbVertex
100
AcDb2dVertex
 10
120.8677300045053
 20
245.019497280325
 30
0.0
  0
VERTEX
  5
17C
330
17A
100
AcDbEntity
  8
GR2_01
 62
     7
100
AcDbVertex
100
AcDb2dVertex
 10
120.8677300045053
 20
224.0194009856618
 30
0.0
  0
SEQEND
  5
17D
330
17A
100
AcDbEntity
  8
GR2_01
  0
ENDBLK
  5
179
330
176
100
AcDbEntity
  8
0
100
AcDbBlockEnd
  0
BLOCK
  5
180
330
17E
100
AcDbEntity
  8
0
100
AcDbBlockBegin
  2
BLOCK_43
 70
     0
 71
     0
 10
0.0
 20
0.0
 30
0.0
  3
BLOCK_43
  1

  0
POLYLINE
  5
182
330
17E
100
AcDbEntity
  8
GR2_01
 62
     7
100
AcDb2dPolyline
 66
     1
 10
0.0
 20
0.0
 30
0.0
  0
VERTEX
  5
183
330
182
100
AcDbEntity
  8
GR2_01
 62
     7
100
AcDbVertex
100
AcDb2dVertex
 10
128.4879367083294
 20
245.019497280325
 30
0.0
  0
VERTEX
  5
184
330
182
100
AcDbEntity
  8
GR2_01
 62
     7
100
AcDbVertex
100
AcDb2dVertex
 10
128.4879367083294
 20
224.0194009856618
 30
0.0
  0
SEQEND
  5
185
330
182
100
AcDbEntity
  8
GR2_01
  0
ENDBLK
  5
181
330
17E
100
AcDbEntity
  8
0
100
AcDbBlockEnd
  0
BLOCK
  5
188
330
186
100
AcDbEntity
  8
0
100
AcDbBlockBegin
  2
BLOCK_44
 70
     0
 71
     0
 10
0.0
 20
0.0
 30
0.0
  3
BLOCK_44
  1

  0
POLYLINE
  5
18A
330
186
100
AcDbEntity
  8
GR2_01
 62
     7
100
AcDb2dPolyline
 66
     1
 10
0.0
 20
0.0
 30
0.0
  0
VERTEX
  5
18B
330
18A
100
AcDbEntity
  8
GR2_01
 62
     7
100
AcDbVertex
100
AcDb2dVertex
 10
136.107798902605
 20
245.019497280325
 30
0.0
  0
VERTEX
  5
18C
330
18A
100
AcDbEntity
  8
GR2_01
 62
     7
100
AcDbVertex
100
AcDb2dVertex
 10
136.107798902605
 20
224.0194009856618
 30
0.0
  0
SEQEND
  5
18D
330
18A
100
AcDbEntity
  8
GR2_01
  0
ENDBLK
  5
189
330
186
100
AcDbEntity
  8
0
100
AcDbBlockEnd
  0
BLOCK
  5
190
330
18E
100
AcDbEntity
  8
0
100
AcDbBlockBegin
  2
BLOCK_45
 70
     0
 71
     0
 10
0.0
 20
0.0
 30
0.0
  3
BLOCK_45
  1

  0
POLYLINE
  5
192
330
18E
100
AcDbEntity
  8
GR2_01
 62
     7
100
AcDb2dPolyline
 66
     1
 10
0.0
 20
0.0
 30
0.0
  0
VERTEX
  5
193
330
192
100
AcDbEntity
  8
GR2_01
 62
     7
100
AcDbVertex
100
AcDb2dVertex
 10
143.7276610968806
 20
245.019497280325
 30
0.0
  0
VERTEX
  5
194
330
192
100
AcDbEntity
  8
GR2_01
 62
     7
100
AcDbVertex
100
AcDb2dVertex
 10
143.7276610968806
 20
224.0194009856618
 30
0.0
  0
SEQEND
  5
195
330
192
100
AcDbEntity
  8
GR2_01
  0
ENDBLK
  5
191
330
18E
100
AcDbEntity
  8
0
100
AcDbBlockEnd
  0
BLOCK
  5
198
330
196
100
AcDbEntity
  8
0
100
AcDbBlockBegin
  2
BLOCK_46
 70
     0
 71
     0
 10
0.0
 20
0.0
 30
0.0
  3
BLOCK_46
  1

  0
POLYLINE
  5
19A
330
196
100
AcDbEntity
  8
GR2_01
 62
     7
100
AcDb2dPolyline
 66
     1
 10
0.0
 20
0.0
 30
0.0
  0
VERTEX
  5
19B
330
19A
100
AcDbEntity
  8
GR2_01
 62
     7
100
AcDbVertex
100
AcDb2dVertex
 10
151.3478678007047
 20
245.019497280325
 30
0.0
  0
VERTEX
  5
19C
330
19A
100
AcDbEntity
  8
GR2_01
 62
     7
100
AcDbVertex
100
AcDb2dVertex
 10
151.3478678007047
 20
224.0194009856618
 30
0.0
  0
SEQEND
  5
19D
330
19A
100
AcDbEntity
  8
GR2_01
  0
ENDBLK
  5
199
330
196
100
AcDbEntity
  8
0
100
AcDbBlockEnd
  0
BLOCK
  5
1A0
330
19E
100
AcDbEntity
  8
0
100
AcDbBlockBegin
  2
BLOCK_47
 70
     0
 71
     0
 10
0.0
 20
0.0
 30
0.0
  3
BLOCK_47
  1

  0
POLYLINE
  5
1A2
330
19E
100
AcDbEntity
  8
GR2_01
 62
     7
100
AcDb2dPolyline
 66
     1
 10
0.0
 20
0.0
 30
0.0
  0
VERTEX
  5
1A3
330
1A2
100
AcDbEntity
  8
GR2_01
 62
     7
100
AcDbVertex
100
AcDb2dVertex
 10
158.9677299949803
 20
245.019497280325
 30
0.0
  0
VERTEX
  5
1A4
330
1A2
100
AcDbEntity
  8
GR2_01
 62
     7
100
AcDbVertex
100
AcDb2dVertex
 10
158.9677299949803
 20
224.0194009856618
 30
0.0
  0
SEQEND
  5
1A5
330
1A2
100
AcDbEntity
  8
GR2_01
  0
ENDBLK
  5
1A1
330
19E
100
AcDbEntity
  8
0
100
AcDbBlockEnd
  0
BLOCK
  5
1A8
330
1A6
100
AcDbEntity
  8
0
100
AcDbBlockBegin
  2
BLOCK_48
 70
     0
 71
     0
 10
0.0
 20
0.0
 30
0.0
  3
BLOCK_48
  1

  0
POLYLINE
  5
1AA
330
1A6
100
AcDbEntity
  8
GR2_01
 62
     7
100
AcDb2dPolyline
 66
     1
 10
0.0
 20
0.0
 30
0.0
  0
VERTEX
  5
1AB
330
1AA
100
AcDbEntity
  8
GR2_01
 62
     7
100
AcDbVertex
100
AcDb2dVertex
 10
166.5879366988044
 20
245.019497280325
 30
0.0
  0
VERTEX
  5
1AC
330
1AA
100
AcDbEntity
  8
GR2_01
 62
     7
100
AcDbVertex
100
AcDb2dVertex
 10
166.5879366988044
 20
224.0194009856618
 30
0.0
  0
SEQEND
  5
1AD
330
1AA
100
AcDbEntity
  8
GR2_01
  0
ENDBLK
  5
1A9
330
1A6
100
AcDbEntity
  8
0
100
AcDbBlockEnd
  0
BLOCK
  5
1B0
330
1AE
100
AcDbEntity
  8
0
100
AcDbBlockBegin
  2
BLOCK_49
 70
     0
 71
     0
 10
0.0
 20
0.0
 30
0.0
  3
BLOCK_49
  1

  0
POLYLINE
  5
1B2
330
1AE
100
AcDbEntity
  8
GR2_01
 62
     7
100
AcDb2dPolyline
 66
     1
 10
0.0
 20
0.0
 30
0.0
  0
VERTEX
  5
1B3
330
1B2
100
AcDbEntity
  8
GR2_01
 62
     7
100
AcDbVertex
100
AcDb2dVertex
 10
40.85779892641749
 20
245.019497280325
 30
0.0
  0
VERTEX
  5
1B4
330
1B2
100
AcDbEntity
  8
GR2_01
 62
     7
100
AcDbVertex
100
AcDb2dVertex
 10
40.85779892641749
 20
224.0194009856618
 30
0.0
  0
SEQEND
  5
1B5
330
1B2
100
AcDbEntity
  8
GR2_01
  0
ENDBLK
  5
1B1
330
1AE
100
AcDbEntity
  8
0
100
AcDbBlockEnd
  0
BLOCK
  5
1B8
330
1B6
100
AcDbEntity
  8
0
100
AcDbBlockBegin
  2
BLOCK_50
 70
     0
 71
     0
 10
0.0
 20
0.0
 30
0.0
  3
BLOCK_50
  1

  0
POLYLINE
  5
1BA
330
1B6
100
AcDbEntity
  8
GR2_01
 62
     7
100
AcDb2dPolyline
 66
     1
 10
0.0
 20
0.0
 30
0.0
  0
VERTEX
  5
1BB
330
1BA
100
AcDbEntity
  8
GR2_01
 62
     7
100
AcDbVertex
100
AcDb2dVertex
 10
170.3978677959422
 20
241.0193969124014
 30
0.0
  0
VERTEX
  5
1BC
330
1BA
100
AcDbEntity
  8
GR2_01
 62
     7
100
AcDbVertex
100
AcDb2dVertex
 10
40.85779892641749
 20
241.0193969124014
 30
0.0
  0
SEQEND
  5
1BD
330
1BA
100
AcDbEntity
  8
GR2_01
  0
ENDBLK
  5
1B9
330
1B6
100
AcDbEntity
  8
0
100
AcDbBlockEnd
  0
BLOCK
  5
1C0
330
1BE
100
AcDbEntity
  8
0
100
AcDbBlockBegin
  2
BLOCK_51
 70
     0
 71
     0
 10
0.0
 20
0.0
 30
0.0
  3
BLOCK_51
  1

  0
POLYLINE
  5
1C2
330
1BE
100
AcDbEntity
  8
GR2_01
 62
     7
100
AcDb2dPolyline
 66
     1
 10
0.0
 20
0.0
 30
0.0
  0
VERTEX
  5
1C3
330
1C2
100
AcDbEntity
  8
GR2_01
 62
     7
100
AcDbVertex
100
AcDb2dVertex
 10
172.6278781035444
 20
185.0193697996653
 30
0.0
  0
VERTEX
  5
1C4
330
1C2
100
AcDbEntity
  8
GR2_01
 62
     7
100
AcDbVertex
100
AcDb2dVertex
 10
38.62778861881527
 20
185.0193697996653
 30
0.0
  0
SEQEND
  5
1C5
330
1C2
100
AcDbEntity
  8
GR2_01
  0
ENDBLK
  5
1C1
330
1BE
100
AcDbEntity
  8
0
100
AcDbBlockEnd
  0
BLOCK
  5
1C8
330
1C6
100
AcDbEntity
  8
0
100
AcDbBlockBegin
  2
BLOCK_52
 70
     0
 71
     0
 10
0.0
 20
0.0
 30
0.0
  3
BLOCK_52
  1

  0
POLYLINE
  5
1CA
330
1C6
100
AcDbEntity
  8
GR2_01
 62
     7
100
AcDb2dPolyline
 66
     1
 10
0.0
 20
0.0
 30
0.0
  0
VERTEX
  5
1CB
330
1CA
100
AcDbEntity
  8
GR2_01
 62
     7
100
AcDbVertex
100
AcDb2dVertex
 10
38.62778861881527
 20
174.5194077797208
 30
0.0
  0
VERTEX
  5
1CC
330
1CA
100
AcDbEntity
  8
GR2_01
 62
     7
100
AcDbVertex
100
AcDb2dVertex
 10
172.6278781035444
 20
174.5194077797208
 30
0.0
  0
SEQEND
  5
1CD
330
1CA
100
AcDbEntity
  8
GR2_01
  0
ENDBLK
  5
1C9
330
1C6
100
AcDbEntity
  8
0
100
AcDbBlockEnd
  0
BLOCK
  5
1D0
330
1CE
100
AcDbEntity
  8
0
100
AcDbBlockBegin
  2
BLOCK_53
 70
     0
 71
     0
 10
0.0
 20
0.0
 30
0.0
  3
BLOCK_53
  1

  0
POLYLINE
  5
1D2
330
1CE
100
AcDbEntity
  8
GR2_01
 62
     7
100
AcDb2dPolyline
 66
     1
 10
0.0
 20
0.0
 30
0.0
  0
VERTEX
  5
1D3
330
1D2
100
AcDbEntity
  8
GR2_01
 62
     7
100
AcDbVertex
100
AcDb2dVertex
 10
168.492729992599
 20
185.0193697996653
 30
0.0
  0
VERTEX
  5
1D4
330
1D2
100
AcDbEntity
  8
GR2_01
 62
     7
100
AcDbVertex
100
AcDb2dVertex
 10
168.492729992599
 20
174.5194077797208
 30
0.0
  0
SEQEND
  5
1D5
330
1D2
100
AcDbEntity
  8
GR2_01
  0
ENDBLK
  5
1D1
330
1CE
100
AcDbEntity
  8
0
100
AcDbBlockEnd
  0
BLOCK
  5
1D8
330
1D6
100
AcDbEntity
  8
0
100
AcDbBlockBegin
  2
BLOCK_54
 70
     0
 71
     0
 10
0.0
 20
0.0
 30
0.0
  3
BLOCK_54
  1

  0
POLYLINE
  5
1DA
330
1D6
100
AcDbEntity
  8
GR2_01
 62
     7
100
AcDb2dPolyline
 66
     1
 10
0.0
 20
0.0
 30
0.0
  0
VERTEX
  5
1DB
330
1DA
100
AcDbEntity
  8
GR2_01
 62
     7
100
AcDbVertex
100
AcDb2dVertex
 10
160.8728677983235
 20
184.9694159151292
 30
0.0
  0
VERTEX
  5
1DC
330
1DA
100
AcDbEntity
  8
GR2_01
 62
     7
100
AcDbVertex
100
AcDb2dVertex
 10
160.8728677983235
 20
174.5194077797208
 30
0.0
  0
SEQEND
  5
1DD
330
1DA
100
AcDbEntity
  8
GR2_01
  0
ENDBLK
  5
1D9
330
1D6
100
AcDbEntity
  8
0
100
AcDbBlockEnd
  0
BLOCK
  5
1E0
330
1DE
100
AcDbEntity
  8
0
100
AcDbBlockBegin
  2
BLOCK_55
 70
     0
 71
     0
 10
0.0
 20
0.0
 30
0.0
  3
BLOCK_55
  1

  0
POLYLINE
  5
1E2
330
1DE
100
AcDbEntity
  8
GR2_01
 62
     7
100
AcDb2dPolyline
 66
     1
 10
0.0
 20
0.0
 30
0.0
  0
VERTEX
  5
1E3
330
1E2
100
AcDbEntity
  8
GR2_01
 62
     7
100
AcDbVertex
100
AcDb2dVertex
 10
153.2526610944993
 20
184.9694159151292
 30
0.0
  0
VERTEX
  5
1E4
330
1E2
100
AcDbEntity
  8
GR2_01
 62
     7
100
AcDbVertex
100
AcDb2dVertex
 10
153.2526610944993
 20
174.5194077797208
 30
0.0
  0
SEQEND
  5
1E5
330
1E2
100
AcDbEntity
  8
GR2_01
  0
ENDBLK
  5
1E1
330
1DE
100
AcDbEntity
  8
0
100
AcDbBlockEnd
  0
BLOCK
  5
1E8
330
1E6
100
AcDbEntity
  8
0
100
AcDbBlockBegin
  2
BLOCK_56
 70
     0
 71
     0
 10
0.0
 20
0.0
 30
0.0
  3
BLOCK_56
  1

  0
POLYLINE
  5
1EA
330
1E6
100
AcDbEntity
  8
GR2_01
 62
     7
100
AcDb2dPolyline
 66
     1
 10
0.0
 20
0.0
 30
0.0
  0
VERTEX
  5
1EB
330
1EA
100
AcDbEntity
  8
GR2_01
 62
     7
100
AcDbVertex
100
AcDb2dVertex
 10
145.6327989002237
 20
184.9694159151292
 30
0.0
  0
VERTEX
  5
1EC
330
1EA
100
AcDbEntity
  8
GR2_01
 62
     7
100
AcDbVertex
100
AcDb2dVertex
 10
145.6327989002237
 20
174.5194077797208
 30
0.0
  0
SEQEND
  5
1ED
330
1EA
100
AcDbEntity
  8
GR2_01
  0
ENDBLK
  5
1E9
330
1E6
100
AcDbEntity
  8
0
100
AcDbBlockEnd
  0
BLOCK
  5
1F0
330
1EE
100
AcDbEntity
  8
0
100
AcDbBlockBegin
  2
BLOCK_57
 70
     0
 71
     0
 10
0.0
 20
0.0
 30
0.0
  3
BLOCK_57
  1

  0
POLYLINE
  5
1F2
330
1EE
100
AcDbEntity
  8
GR2_01
 62
     7
100
AcDb2dPolyline
 66
     1
 10
0.0
 20
0.0
 30
0.0
  0
VERTEX
  5
1F3
330
1F2
100
AcDbEntity
  8
GR2_01
 62
     7
100
AcDbVertex
100
AcDb2dVertex
 10
138.0129367059482
 20
184.9694159151292
 30
0.0
  0
VERTEX
  5
1F4
330
1F2
100
AcDbEntity
  8
GR2_01
 62
     7
100
AcDbVertex
100
AcDb2dVertex
 10
138.0129367059482
 20
174.5194077797208
 30
0.0
  0
SEQEND
  5
1F5
330
1F2
100
AcDbEntity
  8
GR2_01
  0
ENDBLK
  5
1F1
330
1EE
100
AcDbEntity
  8
0
100
AcDbBlockEnd
  0
BLOCK
  5
1F8
330
1F6
100
AcDbEntity
  8
0
100
AcDbBlockBegin
  2
BLOCK_58
 70
     0
 71
     0
 10
0.0
 20
0.0
 30
0.0
  3
BLOCK_58
  1

  0
POLYLINE
  5
1FA
330
1F6
100
AcDbEntity
  8
GR2_01
 62
     7
100
AcDb2dPolyline
 66
     1
 10
0.0
 20
0.0
 30
0.0
  0
VERTEX
  5
1FB
330
1FA
100
AcDbEntity
  8
GR2_01
 62
     7
100
AcDbVertex
100
AcDb2dVertex
 10
130.392730002124
 20
184.9694159151292
 30
0.0
  0
VERTEX
  5
1FC
330
1FA
100
AcDbEntity
  8
GR2_01
 62
     7
100
AcDbVertex
100
AcDb2dVertex
 10
130.392730002124
 20
174.5194077797208
 30
0.0
  0
SEQEND
  5
1FD
330
1FA
100
AcDbEntity
  8
GR2_01
  0
ENDBLK
  5
1F9
330
1F6
100
AcDbEntity
  8
0
100
AcDbBlockEnd
  0
BLOCK
  5
200
330
1FE
100
AcDbEntity
  8
0
100
AcDbBlockBegin
  2
BLOCK_59
 70
     0
 71
     0
 10
0.0
 20
0.0
 30
0.0
  3
BLOCK_59
  1

  0
POLYLINE
  5
202
330
1FE
100
AcDbEntity
  8
GR2_01
 62
     7
100
AcDb2dPolyline
 66
     1
 10
0.0
 20
0.0
 30
0.0
  0
VERTEX
  5
203
330
202
100
AcDbEntity
  8
GR2_01
 62
     7
100
AcDbVertex
100
AcDb2dVertex
 10
122.7728678078485
 20
184.9694159151292
 30
0.0
  0
VERTEX
  5
204
330
202
100
AcDbEntity
  8
GR2_01
 62
     7
100
AcDbVertex
100
AcDb2dVertex
 10
122.7728678078485
 20
174.5194077797208
 30
0.0
  0
SEQEND
  5
205
330
202
100
AcDbEntity
  8
GR2_01
  0
ENDBLK
  5
201
330
1FE
100
AcDbEntity
  8
0
100
AcDbBlockEnd
  0
BLOCK
  5
208
330
206
100
AcDbEntity
  8
0
100
AcDbBlockBegin
  2
BLOCK_60
 70
     0
 71
     0
 10
0.0
 20
0.0
 30
0.0
  3
BLOCK_60
  1

  0
POLYLINE
  5
20A
330
206
100
AcDbEntity
  8
GR2_01
 62
     7
100
AcDb2dPolyline
 66
     1
 10
0.0
 20
0.0
 30
0.0
  0
VERTEX
  5
20B
330
20A
100
AcDbEntity
  8
GR2_01
 62
     7
100
AcDbVertex
100
AcDb2dVertex
 10
115.1526611040243
 20
184.9694159151292
 30
0.0
  0
VERTEX
  5
20C
330
20A
100
AcDbEntity
  8
GR2_01
 62
     7
100
AcDbVertex
100
AcDb2dVertex
 10
115.1526611040243
 20
174.5194077797208
 30
0.0
  0
SEQEND
  5
20D
330
20A
100
AcDbEntity
  8
GR2_01
  0
ENDBLK
  5
209
330
206
100
AcDbEntity
  8
0
100
AcDbBlockEnd
  0
BLOCK
  5
210
330
20E
100
AcDbEntity
  8
0
100
AcDbBlockBegin
  2
BLOCK_61
 70
     0
 71
     0
 10
0.0
 20
0.0
 30
0.0
  3
BLOCK_61
  1

  0
POLYLINE
  5
212
330
20E
100
AcDbEntity
  8
GR2_01
 62
     7
100
AcDb2dPolyline
 66
     1
 10
0.0
 20
0.0
 30
0.0
  0
VERTEX
  5
213
330
212
100
AcDbEntity
  8
GR2_01
 62
     7
100
AcDbVertex
100
AcDb2dVertex
 10
107.5327989097487
 20
184.9694159151292
 30
0.0
  0
VERTEX
  5
214
330
212
100
AcDbEntity
  8
GR2_01
 62
     7
100
AcDbVertex
100
AcDb2dVertex
 10
107.5327989097487
 20
174.5194077797208
 30
0.0
  0
SEQEND
  5
215
330
212
100
AcDbEntity
  8
GR2_01
  0
ENDBLK
  5
211
330
20E
100
AcDbEntity
  8
0
100
AcDbBlockEnd
  0
BLOCK
  5
218
330
216
100
AcDbEntity
  8
0
100
AcDbBlockBegin
  2
BLOCK_62
 70
     0
 71
     0
 10
0.0
 20
0.0
 30
0.0
  3
BLOCK_62
  1

  0
POLYLINE
  5
21A
330
216
100
AcDbEntity
  8
GR2_01
 62
     7
100
AcDb2dPolyline
 66
     1
 10
0.0
 20
0.0
 30
0.0
  0
VERTEX
  5
21B
330
21A
100
AcDbEntity
  8
GR2_01
 62
     7
100
AcDbVertex
100
AcDb2dVertex
 10
99.9127644606989
 20
184.9694159151292
 30
0.0
  0
VERTEX
  5
21C
330
21A
100
AcDbEntity
  8
GR2_01
 62
     7
100
AcDbVertex
100
AcDb2dVertex
 10
99.9127644606989
 20
174.5194077797208
 30
0.0
  0
SEQEND
  5
21D
330
21A
100
AcDbEntity
  8
GR2_01
  0
ENDBLK
  5
219
330
216
100
AcDbEntity
  8
0
100
AcDbBlockEnd
  0
BLOCK
  5
220
330
21E
100
AcDbEntity
  8
0
100
AcDbBlockBegin
  2
BLOCK_63
 70
     0
 71
     0
 10
0.0
 20
0.0
 30
0.0
  3
BLOCK_63
  1

  0
POLYLINE
  5
222
330
21E
100
AcDbEntity
  8
GR2_01
 62
     7
100
AcDb2dPolyline
 66
     1
 10
0.0
 20
0.0
 30
0.0
  0
VERTEX
  5
223
330
222
100
AcDbEntity
  8
GR2_01
 62
     7
100
AcDbVertex
100
AcDb2dVertex
 10
92.29273001164904
 20
184.9694159151292
 30
0.0
  0
VERTEX
  5
224
330
222
100
AcDbEntity
  8
GR2_01
 62
     7
100
AcDbVertex
100
AcDb2dVertex
 10
92.29273001164904
 20
174.5194077797208
 30
0.0
  0
SEQEND
  5
225
330
222
100
AcDbEntity
  8
GR2_01
  0
ENDBLK
  5
221
330
21E
100
AcDbEntity
  8
0
100
AcDbBlockEnd
  0
BLOCK
  5
228
330
226
100
AcDbEntity
  8
0
100
AcDbBlockBegin
  2
BLOCK_64
 70
     0
 71
     0
 10
0.0
 20
0.0
 30
0.0
  3
BLOCK_64
  1

  0
POLYLINE
  5
22A
330
226
100
AcDbEntity
  8
GR2_01
 62
     7
100
AcDb2dPolyline
 66
     1
 10
0.0
 20
0.0
 30
0.0
  0
VERTEX
  5
22B
330
22A
100
AcDbEntity
  8
GR2_01
 62
     7
100
AcDbVertex
100
AcDb2dVertex
 10
84.67269556259919
 20
184.9694159151292
 30
0.0
  0
VERTEX
  5
22C
330
22A
100
AcDbEntity
  8
GR2_01
 62
     7
100
AcDbVertex
100
AcDb2dVertex
 10
84.67269556259919
 20
174.5194077797208
 30
0.0
  0
SEQEND
  5
22D
330
22A
100
AcDbEntity
  8
GR2_01
  0
ENDBLK
  5
229
330
226
100
AcDbEntity
  8
0
100
AcDbBlockEnd
  0
BLOCK
  5
230
330
22E
100
AcDbEntity
  8
0
100
AcDbBlockBegin
  2
BLOCK_65
 70
     0
 71
     0
 10
0.0
 20
0.0
 30
0.0
  3
BLOCK_65
  1

  0
POLYLINE
  5
232
330
22E
100
AcDbEntity
  8
GR2_01
 62
     7
100
AcDb2dPolyline
 66
     1
 10
0.0
 20
0.0
 30
0.0
  0
VERTEX
  5
233
330
232
100
AcDbEntity
  8
GR2_01
 62
     7
100
AcDbVertex
100
AcDb2dVertex
 10
77.0528333683236
 20
184.9694159151292
 30
0.0
  0
VERTEX
  5
234
330
232
100
AcDbEntity
  8
GR2_01
 62
     7
100
AcDbVertex
100
AcDb2dVertex
 10
77.0528333683236
 20
174.5194077797208
 30
0.0
  0
SEQEND
  5
235
330
232
100
AcDbEntity
  8
GR2_01
  0
ENDBLK
  5
231
330
22E
100
AcDbEntity
  8
0
100
AcDbBlockEnd
  0
BLOCK
  5
238
330
236
100
AcDbEntity
  8
0
100
AcDbBlockBegin
  2
BLOCK_66
 70
     0
 71
     0
 10
0.0
 20
0.0
 30
0.0
  3
BLOCK_66
  1

  0
POLYLINE
  5
23A
330
236
100
AcDbEntity
  8
GR2_01
 62
     7
100
AcDb2dPolyline
 66
     1
 10
0.0
 20
0.0
 30
0.0
  0
VERTEX
  5
23B
330
23A
100
AcDbEntity
  8
GR2_01
 62
     7
100
AcDbVertex
100
AcDb2dVertex
 10
69.43279891927375
 20
184.9694159151292
 30
0.0
  0
VERTEX
  5
23C
330
23A
100
AcDbEntity
  8
GR2_01
 62
     7
100
AcDbVertex
100
AcDb2dVertex
 10
69.43279891927375
 20
174.5194077797208
 30
0.0
  0
SEQEND
  5
23D
330
23A
100
AcDbEntity
  8
GR2_01
  0
ENDBLK
  5
239
330
236
100
AcDbEntity
  8
0
100
AcDbBlockEnd
  0
BLOCK
  5
240
330
23E
100
AcDbEntity
  8
0
100
AcDbBlockBegin
  2
BLOCK_67
 70
     0
 71
     0
 10
0.0
 20
0.0
 30
0.0
  3
BLOCK_67
  1

  0
POLYLINE
  5
242
330
23E
100
AcDbEntity
  8
GR2_01
 62
     7
100
AcDb2dPolyline
 66
     1
 10
0.0
 20
0.0
 30
0.0
  0
VERTEX
  5
243
330
242
100
AcDbEntity
  8
GR2_01
 62
     7
100
AcDbVertex
100
AcDb2dVertex
 10
61.8127644702239
 20
184.9694159151292
 30
0.0
  0
VERTEX
  5
244
330
242
100
AcDbEntity
  8
GR2_01
 62
     7
100
AcDbVertex
100
AcDb2dVertex
 10
61.8127644702239
 20
174.5194077797208
 30
0.0
  0
SEQEND
  5
245
330
242
100
AcDbEntity
  8
GR2_01
  0
ENDBLK
  5
241
330
23E
100
AcDbEntity
  8
0
100
AcDbBlockEnd
  0
BLOCK
  5
248
330
246
100
AcDbEntity
  8
0
100
AcDbBlockBegin
  2
BLOCK_68
 70
     0
 71
     0
 10
0.0
 20
0.0
 30
0.0
  3
BLOCK_68
  1

  0
POLYLINE
  5
24A
330
246
100
AcDbEntity
  8
GR2_01
 62
     7
100
AcDb2dPolyline
 66
     1
 10
0.0
 20
0.0
 30
0.0
  0
VERTEX
  5
24B
330
24A
100
AcDbEntity
  8
GR2_01
 62
     7
100
AcDbVertex
100
AcDb2dVertex
 10
54.19273002117404
 20
184.9694159151292
 30
0.0
  0
VERTEX
  5
24C
330
24A
100
AcDbEntity
  8
GR2_01
 62
     7
100
AcDbVertex
100
AcDb2dVertex
 10
54.19273002117404
 20
174.5194077797208
 30
0.0
  0
SEQEND
  5
24D
330
24A
100
AcDbEntity
  8
GR2_01
  0
ENDBLK
  5
249
330
246
100
AcDbEntity
  8
0
100
AcDbBlockEnd
  0
BLOCK
  5
250
330
24E
100
AcDbEntity
  8
0
100
AcDbBlockBegin
  2
BLOCK_69
 70
     0
 71
     0
 10
0.0
 20
0.0
 30
0.0
  3
BLOCK_69
  1

  0
POLYLINE
  5
252
330
24E
100
AcDbEntity
  8
GR2_01
 62
     7
100
AcDb2dPolyline
 66
     1
 10
0.0
 20
0.0
 30
0.0
  0
VERTEX
  5
253
330
252
100
AcDbEntity
  8
GR2_01
 62
     7
100
AcDbVertex
100
AcDb2dVertex
 10
46.57269557212419
 20
184.9694159151292
 30
0.0
  0
VERTEX
  5
254
330
252
100
AcDbEntity
  8
GR2_01
 62
     7
100
AcDbVertex
100
AcDb2dVertex
 10
46.57269557212419
 20
174.5194077797208
 30
0.0
  0
SEQEND
  5
255
330
252
100
AcDbEntity
  8
GR2_01
  0
ENDBLK
  5
251
330
24E
100
AcDbEntity
  8
0
100
AcDbBlockEnd
  0
BLOCK
  5
258
330
256
100
AcDbEntity
  8
0
100
AcDbBlockBegin
  2
BLOCK_70
 70
     0
 71
     0
 10
0.0
 20
0.0
 30
0.0
  3
BLOCK_70
  1

  0
POLYLINE
  5
25A
330
256
100
AcDbEntity
  8
GR2_01
 62
     7
100
AcDb2dPolyline
 66
     1
 10
0.0
 20
0.0
 30
0.0
  0
VERTEX
  5
25B
330
25A
100
AcDbEntity
  8
GR2_01
 62
     7
100
AcDbVertex
100
AcDb2dVertex
 10
42.7627644749864
 20
174.5194077797208
 30
0.0
  0
VERTEX
  5
25C
330
25A
100
AcDbEntity
  8
GR2_01
 62
     7
100
AcDbVertex
100
AcDb2dVertex
 10
42.7627644749864
 20
164.0194457597764
 30
0.0
  0
SEQEND
  5
25D
330
25A
100
AcDbEntity
  8
GR2_01
  0
ENDBLK
  5
259
330
256
100
AcDbEntity
  8
0
100
AcDbBlockEnd
  0
BLOCK
  5
260
330
25E
100
AcDbEntity
  8
0
100
AcDbBlockBegin
  2
BLOCK_71
 70
     0
 71
     0
 10
0.0
 20
0.0
 30
0.0
  3
BLOCK_71
  1

  0
POLYLINE
  5
262
330
25E
100
AcDbEntity
  8
GR2_01
 62
     7
100
AcDb2dPolyline
 66
     1
 10
0.0
 20
0.0
 30
0.0
  0
VERTEX
  5
263
330
262
100
AcDbEntity
  8
GR2_01
 62
     7
100
AcDbVertex
100
AcDb2dVertex
 10
50.38279892403624
 20
174.5194077797208
 30
0.0
  0
VERTEX
  5
264
330
262
100
AcDbEntity
  8
GR2_01
 62
     7
100
AcDbVertex
100
AcDb2dVertex
 10
50.38279892403624
 20
164.0194457597764
 30
0.0
  0
SEQEND
  5
265
330
262
100
AcDbEntity
  8
GR2_01
  0
ENDBLK
  5
261
330
25E
100
AcDbEntity
  8
0
100
AcDbBlockEnd
  0
BLOCK
  5
268
330
266
100
AcDbEntity
  8
0
100
AcDbBlockBegin
  2
BLOCK_72
 70
     0
 71
     0
 10
0.0
 20
0.0
 30
0.0
  3
BLOCK_72
  1

  0
POLYLINE
  5
26A
330
266
100
AcDbEntity
  8
GR2_01
 62
     7
100
AcDb2dPolyline
 66
     1
 10
0.0
 20
0.0
 30
0.0
  0
VERTEX
  5
26B
330
26A
100
AcDbEntity
  8
GR2_01
 62
     7
100
AcDbVertex
100
AcDb2dVertex
 10
58.0028333730861
 20
174.5194077797208
 30
0.0
  0
VERTEX
  5
26C
330
26A
100
AcDbEntity
  8
GR2_01
 62
     7
100
AcDbVertex
100
AcDb2dVertex
 10
58.0028333730861
 20
164.0194457597764
 30
0.0
  0
SEQEND
  5
26D
330
26A
100
AcDbEntity
  8
GR2_01
  0
ENDBLK
  5
269
330
266
100
AcDbEntity
  8
0
100
AcDbBlockEnd
  0
BLOCK
  5
270
330
26E
100
AcDbEntity
  8
0
100
AcDbBlockBegin
  2
BLOCK_73
 70
     0
 71
     0
 10
0.0
 20
0.0
 30
0.0
  3
BLOCK_73
  1

  0
POLYLINE
  5
272
330
26E
100
AcDbEntity
  8
GR2_01
 62
     7
100
AcDb2dPolyline
 66
     1
 10
0.0
 20
0.0
 30
0.0
  0
VERTEX
  5
273
330
272
100
AcDbEntity
  8
GR2_01
 62
     7
100
AcDbVertex
100
AcDb2dVertex
 10
65.62269556736169
 20
174.5194077797208
 30
0.0
  0
VERTEX
  5
274
330
272
100
AcDbEntity
  8
GR2_01
 62
     7
100
AcDbVertex
100
AcDb2dVertex
 10
65.62269556736169
 20
164.0194457597764
 30
0.0
  0
SEQEND
  5
275
330
272
100
AcDbEntity
  8
GR2_01
  0
ENDBLK
  5
271
330
26E
100
AcDbEntity
  8
0
100
AcDbBlockEnd
  0
BLOCK
  5
278
330
276
100
AcDbEntity
  8
0
100
AcDbBlockBegin
  2
BLOCK_74
 70
     0
 71
     0
 10
0.0
 20
0.0
 30
0.0
  3
BLOCK_74
  1

  0
POLYLINE
  5
27A
330
276
100
AcDbEntity
  8
GR2_01
 62
     7
100
AcDb2dPolyline
 66
     1
 10
0.0
 20
0.0
 30
0.0
  0
VERTEX
  5
27B
330
27A
100
AcDbEntity
  8
GR2_01
 62
     7
100
AcDbVertex
100
AcDb2dVertex
 10
73.24273001641154
 20
174.5194077797208
 30
0.0
  0
VERTEX
  5
27C
330
27A
100
AcDbEntity
  8
GR2_01
 62
     7
100
AcDbVertex
100
AcDb2dVertex
 10
73.24273001641154
 20
164.0194457597764
 30
0.0
  0
SEQEND
  5
27D
330
27A
100
AcDbEntity
  8
GR2_01
  0
ENDBLK
  5
279
330
276
100
AcDbEntity
  8
0
100
AcDbBlockEnd
  0
BLOCK
  5
280
330
27E
100
AcDbEntity
  8
0
100
AcDbBlockBegin
  2
BLOCK_75
 70
     0
 71
     0
 10
0.0
 20
0.0
 30
0.0
  3
BLOCK_75
  1

  0
POLYLINE
  5
282
330
27E
100
AcDbEntity
  8
GR2_01
 62
     7
100
AcDb2dPolyline
 66
     1
 10
0.0
 20
0.0
 30
0.0
  0
VERTEX
  5
283
330
282
100
AcDbEntity
  8
GR2_01
 62
     7
100
AcDbVertex
100
AcDb2dVertex
 10
80.8627644654614
 20
174.5194077797208
 30
0.0
  0
VERTEX
  5
284
330
282
100
AcDbEntity
  8
GR2_01
 62
     7
100
AcDbVertex
100
AcDb2dVertex
 10
80.8627644654614
 20
164.0194457597764
 30
0.0
  0
SEQEND
  5
285
330
282
100
AcDbEntity
  8
GR2_01
  0
ENDBLK
  5
281
330
27E
100
AcDbEntity
  8
0
100
AcDbBlockEnd
  0
BLOCK
  5
288
330
286
100
AcDbEntity
  8
0
100
AcDbBlockBegin
  2
BLOCK_76
 70
     0
 71
     0
 10
0.0
 20
0.0
 30
0.0
  3
BLOCK_76
  1

  0
POLYLINE
  5
28A
330
286
100
AcDbEntity
  8
GR2_01
 62
     7
100
AcDb2dPolyline
 66
     1
 10
0.0
 20
0.0
 30
0.0
  0
VERTEX
  5
28B
330
28A
100
AcDbEntity
  8
GR2_01
 62
     7
100
AcDbVertex
100
AcDb2dVertex
 10
88.48279891451125
 20
174.5194077797208
 30
0.0
  0
VERTEX
  5
28C
330
28A
100
AcDbEntity
  8
GR2_01
 62
     7
100
AcDbVertex
100
AcDb2dVertex
 10
88.48279891451125
 20
164.0194457597764
 30
0.0
  0
SEQEND
  5
28D
330
28A
100
AcDbEntity
  8
GR2_01
  0
ENDBLK
  5
289
330
286
100
AcDbEntity
  8
0
100
AcDbBlockEnd
  0
BLOCK
  5
290
330
28E
100
AcDbEntity
  8
0
100
AcDbBlockBegin
  2
BLOCK_77
 70
     0
 71
     0
 10
0.0
 20
0.0
 30
0.0
  3
BLOCK_77
  1

  0
POLYLINE
  5
292
330
28E
100
AcDbEntity
  8
GR2_01
 62
     7
100
AcDb2dPolyline
 66
     1
 10
0.0
 20
0.0
 30
0.0
  0
VERTEX
  5
293
330
292
100
AcDbEntity
  8
GR2_01
 62
     7
100
AcDbVertex
100
AcDb2dVertex
 10
96.1028333635611
 20
174.5194077797208
 30
0.0
  0
VERTEX
  5
294
330
292
100
AcDbEntity
  8
GR2_01
 62
     7
100
AcDbVertex
100
AcDb2dVertex
 10
96.1028333635611
 20
164.0194457597764
 30
0.0
  0
SEQEND
  5
295
330
292
100
AcDbEntity
  8
GR2_01
  0
ENDBLK
  5
291
330
28E
100
AcDbEntity
  8
0
100
AcDbBlockEnd
  0
BLOCK
  5
298
330
296
100
AcDbEntity
  8
0
100
AcDbBlockBegin
  2
BLOCK_78
 70
     0
 71
     0
 10
0.0
 20
0.0
 30
0.0
  3
BLOCK_78
  1

  0
POLYLINE
  5
29A
330
296
100
AcDbEntity
  8
GR2_01
 62
     7
100
AcDb2dPolyline
 66
     1
 10
0.0
 20
0.0
 30
0.0
  0
VERTEX
  5
29B
330
29A
100
AcDbEntity
  8
GR2_01
 62
     7
100
AcDbVertex
100
AcDb2dVertex
 10
103.722867812611
 20
174.5194077797208
 30
0.0
  0
VERTEX
  5
29C
330
29A
100
AcDbEntity
  8
GR2_01
 62
     7
100
AcDbVertex
100
AcDb2dVertex
 10
103.722867812611
 20
164.0194457597764
 30
0.0
  0
SEQEND
  5
29D
330
29A
100
AcDbEntity
  8
GR2_01
  0
ENDBLK
  5
299
330
296
100
AcDbEntity
  8
0
100
AcDbBlockEnd
  0
BLOCK
  5
2A0
330
29E
100
AcDbEntity
  8
0
100
AcDbBlockBegin
  2
BLOCK_79
 70
     0
 71
     0
 10
0.0
 20
0.0
 30
0.0
  3
BLOCK_79
  1

  0
POLYLINE
  5
2A2
330
29E
100
AcDbEntity
  8
GR2_01
 62
     7
100
AcDb2dPolyline
 66
     1
 10
0.0
 20
0.0
 30
0.0
  0
VERTEX
  5
2A3
330
2A2
100
AcDbEntity
  8
GR2_01
 62
     7
100
AcDbVertex
100
AcDb2dVertex
 10
111.3427300068865
 20
174.5194077797208
 30
0.0
  0
VERTEX
  5
2A4
330
2A2
100
AcDbEntity
  8
GR2_01
 62
     7
100
AcDbVertex
100
AcDb2dVertex
 10
111.3427300068865
 20
164.0194457597764
 30
0.0
  0
SEQEND
  5
2A5
330
2A2
100
AcDbEntity
  8
GR2_01
  0
ENDBLK
  5
2A1
330
29E
100
AcDbEntity
  8
0
100
AcDbBlockEnd
  0
BLOCK
  5
2A8
330
2A6
100
AcDbEntity
  8
0
100
AcDbBlockBegin
  2
BLOCK_80
 70
     0
 71
     0
 10
0.0
 20
0.0
 30
0.0
  3
BLOCK_80
  1

  0
POLYLINE
  5
2AA
330
2A6
100
AcDbEntity
  8
GR2_01
 62
     7
100
AcDb2dPolyline
 66
     1
 10
0.0
 20
0.0
 30
0.0
  0
VERTEX
  5
2AB
330
2AA
100
AcDbEntity
  8
GR2_01
 62
     7
100
AcDbVertex
100
AcDb2dVertex
 10
118.9629367107107
 20
174.5194077797208
 30
0.0
  0
VERTEX
  5
2AC
330
2AA
100
AcDbEntity
  8
GR2_01
 62
     7
100
AcDbVertex
100
AcDb2dVertex
 10
118.9629367107107
 20
164.0194457597764
 30
0.0
  0
SEQEND
  5
2AD
330
2AA
100
AcDbEntity
  8
GR2_01
  0
ENDBLK
  5
2A9
330
2A6
100
AcDbEntity
  8
0
100
AcDbBlockEnd
  0
BLOCK
  5
2B0
330
2AE
100
AcDbEntity
  8
0
100
AcDbBlockBegin
  2
BLOCK_81
 70
     0
 71
     0
 10
0.0
 20
0.0
 30
0.0
  3
BLOCK_81
  1

  0
POLYLINE
  5
2B2
330
2AE
100
AcDbEntity
  8
GR2_01
 62
     7
100
AcDb2dPolyline
 66
     1
 10
0.0
 20
0.0
 30
0.0
  0
VERTEX
  5
2B3
330
2B2
100
AcDbEntity
  8
GR2_01
 62
     7
100
AcDbVertex
100
AcDb2dVertex
 10
126.5827989049862
 20
174.5194077797208
 30
0.0
  0
VERTEX
  5
2B4
330
2B2
100
AcDbEntity
  8
GR2_01
 62
     7
100
AcDbVertex
100
AcDb2dVertex
 10
126.5827989049862
 20
164.0194457597764
 30
0.0
  0
SEQEND
  5
2B5
330
2B2
100
AcDbEntity
  8
GR2_01
  0
ENDBLK
  5
2B1
330
2AE
100
AcDbEntity
  8
0
100
AcDbBlockEnd
  0
BLOCK
  5
2B8
330
2B6
100
AcDbEntity
  8
0
100
AcDbBlockBegin
  2
BLOCK_82
 70
     0
 71
     0
 10
0.0
 20
0.0
 30
0.0
  3
BLOCK_82
  1

  0
POLYLINE
  5
2BA
330
2B6
100
AcDbEntity
  8
GR2_01
 62
     7
100
AcDb2dPolyline
 66
     1
 10
0.0
 20
0.0
 30
0.0
  0
VERTEX
  5
2BB
330
2BA
100
AcDbEntity
  8
GR2_01
 62
     7
100
AcDbVertex
100
AcDb2dVertex
 10
134.2026610992618
 20
174.5194077797208
 30
0.0
  0
VERTEX
  5
2BC
330
2BA
100
AcDbEntity
  8
GR2_01
 62
     7
100
AcDbVertex
100
AcDb2dVertex
 10
134.2026610992618
 20
164.0194457597764
 30
0.0
  0
SEQEND
  5
2BD
330
2BA
100
AcDbEntity
  8
GR2_01
  0
ENDBLK
  5
2B9
330
2B6
100
AcDbEntity
  8
0
100
AcDbBlockEnd
  0
BLOCK
  5
2C0
330
2BE
100
AcDbEntity
  8
0
100
AcDbBlockBegin
  2
BLOCK_83
 70
     0
 71
     0
 10
0.0
 20
0.0
 30
0.0
  3
BLOCK_83
  1

  0
POLYLINE
  5
2C2
330
2BE
100
AcDbEntity
  8
GR2_01
 62
     7
100
AcDb2dPolyline
 66
     1
 10
0.0
 20
0.0
 30
0.0
  0
VERTEX
  5
2C3
330
2C2
100
AcDbEntity
  8
GR2_01
 62
     7
100
AcDbVertex
100
AcDb2dVertex
 10
141.822867803086
 20
174.5194077797208
 30
0.0
  0
VERTEX
  5
2C4
330
2C2
100
AcDbEntity
  8
GR2_01
 62
     7
100
AcDbVertex
100
AcDb2dVertex
 10
141.822867803086
 20
164.0194457597764
 30
0.0
  0
SEQEND
  5
2C5
330
2C2
100
AcDbEntity
  8
GR2_01
  0
ENDBLK
  5
2C1
330
2BE
100
AcDbEntity
  8
0
100
AcDbBlockEnd
  0
BLOCK
  5
2C8
330
2C6
100
AcDbEntity
  8
0
100
AcDbBlockBegin
  2
BLOCK_84
 70
     0
 71
     0
 10
0.0
 20
0.0
 30
0.0
  3
BLOCK_84
  1

  0
POLYLINE
  5
2CA
330
2C6
100
AcDbEntity
  8
GR2_01
 62
     7
100
AcDb2dPolyline
 66
     1
 10
0.0
 20
0.0
 30
0.0
  0
VERTEX
  5
2CB
330
2CA
100
AcDbEntity
  8
GR2_01
 62
     7
100
AcDbVertex
100
AcDb2dVertex
 10
149.4427299973615
 20
174.5194077797208
 30
0.0
  0
VERTEX
  5
2CC
330
2CA
100
AcDbEntity
  8
GR2_01
 62
     7
100
AcDbVertex
100
AcDb2dVertex
 10
149.4427299973615
 20
164.0194457597764
 30
0.0
  0
SEQEND
  5
2CD
330
2CA
100
AcDbEntity
  8
GR2_01
  0
ENDBLK
  5
2C9
330
2C6
100
AcDbEntity
  8
0
100
AcDbBlockEnd
  0
BLOCK
  5
2D0
330
2CE
100
AcDbEntity
  8
0
100
AcDbBlockBegin
  2
BLOCK_85
 70
     0
 71
     0
 10
0.0
 20
0.0
 30
0.0
  3
BLOCK_85
  1

  0
POLYLINE
  5
2D2
330
2CE
100
AcDbEntity
  8
GR2_01
 62
     7
100
AcDb2dPolyline
 66
     1
 10
0.0
 20
0.0
 30
0.0
  0
VERTEX
  5
2D3
330
2D2
100
AcDbEntity
  8
GR2_01
 62
     7
100
AcDbVertex
100
AcDb2dVertex
 10
157.0629367011857
 20
174.5194077797208
 30
0.0
  0
VERTEX
  5
2D4
330
2D2
100
AcDbEntity
  8
GR2_01
 62
     7
100
AcDbVertex
100
AcDb2dVertex
 10
157.0629367011857
 20
164.0194457597764
 30
0.0
  0
SEQEND
  5
2D5
330
2D2
100
AcDbEntity
  8
GR2_01
  0
ENDBLK
  5
2D1
330
2CE
100
AcDbEntity
  8
0
100
AcDbBlockEnd
  0
BLOCK
  5
2D8
330
2D6
100
AcDbEntity
  8
0
100
AcDbBlockBegin
  2
BLOCK_86
 70
     0
 71
     0
 10
0.0
 20
0.0
 30
0.0
  3
BLOCK_86
  1

  0
POLYLINE
  5
2DA
330
2D6
100
AcDbEntity
  8
GR2_01
 62
     7
100
AcDb2dPolyline
 66
     1
 10
0.0
 20
0.0
 30
0.0
  0
VERTEX
  5
2DB
330
2DA
100
AcDbEntity
  8
GR2_01
 62
     7
100
AcDbVertex
100
AcDb2dVertex
 10
164.6827988954612
 20
174.5194077797208
 30
0.0
  0
VERTEX
  5
2DC
330
2DA
100
AcDbEntity
  8
GR2_01
 62
     7
100
AcDbVertex
100
AcDb2dVertex
 10
164.6827988954612
 20
164.0194457597764
 30
0.0
  0
SEQEND
  5
2DD
330
2DA
100
AcDbEntity
  8
GR2_01
  0
ENDBLK
  5
2D9
330
2D6
100
AcDbEntity
  8
0
100
AcDbBlockEnd
  0
BLOCK
  5
2E0
330
2DE
100
AcDbEntity
  8
0
100
AcDbBlockBegin
  2
BLOCK_87
 70
     0
 71
     0
 10
0.0
 20
0.0
 30
0.0
  3
BLOCK_87
  1

  0
POLYLINE
  5
2E2
330
2DE
100
AcDbEntity
  8
GR2_01
 62
     7
100
AcDb2dPolyline
 66
     1
 10
0.0
 20
0.0
 30
0.0
  0
VERTEX
  5
2E3
330
2E2
100
AcDbEntity
  8
GR2_01
 62
     7
100
AcDbVertex
100
AcDb2dVertex
 10
172.6278781035444
 20
245.019497280325
 30
0.0
  0
VERTEX
  5
2E4
330
2E2
100
AcDbEntity
  8
GR2_01
 62
     7
100
AcDbVertex
100
AcDb2dVertex
 10
172.6278781035444
 20
224.0194009856618
 30
0.0
  0
SEQEND
  5
2E5
330
2E2
100
AcDbEntity
  8
GR2_01
  0
ENDBLK
  5
2E1
330
2DE
100
AcDbEntity
  8
0
100
AcDbBlockEnd
  0
BLOCK
  5
2E8
330
2E6
100
AcDbEntity
  8
0
100
AcDbBlockBegin
  2
BLOCK_88
 70
     0
 71
     0
 10
0.0
 20
0.0
 30
0.0
  3
BLOCK_88
  1

  0
POLYLINE
  5
2EA
330
2E6
100
AcDbEntity
  8
GR2_01
 62
     7
100
AcDb2dPolyline
 66
     1
 10
0.0
 20
0.0
 30
0.0
  0
VERTEX
  5
2EB
330
2EA
100
AcDbEntity
  8
GR2_01
 62
     7
100
AcDbVertex
100
AcDb2dVertex
 10
38.62778861881527
 20
245.019497280325
 30
0.0
  0
VERTEX
  5
2EC
330
2EA
100
AcDbEntity
  8
GR2_01
 62
     7
100
AcDbVertex
100
AcDb2dVertex
 10
38.62778861881527
 20
224.0194009856618
 30
0.0
  0
SEQEND
  5
2ED
330
2EA
100
AcDbEntity
  8
GR2_01
  0
ENDBLK
  5
2E9
330
2E6
100
AcDbEntity
  8
0
100
AcDbBlockEnd
  0
BLOCK
  5
2F0
330
2EE
100
AcDbEntity
  8
0
100
AcDbBlockBegin
  2
BLOCK_89
 70
     0
 71
     0
 10
0.0
 20
0.0
 30
0.0
  3
BLOCK_89
  1

  0
POLYLINE
  5
2F2
330
2EE
100
AcDbEntity
  8
GR2_01
 62
     7
100
AcDb2dPolyline
 66
     1
 10
0.0
 20
0.0
 30
0.0
  0
VERTEX
  5
2F3
330
2F2
100
AcDbEntity
  8
GR2_01
 62
     7
100
AcDbVertex
100
AcDb2dVertex
 10
38.62778861881527
 20
224.0194009856618
 30
0.0
  0
VERTEX
  5
2F4
330
2F2
100
AcDbEntity
  8
GR2_01
 62
     7
100
AcDbVertex
100
AcDb2dVertex
 10
172.6278781035444
 20
224.0194009856618
 30
0.0
  0
SEQEND
  5
2F5
330
2F2
100
AcDbEntity
  8
GR2_01
  0
ENDBLK
  5
2F1
330
2EE
100
AcDbEntity
  8
0
100
AcDbBlockEnd
  0
BLOCK
  5
2F8
330
2F6
100
AcDbEntity
  8
0
100
AcDbBlockBegin
  2
BLOCK_90
 70
     0
 71
     0
 10
0.0
 20
0.0
 30
0.0
  3
BLOCK_90
  1

  0
POLYLINE
  5
2FA
330
2F6
100
AcDbEntity
  8
GR2_01
 62
     7
100
AcDb2dPolyline
 66
     1
 10
0.0
 20
0.0
 30
0.0
  0
VERTEX
  5
2FB
330
2FA
100
AcDbEntity
  8
GR2_01
 62
     7
100
AcDbVertex
100
AcDb2dVertex
 10
172.6278781035444
 20
185.0193697996653
 30
0.0
  0
VERTEX
  5
2FC
330
2FA
100
AcDbEntity
  8
GR2_01
 62
     7
100
AcDbVertex
100
AcDb2dVertex
 10
172.6278781035444
 20
164.0693996443125
 30
0.0
  0
SEQEND
  5
2FD
330
2FA
100
AcDbEntity
  8
GR2_01
  0
ENDBLK
  5
2F9
330
2F6
100
AcDbEntity
  8
0
100
AcDbBlockEnd
  0
BLOCK
  5
300
330
2FE
100
AcDbEntity
  8
0
100
AcDbBlockBegin
  2
BLOCK_91
 70
     0
 71
     0
 10
0.0
 20
0.0
 30
0.0
  3
BLOCK_91
  1

  0
MTEXT
  5
302
330
2FE
100
AcDbEntity
  8
GR2_01
 62
     7
100
AcDbMText
 10
45.57275660753042
 20
241.727191779846
 30
0.0
 40
1.136363615387703
 41
0.0
 71
     7
 72
     1
  1
\fMS Gothic|b0|i0|c0|p34;\W0.676923;０Ｖ
  0
ENDBLK
  5
301
330
2FE
100
AcDbEntity
  8
0
100
AcDbBlockEnd
  0
BLOCK
  5
305
330
303
100
AcDbEntity
  8
0
100
AcDbBlockBegin
  2
BLOCK_92
 70
     0
 71
     0
 10
0.0
 20
0.0
 30
0.0
  3
BLOCK_92
  1

  0
MTEXT
  5
307
330
303
100
AcDbEntity
  8
GR2_01
 62
     7
100
AcDbMText
 10
41.26276990070861
 20
241.727191779846
 30
0.0
 40
1.136363615387703
 41
0.0
 71
     7
 72
     1
  1
\fMS Gothic|b0|i0|c0|p34;\W0.676923;２４Ｖ
  0
ENDBLK
  5
306
330
303
100
AcDbEntity
  8
0
100
AcDbBlockEnd
  0
BLOCK
  5
30A
330
308
100
AcDbEntity
  8
0
100
AcDbBlockBegin
  2
BLOCK_93
 70
     0
 71
     0
 10
0.0
 20
0.0
 30
0.0
  3
BLOCK_93
  1

  0
MTEXT
  5
30C
330
308
100
AcDbEntity
  8
GR2_01
 62
     7
100
AcDbMText
 10
45.57275660753042
 20
243.4769557768044
 30
0.0
 40
1.136363615387703
 41
0.0
 71
     7
 72
     1
  1
\fMS Gothic|b0|i0|c0|p34;\W0.676923;ＤＣ
  0
ENDBLK
  5
30B
330
308
100
AcDbEntity
  8
0
100
AcDbBlockEnd
  0
BLOCK
  5
30F
330
30D
100
AcDbEntity
  8
0
100
AcDbBlockBegin
  2
BLOCK_94
 70
     0
 71
     0
 10
0.0
 20
0.0
 30
0.0
  3
BLOCK_94
  1

  0
MTEXT
  5
311
330
30D
100
AcDbEntity
  8
GR2_01
 62
     7
100
AcDbMText
 10
41.26276990070861
 20
243.4769557768044
 30
0.0
 40
1.136363615387703
 41
0.0
 71
     7
 72
     1
  1
\fMS Gothic|b0|i0|c0|p34;\W0.676923;ＤＣ
  0
ENDBLK
  5
310
330
30D
100
AcDbEntity
  8
0
100
AcDbBlockEnd
  0
BLOCK
  5
314
330
312
100
AcDbEntity
  8
0
100
AcDbBlockBegin
  2
BLOCK_95
 70
     0
 71
     0
 10
0.0
 20
0.0
 30
0.0
  3
BLOCK_95
  1

  0
MTEXT
  5
316
330
312
100
AcDbEntity
  8
GR2_01
 62
     7
100
AcDbMText
 10
170.3503254782458
 20
175.7694606765438
 30
0.0
 40
1.136363615387703
 41
0.0
 71
     7
 72
     1
  1
\fMS Gothic|b0|i0|c0|p34;\W0.676923;８４５３６９４０
 11
-4.371139000186241E-8
 21
0.999999999999999
 31
0.0
  0
ENDBLK
  5
315
330
312
100
AcDbEntity
  8
0
100
AcDbBlockEnd
  0
BLOCK
  5
319
330
317
100
AcDbEntity
  8
0
100
AcDbBlockBegin
  2
BLOCK_96
 70
     0
 71
     0
 10
0.0
 20
0.0
 30
0.0
  3
BLOCK_96
  1

  0
MTEXT
  5
31B
330
317
100
AcDbEntity
  8
GR2_01
 62
     7
100
AcDbMText
 10
171.8503200525235
 20
179.7561251720749
 30
0.0
 40
1.136363615387703
 41
0.0
 71
     7
 72
     1
  1
\fMS Gothic|b0|i0|c0|p34;\W0.676923;－００１
 11
-4.371139000186241E-8
 21
0.999999999999999
 31
0.0
  0
ENDBLK
  5
31A
330
317
100
AcDbEntity
  8
0
100
AcDbBlockEnd
  0
BLOCK
  5
31E
330
31C
100
AcDbEntity
  8
0
100
AcDbBlockBegin
  2
BLOCK_97
 70
     0
 71
     0
 10
0.0
 20
0.0
 30
0.0
  3
BLOCK_97
  1

  0
MTEXT
  5
320
330
31C
100
AcDbEntity
  8
GR2_01
 62
     7
100
AcDbMText
 10
39.62772758340904
 20
182.2961940733496
 30
0.0
 40
1.515151487183604
 41
0.0
 71
     7
 72
     1
  1
\fMS Gothic|b0|i0|c0|p34;\W0.761538;ＤＣ
  0
ENDBLK
  5
31F
330
31C
100
AcDbEntity
  8
0
100
AcDbBlockEnd
  0
BLOCK
  5
323
330
321
100
AcDbEntity
  8
0
100
AcDbBlockBegin
  2
BLOCK_98
 70
     0
 71
     0
 10
0.0
 20
0.0
 30
0.0
  3
BLOCK_98
  1

  0
MTEXT
  5
325
330
321
100
AcDbEntity
  8
GR2_01
 62
     7
100
AcDbMText
 10
39.62772758340904
 20
179.7960882797038
 30
0.0
 40
1.515151487183604
 41
0.0
 71
     7
 72
     1
  1
\fMS Gothic|b0|i0|c0|p34;\W0.761538;２４Ｖ
  0
ENDBLK
  5
324
330
321
100
AcDbEntity
  8
0
100
AcDbBlockEnd
  0
BLOCK
  5
328
330
326
100
AcDbEntity
  8
0
100
AcDbBlockBegin
  2
BLOCK_99
 70
     0
 71
     0
 10
0.0
 20
0.0
 30
0.0
  3
BLOCK_99
  1

  0
MTEXT
  5
32A
330
326
100
AcDbEntity
  8
GR2_01
 62
     7
100
AcDbMText
 10
43.76270343958016
 20
171.7962320534051
 30
0.0
 40
1.515151487183604
 41
0.0
 71
     7
 72
     1
  1
\fMS Gothic|b0|i0|c0|p34;\W0.761538;ＤＣ
  0
ENDBLK
  5
329
330
326
100
AcDbEntity
  8
0
100
AcDbBlockEnd
  0
BLOCK
  5
32D
330
32B
100
AcDbEntity
  8
0
100
AcDbBlockBegin
  2
BLOCK_100
 70
     0
 71
     0
 10
0.0
 20
0.0
 30
0.0
  3
BLOCK_100
  1

  0
MTEXT
  5
32F
330
32B
100
AcDbEntity
  8
GR2_01
 62
     7
100
AcDbMText
 10
43.76270343958016
 20
169.2961262597593
 30
0.0
 40
1.515151487183604
 41
0.0
 71
     7
 72
     1
  1
\fMS Gothic|b0|i0|c0|p34;\W0.761538;０Ｖ
  0
ENDBLK
  5
32E
330
32B
100
AcDbEntity
  8
0
100
AcDbBlockEnd
  0
BLOCK
  5
332
330
330
100
AcDbEntity
  8
0
100
AcDbBlockBegin
  2
BLOCK_101
 70
     0
 71
     0
 10
0.0
 20
0.0
 30
0.0
  3
BLOCK_101
  1

  0
MTEXT
  5
334
330
330
100
AcDbEntity
  8
GR2_01
 62
     7
100
AcDbMText
 10
47.57280679149222
 20
182.2462401888135
 30
0.0
 40
1.515151487183604
 41
0.0
 71
     7
 72
     1
  1
\fMS Gothic|b0|i0|c0|p34;\W0.761538;Ｙ０
  0
ENDBLK
  5
333
330
330
100
AcDbEntity
  8
0
100
AcDbBlockEnd
  0
BLOCK
  5
337
330
335
100
AcDbEntity
  8
0
100
AcDbBlockBegin
  2
BLOCK_102
 70
     0
 71
     0
 10
0.0
 20
0.0
 30
0.0
  3
BLOCK_102
  1

  0
MTEXT
  5
339
330
335
100
AcDbEntity
  8
GR2_01
 62
     7
100
AcDbMText
 10
55.19284124054207
 20
182.2462401888135
 30
0.0
 40
1.515151487183604
 41
0.0
 71
     7
 72
     1
  1
\fMS Gothic|b0|i0|c0|p34;\W0.761538;Ｙ１
  0
ENDBLK
  5
338
330
335
100
AcDbEntity
  8
0
100
AcDbBlockEnd
  0
BLOCK
  5
33C
330
33A
100
AcDbEntity
  8
0
100
AcDbBlockBegin
  2
BLOCK_103
 70
     0
 71
     0
 10
0.0
 20
0.0
 30
0.0
  3
BLOCK_103
  1

  0
MTEXT
  5
33E
330
33A
100
AcDbEntity
  8
GR2_01
 62
     7
100
AcDbMText
 10
62.81270343481766
 20
182.2462401888135
 30
0.0
 40
1.515151487183604
 41
0.0
 71
     7
 72
     1
  1
\fMS Gothic|b0|i0|c0|p34;\W0.761538;Ｙ２
  0
ENDBLK
  5
33D
330
33A
100
AcDbEntity
  8
0
100
AcDbBlockEnd
  0
BLOCK
  5
341
330
33F
100
AcDbEntity
  8
0
100
AcDbBlockBegin
  2
BLOCK_104
 70
     0
 71
     0
 10
0.0
 20
0.0
 30
0.0
  3
BLOCK_104
  1

  0
MTEXT
  5
343
330
33F
100
AcDbEntity
  8
GR2_01
 62
     7
100
AcDbMText
 10
70.43273788386752
 20
182.2462401888135
 30
0.0
 40
1.515151487183604
 41
0.0
 71
     7
 72
     1
  1
\fMS Gothic|b0|i0|c0|p34;\W0.761538;Ｙ３
  0
ENDBLK
  5
342
330
33F
100
AcDbEntity
  8
0
100
AcDbBlockEnd
  0
BLOCK
  5
346
330
344
100
AcDbEntity
  8
0
100
AcDbBlockBegin
  2
BLOCK_105
 70
     0
 71
     0
 10
0.0
 20
0.0
 30
0.0
  3
BLOCK_105
  1

  0
MTEXT
  5
348
330
344
100
AcDbEntity
  8
GR2_01
 62
     7
100
AcDbMText
 10
78.05277233291737
 20
182.2462401888135
 30
0.0
 40
1.515151487183604
 41
0.0
 71
     7
 72
     1
  1
\fMS Gothic|b0|i0|c0|p34;\W0.761538;Ｙ４
  0
ENDBLK
  5
347
330
344
100
AcDbEntity
  8
0
100
AcDbBlockEnd
  0
BLOCK
  5
34B
330
349
100
AcDbEntity
  8
0
100
AcDbBlockBegin
  2
BLOCK_106
 70
     0
 71
     0
 10
0.0
 20
0.0
 30
0.0
  3
BLOCK_106
  1

  0
MTEXT
  5
34D
330
349
100
AcDbEntity
  8
GR2_01
 62
     7
100
AcDbMText
 10
85.67280678196722
 20
182.2462401888135
 30
0.0
 40
1.515151487183604
 41
0.0
 71
     7
 72
     1
  1
\fMS Gothic|b0|i0|c0|p34;\W0.761538;Ｙ５
  0
ENDBLK
  5
34C
330
349
100
AcDbEntity
  8
0
100
AcDbBlockEnd
  0
BLOCK
  5
350
330
34E
100
AcDbEntity
  8
0
100
AcDbBlockBegin
  2
BLOCK_107
 70
     0
 71
     0
 10
0.0
 20
0.0
 30
0.0
  3
BLOCK_107
  1

  0
MTEXT
  5
352
330
34E
100
AcDbEntity
  8
GR2_01
 62
     7
100
AcDbMText
 10
93.29284123101708
 20
182.2462401888135
 30
0.0
 40
1.515151487183604
 41
0.0
 71
     7
 72
     1
  1
\fMS Gothic|b0|i0|c0|p34;\W0.761538;Ｙ６
  0
ENDBLK
  5
351
330
34E
100
AcDbEntity
  8
0
100
AcDbBlockEnd
  0
BLOCK
  5
355
330
353
100
AcDbEntity
  8
0
100
AcDbBlockBegin
  2
BLOCK_108
 70
     0
 71
     0
 10
0.0
 20
0.0
 30
0.0
  3
BLOCK_108
  1

  0
MTEXT
  5
357
330
353
100
AcDbEntity
  8
GR2_01
 62
     7
100
AcDbMText
 10
100.9128756800669
 20
182.2462401888135
 30
0.0
 40
1.515151487183604
 41
0.0
 71
     7
 72
     1
  1
\fMS Gothic|b0|i0|c0|p34;\W0.761538;Ｙ７
  0
ENDBLK
  5
356
330
353
100
AcDbEntity
  8
0
100
AcDbBlockEnd
  0
BLOCK
  5
35A
330
358
100
AcDbEntity
  8
0
100
AcDbBlockBegin
  2
BLOCK_109
 70
     0
 71
     0
 10
0.0
 20
0.0
 30
0.0
  3
BLOCK_109
  1

  0
MTEXT
  5
35C
330
358
100
AcDbEntity
  8
GR2_01
 62
     7
100
AcDbMText
 10
108.5329101291168
 20
182.2462401888135
 30
0.0
 40
1.515151487183604
 41
0.0
 71
     7
 72
     1
  1
\fMS Gothic|b0|i0|c0|p34;\W0.761538;Ｙ８
  0
ENDBLK
  5
35B
330
358
100
AcDbEntity
  8
0
100
AcDbBlockEnd
  0
BLOCK
  5
35F
330
35D
100
AcDbEntity
  8
0
100
AcDbBlockBegin
  2
BLOCK_110
 70
     0
 71
     0
 10
0.0
 20
0.0
 30
0.0
  3
BLOCK_110
  1

  0
MTEXT
  5
361
330
35D
100
AcDbEntity
  8
GR2_01
 62
     7
100
AcDbMText
 10
116.1527723233924
 20
182.2462401888135
 30
0.0
 40
1.515151487183604
 41
0.0
 71
     7
 72
     1
  1
\fMS Gothic|b0|i0|c0|p34;\W0.761538;Ｙ９
  0
ENDBLK
  5
360
330
35D
100
AcDbEntity
  8
0
100
AcDbBlockEnd
  0
BLOCK
  5
364
330
362
100
AcDbEntity
  8
0
100
AcDbBlockBegin
  2
BLOCK_111
 70
     0
 71
     0
 10
0.0
 20
0.0
 30
0.0
  3
BLOCK_111
  1

  0
MTEXT
  5
366
330
362
100
AcDbEntity
  8
GR2_01
 62
     7
100
AcDbMText
 10
123.772634517668
 20
182.2462401888135
 30
0.0
 40
1.515151487183604
 41
0.0
 71
     7
 72
     1
  1
\fMS Gothic|b0|i0|c0|p34;\W0.761538;ＹＡ
  0
ENDBLK
  5
365
330
362
100
AcDbEntity
  8
0
100
AcDbBlockEnd
  0
BLOCK
  5
369
330
367
100
AcDbEntity
  8
0
100
AcDbBlockBegin
  2
BLOCK_112
 70
     0
 71
     0
 10
0.0
 20
0.0
 30
0.0
  3
BLOCK_112
  1

  0
MTEXT
  5
36B
330
367
100
AcDbEntity
  8
GR2_01
 62
     7
100
AcDbMText
 10
131.3928412214921
 20
182.2462401888135
 30
0.0
 40
1.515151487183604
 41
0.0
 71
     7
 72
     1
  1
\fMS Gothic|b0|i0|c0|p34;\W0.761538;ＹＢ
  0
ENDBLK
  5
36A
330
367
100
AcDbEntity
  8
0
100
AcDbBlockEnd
  0
BLOCK
  5
36E
330
36C
100
AcDbEntity
  8
0
100
AcDbBlockBegin
  2
BLOCK_113
 70
     0
 71
     0
 10
0.0
 20
0.0
 30
0.0
  3
BLOCK_113
  1

  0
MTEXT
  5
370
330
36C
100
AcDbEntity
  8
GR2_01
 62
     7
100
AcDbMText
 10
139.0130479253162
 20
182.2462401888135
 30
0.0
 40
1.515151487183604
 41
0.0
 71
     7
 72
     1
  1
\fMS Gothic|b0|i0|c0|p34;\W0.761538;ＹＣ
  0
ENDBLK
  5
36F
330
36C
100
AcDbEntity
  8
0
100
AcDbBlockEnd
  0
BLOCK
  5
373
330
371
100
AcDbEntity
  8
0
100
AcDbBlockBegin
  2
BLOCK_114
 70
     0
 71
     0
 10
0.0
 20
0.0
 30
0.0
  3
BLOCK_114
  1

  0
MTEXT
  5
375
330
371
100
AcDbEntity
  8
GR2_01
 62
     7
100
AcDbMText
 10
146.6329101195918
 20
182.2462401888135
 30
0.0
 40
1.515151487183604
 41
0.0
 71
     7
 72
     1
  1
\fMS Gothic|b0|i0|c0|p34;\W0.761538;ＹＤ
  0
ENDBLK
  5
374
330
371
100
AcDbEntity
  8
0
100
AcDbBlockEnd
  0
BLOCK
  5
378
330
376
100
AcDbEntity
  8
0
100
AcDbBlockBegin
  2
BLOCK_115
 70
     0
 71
     0
 10
0.0
 20
0.0
 30
0.0
  3
BLOCK_115
  1

  0
MTEXT
  5
37A
330
376
100
AcDbEntity
  8
GR2_01
 62
     7
100
AcDbMText
 10
154.2527723138674
 20
182.2462401888135
 30
0.0
 40
1.515151487183604
 41
0.0
 71
     7
 72
     1
  1
\fMS Gothic|b0|i0|c0|p34;\W0.761538;ＹＥ
  0
ENDBLK
  5
379
330
376
100
AcDbEntity
  8
0
100
AcDbBlockEnd
  0
BLOCK
  5
37D
330
37B
100
AcDbEntity
  8
0
100
AcDbBlockBegin
  2
BLOCK_116
 70
     0
 71
     0
 10
0.0
 20
0.0
 30
0.0
  3
BLOCK_116
  1

  0
MTEXT
  5
37F
330
37B
100
AcDbEntity
  8
GR2_01
 62
     7
100
AcDbMText
 10
161.872634508143
 20
182.2462401888135
 30
0.0
 40
1.515151487183604
 41
0.0
 71
     7
 72
     1
  1
\fMS Gothic|b0|i0|c0|p34;\W0.761538;ＹＦ
  0
ENDBLK
  5
37E
330
37B
100
AcDbEntity
  8
0
100
AcDbBlockEnd
  0
BLOCK
  5
382
330
380
100
AcDbEntity
  8
0
100
AcDbBlockBegin
  2
BLOCK_117
 70
     0
 71
     0
 10
0.0
 20
0.0
 30
0.0
  3
BLOCK_117
  1

  0
MTEXT
  5
384
330
380
100
AcDbEntity
  8
GR2_01
 62
     7
100
AcDbMText
 10
59.00277233767986
 20
171.7962320534051
 30
0.0
 40
1.515151487183604
 41
0.0
 71
     7
 72
     1
  1
\fMS Gothic|b0|i0|c0|p34;\W0.761538;ＣＯＭ
  0
ENDBLK
  5
383
330
380
100
AcDbEntity
  8
0
100
AcDbBlockEnd
  0
BLOCK
  5
387
330
385
100
AcDbEntity
  8
0
100
AcDbBlockBegin
  2
BLOCK_118
 70
     0
 71
     0
 10
0.0
 20
0.0
 30
0.0
  3
BLOCK_118
  1

  0
MTEXT
  5
389
330
385
100
AcDbEntity
  8
GR2_01
 62
     7
100
AcDbMText
 10
59.00277233767986
 20
169.2961262597593
 30
0.0
 40
1.515151487183604
 41
0.0
 71
     7
 72
     1
  1
\fMS Gothic|b0|i0|c0|p34;\W0.761538;　１
  0
ENDBLK
  5
388
330
385
100
AcDbEntity
  8
0
100
AcDbBlockEnd
  0
BLOCK
  5
38C
330
38A
100
AcDbEntity
  8
0
100
AcDbBlockBegin
  2
BLOCK_119
 70
     0
 71
     0
 10
0.0
 20
0.0
 30
0.0
  3
BLOCK_119
  1

  0
MTEXT
  5
38E
330
38A
100
AcDbEntity
  8
GR2_01
 62
     7
100
AcDbMText
 10
66.62280678672971
 20
171.7962320534051
 30
0.0
 40
1.515151487183604
 41
0.0
 71
     7
 72
     1
  1
\fMS Gothic|b0|i0|c0|p34;\W0.761538;ＣＯＭ
  0
ENDBLK
  5
38D
330
38A
100
AcDbEntity
  8
0
100
AcDbBlockEnd
  0
BLOCK
  5
391
330
38F
100
AcDbEntity
  8
0
100
AcDbBlockBegin
  2
BLOCK_120
 70
     0
 71
     0
 10
0.0
 20
0.0
 30
0.0
  3
BLOCK_120
  1

  0
MTEXT
  5
393
330
38F
100
AcDbEntity
  8
GR2_01
 62
     7
100
AcDbMText
 10
66.62280678672971
 20
169.2961262597593
 30
0.0
 40
1.515151487183604
 41
0.0
 71
     7
 72
     1
  1
\fMS Gothic|b0|i0|c0|p34;\W0.761538;　２
  0
ENDBLK
  5
392
330
38F
100
AcDbEntity
  8
0
100
AcDbBlockEnd
  0
BLOCK
  5
396
330
394
100
AcDbEntity
  8
0
100
AcDbBlockBegin
  2
BLOCK_121
 70
     0
 71
     0
 10
0.0
 20
0.0
 30
0.0
  3
BLOCK_121
  1

  0
MTEXT
  5
398
330
394
100
AcDbEntity
  8
GR2_01
 62
     7
100
AcDbMText
 10
74.24284123577957
 20
171.7962320534051
 30
0.0
 40
1.515151487183604
 41
0.0
 71
     7
 72
     1
  1
\fMS Gothic|b0|i0|c0|p34;\W0.761538;ＣＯＭ
  0
ENDBLK
  5
397
330
394
100
AcDbEntity
  8
0
100
AcDbBlockEnd
  0
BLOCK
  5
39B
330
399
100
AcDbEntity
  8
0
100
AcDbBlockBegin
  2
BLOCK_122
 70
     0
 71
     0
 10
0.0
 20
0.0
 30
0.0
  3
BLOCK_122
  1

  0
MTEXT
  5
39D
330
399
100
AcDbEntity
  8
GR2_01
 62
     7
100
AcDbMText
 10
74.24284123577957
 20
169.2961262597593
 30
0.0
 40
1.515151487183604
 41
0.0
 71
     7
 72
     1
  1
\fMS Gothic|b0|i0|c0|p34;\W0.761538;　３
  0
ENDBLK
  5
39C
330
399
100
AcDbEntity
  8
0
100
AcDbBlockEnd
  0
BLOCK
  5
3A0
330
39E
100
AcDbEntity
  8
0
100
AcDbBlockBegin
  2
BLOCK_123
 70
     0
 71
     0
 10
0.0
 20
0.0
 30
0.0
  3
BLOCK_123
  1

  0
MTEXT
  5
3A2
330
39E
100
AcDbEntity
  8
GR2_01
 62
     7
100
AcDbMText
 10
81.86270343005516
 20
171.7962320534051
 30
0.0
 40
1.515151487183604
 41
0.0
 71
     7
 72
     1
  1
\fMS Gothic|b0|i0|c0|p34;\W0.761538;ＣＯＭ
  0
ENDBLK
  5
3A1
330
39E
100
AcDbEntity
  8
0
100
AcDbBlockEnd
  0
BLOCK
  5
3A5
330
3A3
100
AcDbEntity
  8
0
100
AcDbBlockBegin
  2
BLOCK_124
 70
     0
 71
     0
 10
0.0
 20
0.0
 30
0.0
  3
BLOCK_124
  1

  0
MTEXT
  5
3A7
330
3A3
100
AcDbEntity
  8
GR2_01
 62
     7
100
AcDbMText
 10
81.86270343005516
 20
169.2961262597593
 30
0.0
 40
1.515151487183604
 41
0.0
 71
     7
 72
     1
  1
\fMS Gothic|b0|i0|c0|p34;\W0.761538;　４
  0
ENDBLK
  5
3A6
330
3A3
100
AcDbEntity
  8
0
100
AcDbBlockEnd
  0
BLOCK
  5
3AA
330
3A8
100
AcDbEntity
  8
0
100
AcDbBlockBegin
  2
BLOCK_125
 70
     0
 71
     0
 10
0.0
 20
0.0
 30
0.0
  3
BLOCK_125
  1

  0
MTEXT
  5
3AC
330
3A8
100
AcDbEntity
  8
GR2_01
 62
     7
100
AcDbMText
 10
89.48273787910502
 20
171.7962320534051
 30
0.0
 40
1.515151487183604
 41
0.0
 71
     7
 72
     1
  1
\fMS Gothic|b0|i0|c0|p34;\W0.761538;ＣＯＭ
  0
ENDBLK
  5
3AB
330
3A8
100
AcDbEntity
  8
0
100
AcDbBlockEnd
  0
BLOCK
  5
3AF
330
3AD
100
AcDbEntity
  8
0
100
AcDbBlockBegin
  2
BLOCK_126
 70
     0
 71
     0
 10
0.0
 20
0.0
 30
0.0
  3
BLOCK_126
  1

  0
MTEXT
  5
3B1
330
3AD
100
AcDbEntity
  8
GR2_01
 62
     7
100
AcDbMText
 10
89.48273787910502
 20
169.2961262597593
 30
0.0
 40
1.515151487183604
 41
0.0
 71
     7
 72
     1
  1
\fMS Gothic|b0|i0|c0|p34;\W0.761538;　５
  0
ENDBLK
  5
3B0
330
3AD
100
AcDbEntity
  8
0
100
AcDbBlockEnd
  0
BLOCK
  5
3B4
330
3B2
100
AcDbEntity
  8
0
100
AcDbBlockBegin
  2
BLOCK_127
 70
     0
 71
     0
 10
0.0
 20
0.0
 30
0.0
  3
BLOCK_127
  1

  0
MTEXT
  5
3B6
330
3B2
100
AcDbEntity
  8
GR2_01
 62
     7
100
AcDbMText
 10
97.10277232815487
 20
171.7962320534051
 30
0.0
 40
1.515151487183604
 41
0.0
 71
     7
 72
     1
  1
\fMS Gothic|b0|i0|c0|p34;\W0.761538;ＣＯＭ
  0
ENDBLK
  5
3B5
330
3B2
100
AcDbEntity
  8
0
100
AcDbBlockEnd
  0
BLOCK
  5
3B9
330
3B7
100
AcDbEntity
  8
0
100
AcDbBlockBegin
  2
BLOCK_128
 70
     0
 71
     0
 10
0.0
 20
0.0
 30
0.0
  3
BLOCK_128
  1

  0
MTEXT
  5
3BB
330
3B7
100
AcDbEntity
  8
GR2_01
 62
     7
100
AcDbMText
 10
97.10277232815487
 20
169.2961262597593
 30
0.0
 40
1.515151487183604
 41
0.0
 71
     7
 72
     1
  1
\fMS Gothic|b0|i0|c0|p34;\W0.761538;　６
  0
ENDBLK
  5
3BA
330
3B7
100
AcDbEntity
  8
0
100
AcDbBlockEnd
  0
BLOCK
  5
3BE
330
3BC
100
AcDbEntity
  8
0
100
AcDbBlockBegin
  2
BLOCK_129
 70
     0
 71
     0
 10
0.0
 20
0.0
 30
0.0
  3
BLOCK_129
  1

  0
MTEXT
  5
3C0
330
3BC
100
AcDbEntity
  8
GR2_01
 62
     7
100
AcDbMText
 10
104.7228067772047
 20
171.7962320534051
 30
0.0
 40
1.515151487183604
 41
0.0
 71
     7
 72
     1
  1
\fMS Gothic|b0|i0|c0|p34;\W0.761538;ＣＯＭ
  0
ENDBLK
  5
3BF
330
3BC
100
AcDbEntity
  8
0
100
AcDbBlockEnd
  0
BLOCK
  5
3C3
330
3C1
100
AcDbEntity
  8
0
100
AcDbBlockBegin
  2
BLOCK_130
 70
     0
 71
     0
 10
0.0
 20
0.0
 30
0.0
  3
BLOCK_130
  1

  0
MTEXT
  5
3C5
330
3C1
100
AcDbEntity
  8
GR2_01
 62
     7
100
AcDbMText
 10
104.7228067772047
 20
169.2961262597593
 30
0.0
 40
1.515151487183604
 41
0.0
 71
     7
 72
     1
  1
\fMS Gothic|b0|i0|c0|p34;\W0.761538;　７
  0
ENDBLK
  5
3C4
330
3C1
100
AcDbEntity
  8
0
100
AcDbBlockEnd
  0
BLOCK
  5
3C8
330
3C6
100
AcDbEntity
  8
0
100
AcDbBlockBegin
  2
BLOCK_131
 70
     0
 71
     0
 10
0.0
 20
0.0
 30
0.0
  3
BLOCK_131
  1

  0
MTEXT
  5
3CA
330
3C6
100
AcDbEntity
  8
GR2_01
 62
     7
100
AcDbMText
 10
112.3428412262546
 20
171.7962320534051
 30
0.0
 40
1.515151487183604
 41
0.0
 71
     7
 72
     1
  1
\fMS Gothic|b0|i0|c0|p34;\W0.761538;ＣＯＭ
  0
ENDBLK
  5
3C9
330
3C6
100
AcDbEntity
  8
0
100
AcDbBlockEnd
  0
BLOCK
  5
3CD
330
3CB
100
AcDbEntity
  8
0
100
AcDbBlockBegin
  2
BLOCK_132
 70
     0
 71
     0
 10
0.0
 20
0.0
 30
0.0
  3
BLOCK_132
  1

  0
MTEXT
  5
3CF
330
3CB
100
AcDbEntity
  8
GR2_01
 62
     7
100
AcDbMText
 10
112.3428412262546
 20
169.2961262597593
 30
0.0
 40
1.515151487183604
 41
0.0
 71
     7
 72
     1
  1
\fMS Gothic|b0|i0|c0|p34;\W0.761538;　８
  0
ENDBLK
  5
3CE
330
3CB
100
AcDbEntity
  8
0
100
AcDbBlockEnd
  0
BLOCK
  5
3D2
330
3D0
100
AcDbEntity
  8
0
100
AcDbBlockBegin
  2
BLOCK_133
 70
     0
 71
     0
 10
0.0
 20
0.0
 30
0.0
  3
BLOCK_133
  1

  0
MTEXT
  5
3D4
330
3D0
100
AcDbEntity
  8
GR2_01
 62
     7
100
AcDbMText
 10
119.9630479300787
 20
171.7962320534051
 30
0.0
 40
1.515151487183604
 41
0.0
 71
     7
 72
     1
  1
\fMS Gothic|b0|i0|c0|p34;\W0.761538;ＣＯＭ
  0
ENDBLK
  5
3D3
330
3D0
100
AcDbEntity
  8
0
100
AcDbBlockEnd
  0
BLOCK
  5
3D7
330
3D5
100
AcDbEntity
  8
0
100
AcDbBlockBegin
  2
BLOCK_134
 70
     0
 71
     0
 10
0.0
 20
0.0
 30
0.0
  3
BLOCK_134
  1

  0
MTEXT
  5
3D9
330
3D5
100
AcDbEntity
  8
GR2_01
 62
     7
100
AcDbMText
 10
119.9630479300787
 20
169.2961262597593
 30
0.0
 40
1.515151487183604
 41
0.0
 71
     7
 72
     1
  1
\fMS Gothic|b0|i0|c0|p34;\W0.761538;　９
  0
ENDBLK
  5
3D8
330
3D5
100
AcDbEntity
  8
0
100
AcDbBlockEnd
  0
BLOCK
  5
3DC
330
3DA
100
AcDbEntity
  8
0
100
AcDbBlockBegin
  2
BLOCK_135
 70
     0
 71
     0
 10
0.0
 20
0.0
 30
0.0
  3
BLOCK_135
  1

  0
MTEXT
  5
3DE
330
3DA
100
AcDbEntity
  8
GR2_01
 62
     7
100
AcDbMText
 10
127.5829101243543
 20
171.7962320534051
 30
0.0
 40
1.515151487183604
 41
0.0
 71
     7
 72
     1
  1
\fMS Gothic|b0|i0|c0|p34;\W0.761538;ＣＯＭ
  0
ENDBLK
  5
3DD
330
3DA
100
AcDbEntity
  8
0
100
AcDbBlockEnd
  0
BLOCK
  5
3E1
330
3DF
100
AcDbEntity
  8
0
100
AcDbBlockBegin
  2
BLOCK_136
 70
     0
 71
     0
 10
0.0
 20
0.0
 30
0.0
  3
BLOCK_136
  1

  0
MTEXT
  5
3E3
330
3DF
100
AcDbEntity
  8
GR2_01
 62
     7
100
AcDbMText
 10
127.5829101243543
 20
169.2961262597593
 30
0.0
 40
1.515151487183604
 41
0.0
 71
     7
 72
     1
  1
\fMS Gothic|b0|i0|c0|p34;\W0.761538;　Ａ
  0
ENDBLK
  5
3E2
330
3DF
100
AcDbEntity
  8
0
100
AcDbBlockEnd
  0
BLOCK
  5
3E6
330
3E4
100
AcDbEntity
  8
0
100
AcDbBlockBegin
  2
BLOCK_137
 70
     0
 71
     0
 10
0.0
 20
0.0
 30
0.0
  3
BLOCK_137
  1

  0
MTEXT
  5
3E8
330
3E4
100
AcDbEntity
  8
GR2_01
 62
     7
100
AcDbMText
 10
135.2027723186299
 20
171.7962320534051
 30
0.0
 40
1.515151487183604
 41
0.0
 71
     7
 72
     1
  1
\fMS Gothic|b0|i0|c0|p34;\W0.761538;ＣＯＭ
  0
ENDBLK
  5
3E7
330
3E4
100
AcDbEntity
  8
0
100
AcDbBlockEnd
  0
BLOCK
  5
3EB
330
3E9
100
AcDbEntity
  8
0
100
AcDbBlockBegin
  2
BLOCK_138
 70
     0
 71
     0
 10
0.0
 20
0.0
 30
0.0
  3
BLOCK_138
  1

  0
MTEXT
  5
3ED
330
3E9
100
AcDbEntity
  8
GR2_01
 62
     7
100
AcDbMText
 10
135.2027723186299
 20
169.2961262597593
 30
0.0
 40
1.515151487183604
 41
0.0
 71
     7
 72
     1
  1
\fMS Gothic|b0|i0|c0|p34;\W0.761538;　Ｂ
  0
ENDBLK
  5
3EC
330
3E9
100
AcDbEntity
  8
0
100
AcDbBlockEnd
  0
BLOCK
  5
3F0
330
3EE
100
AcDbEntity
  8
0
100
AcDbBlockBegin
  2
BLOCK_139
 70
     0
 71
     0
 10
0.0
 20
0.0
 30
0.0
  3
BLOCK_139
  1

  0
MTEXT
  5
3F2
330
3EE
100
AcDbEntity
  8
GR2_01
 62
     7
100
AcDbMText
 10
142.8226345129055
 20
171.7962320534051
 30
0.0
 40
1.515151487183604
 41
0.0
 71
     7
 72
     1
  1
\fMS Gothic|b0|i0|c0|p34;\W0.761538;ＣＯＭ
  0
ENDBLK
  5
3F1
330
3EE
100
AcDbEntity
  8
0
100
AcDbBlockEnd
  0
BLOCK
  5
3F5
330
3F3
100
AcDbEntity
  8
0
100
AcDbBlockBegin
  2
BLOCK_140
 70
     0
 71
     0
 10
0.0
 20
0.0
 30
0.0
  3
BLOCK_140
  1

  0
MTEXT
  5
3F7
330
3F3
100
AcDbEntity
  8
GR2_01
 62
     7
100
AcDbMText
 10
142.8226345129055
 20
169.2961262597593
 30
0.0
 40
1.515151487183604
 41
0.0
 71
     7
 72
     1
  1
\fMS Gothic|b0|i0|c0|p34;\W0.761538;　Ｃ
  0
ENDBLK
  5
3F6
330
3F3
100
AcDbEntity
  8
0
100
AcDbBlockEnd
  0
BLOCK
  5
3FA
330
3F8
100
AcDbEntity
  8
0
100
AcDbBlockBegin
  2
BLOCK_141
 70
     0
 71
     0
 10
0.0
 20
0.0
 30
0.0
  3
BLOCK_141
  1

  0
MTEXT
  5
3FC
330
3F8
100
AcDbEntity
  8
GR2_01
 62
     7
100
AcDbMText
 10
150.4428412167296
 20
171.7962320534051
 30
0.0
 40
1.515151487183604
 41
0.0
 71
     7
 72
     1
  1
\fMS Gothic|b0|i0|c0|p34;\W0.761538;ＣＯＭ
  0
ENDBLK
  5
3FB
330
3F8
100
AcDbEntity
  8
0
100
AcDbBlockEnd
  0
BLOCK
  5
3FF
330
3FD
100
AcDbEntity
  8
0
100
AcDbBlockBegin
  2
BLOCK_142
 70
     0
 71
     0
 10
0.0
 20
0.0
 30
0.0
  3
BLOCK_142
  1

  0
MTEXT
  5
401
330
3FD
100
AcDbEntity
  8
GR2_01
 62
     7
100
AcDbMText
 10
150.4428412167296
 20
169.2961262597593
 30
0.0
 40
1.515151487183604
 41
0.0
 71
     7
 72
     1
  1
\fMS Gothic|b0|i0|c0|p34;\W0.761538;　Ｄ
  0
ENDBLK
  5
400
330
3FD
100
AcDbEntity
  8
0
100
AcDbBlockEnd
  0
BLOCK
  5
404
330
402
100
AcDbEntity
  8
0
100
AcDbBlockBegin
  2
BLOCK_143
 70
     0
 71
     0
 10
0.0
 20
0.0
 30
0.0
  3
BLOCK_143
  1

  0
MTEXT
  5
406
330
402
100
AcDbEntity
  8
GR2_01
 62
     7
100
AcDbMText
 10
158.0630479205537
 20
171.7962320534051
 30
0.0
 40
1.515151487183604
 41
0.0
 71
     7
 72
     1
  1
\fMS Gothic|b0|i0|c0|p34;\W0.761538;ＣＯＭ
  0
ENDBLK
  5
405
330
402
100
AcDbEntity
  8
0
100
AcDbBlockEnd
  0
BLOCK
  5
409
330
407
100
AcDbEntity
  8
0
100
AcDbBlockBegin
  2
BLOCK_144
 70
     0
 71
     0
 10
0.0
 20
0.0
 30
0.0
  3
BLOCK_144
  1

  0
MTEXT
  5
40B
330
407
100
AcDbEntity
  8
GR2_01
 62
     7
100
AcDbMText
 10
158.0630479205537
 20
169.2961262597593
 30
0.0
 40
1.515151487183604
 41
0.0
 71
     7
 72
     1
  1
\fMS Gothic|b0|i0|c0|p34;\W0.761538;　Ｅ
  0
ENDBLK
  5
40A
330
407
100
AcDbEntity
  8
0
100
AcDbBlockEnd
  0
BLOCK
  5
40E
330
40C
100
AcDbEntity
  8
0
100
AcDbBlockBegin
  2
BLOCK_145
 70
     0
 71
     0
 10
0.0
 20
0.0
 30
0.0
  3
BLOCK_145
  1

  0
MTEXT
  5
410
330
40C
100
AcDbEntity
  8
GR2_01
 62
     7
100
AcDbMText
 10
165.6829101148293
 20
171.7962320534051
 30
0.0
 40
1.515151487183604
 41
0.0
 71
     7
 72
     1
  1
\fMS Gothic|b0|i0|c0|p34;\W0.761538;ＣＯＭ
  0
ENDBLK
  5
40F
330
40C
100
AcDbEntity
  8
0
100
AcDbBlockEnd
  0
BLOCK
  5
413
330
411
100
AcDbEntity
  8
0
100
AcDbBlockBegin
  2
BLOCK_146
 70
     0
 71
     0
 10
0.0
 20
0.0
 30
0.0
  3
BLOCK_146
  1

  0
MTEXT
  5
415
330
411
100
AcDbEntity
  8
GR2_01
 62
     7
100
AcDbMText
 10
165.6829101148293
 20
169.2961262597593
 30
0.0
 40
1.515151487183604
 41
0.0
 71
     7
 72
     1
  1
\fMS Gothic|b0|i0|c0|p34;\W0.761538;　Ｆ
  0
ENDBLK
  5
414
330
411
100
AcDbEntity
  8
0
100
AcDbBlockEnd
  0
BLOCK
  5
418
330
416
100
AcDbEntity
  8
0
100
AcDbBlockBegin
  2
BLOCK_147
 70
     0
 71
     0
 10
0.0
 20
0.0
 30
0.0
  3
BLOCK_147
  1

  0
MTEXT
  5
41A
330
416
100
AcDbEntity
  8
GR2_01
 62
     7
100
AcDbMText
 10
51.38273788863001
 20
171.7962320534051
 30
0.0
 40
1.515151487183604
 41
0.0
 71
     7
 72
     1
  1
\fMS Gothic|b0|i0|c0|p34;\W0.761538;ＣＯＭ
  0
ENDBLK
  5
419
330
416
100
AcDbEntity
  8
0
100
AcDbBlockEnd
  0
BLOCK
  5
41D
330
41B
100
AcDbEntity
  8
0
100
AcDbBlockBegin
  2
BLOCK_148
 70
     0
 71
     0
 10
0.0
 20
0.0
 30
0.0
  3
BLOCK_148
  1

  0
MTEXT
  5
41F
330
41B
100
AcDbEntity
  8
GR2_01
 62
     7
100
AcDbMText
 10
51.38273788863001
 20
169.2961262597593
 30
0.0
 40
1.515151487183604
 41
0.0
 71
     7
 72
     1
  1
\fMS Gothic|b0|i0|c0|p34;\W0.761538;　０
  0
ENDBLK
  5
41E
330
41B
100
AcDbEntity
  8
0
100
AcDbBlockEnd
  0
BLOCK
  5
422
330
420
100
AcDbEntity
  8
0
100
AcDbBlockBegin
  2
BLOCK_149
 70
     0
 71
     0
 10
0.0
 20
0.0
 30
0.0
  3
BLOCK_149
  1

  0
MTEXT
  5
424
330
420
100
AcDbEntity
  8
GR2_01
 62
     7
100
AcDbMText
 10
48.88280434975847
 20
242.2963215540093
 30
0.0
 40
1.515151487183604
 41
0.0
 71
     7
 72
     1
  1
\fMS Gothic|b0|i0|c0|p34;\W0.761538;Ｙ０
  0
ENDBLK
  5
423
330
420
100
AcDbEntity
  8
0
100
AcDbBlockEnd
  0
BLOCK
  5
427
330
425
100
AcDbEntity
  8
0
100
AcDbBlockBegin
  2
BLOCK_150
 70
     0
 71
     0
 10
0.0
 20
0.0
 30
0.0
  3
BLOCK_150
  1

  0
MTEXT
  5
429
330
425
100
AcDbEntity
  8
GR2_01
 62
     7
100
AcDbMText
 10
56.50283879880832
 20
242.2963215540093
 30
0.0
 40
1.515151487183604
 41
0.0
 71
     7
 72
     1
  1
\fMS Gothic|b0|i0|c0|p34;\W0.761538;Ｙ１
  0
ENDBLK
  5
428
330
425
100
AcDbEntity
  8
0
100
AcDbBlockEnd
  0
BLOCK
  5
42C
330
42A
100
AcDbEntity
  8
0
100
AcDbBlockBegin
  2
BLOCK_151
 70
     0
 71
     0
 10
0.0
 20
0.0
 30
0.0
  3
BLOCK_151
  1

  0
MTEXT
  5
42E
330
42A
100
AcDbEntity
  8
GR2_01
 62
     7
100
AcDbMText
 10
64.12287324785818
 20
242.2963215540093
 30
0.0
 40
1.515151487183604
 41
0.0
 71
     7
 72
     1
  1
\fMS Gothic|b0|i0|c0|p34;\W0.761538;Ｙ２
  0
ENDBLK
  5
42D
330
42A
100
AcDbEntity
  8
0
100
AcDbBlockEnd
  0
BLOCK
  5
431
330
42F
100
AcDbEntity
  8
0
100
AcDbBlockBegin
  2
BLOCK_152
 70
     0
 71
     0
 10
0.0
 20
0.0
 30
0.0
  3
BLOCK_152
  1

  0
MTEXT
  5
433
330
42F
100
AcDbEntity
  8
GR2_01
 62
     7
100
AcDbMText
 10
71.74273544213376
 20
242.2963215540093
 30
0.0
 40
1.515151487183604
 41
0.0
 71
     7
 72
     1
  1
\fMS Gothic|b0|i0|c0|p34;\W0.761538;Ｙ３
  0
ENDBLK
  5
432
330
42F
100
AcDbEntity
  8
0
100
AcDbBlockEnd
  0
BLOCK
  5
436
330
434
100
AcDbEntity
  8
0
100
AcDbBlockBegin
  2
BLOCK_153
 70
     0
 71
     0
 10
0.0
 20
0.0
 30
0.0
  3
BLOCK_153
  1

  0
MTEXT
  5
438
330
434
100
AcDbEntity
  8
GR2_01
 62
     7
100
AcDbMText
 10
79.36276989118362
 20
242.2963215540093
 30
0.0
 40
1.515151487183604
 41
0.0
 71
     7
 72
     1
  1
\fMS Gothic|b0|i0|c0|p34;\W0.761538;Ｙ４
  0
ENDBLK
  5
437
330
434
100
AcDbEntity
  8
0
100
AcDbBlockEnd
  0
BLOCK
  5
43B
330
439
100
AcDbEntity
  8
0
100
AcDbBlockBegin
  2
BLOCK_154
 70
     0
 71
     0
 10
0.0
 20
0.0
 30
0.0
  3
BLOCK_154
  1

  0
MTEXT
  5
43D
330
439
100
AcDbEntity
  8
GR2_01
 62
     7
100
AcDbMText
 10
86.98280434023347
 20
242.2963215540093
 30
0.0
 40
1.515151487183604
 41
0.0
 71
     7
 72
     1
  1
\fMS Gothic|b0|i0|c0|p34;\W0.761538;Ｙ５
  0
ENDBLK
  5
43C
330
439
100
AcDbEntity
  8
0
100
AcDbBlockEnd
  0
BLOCK
  5
440
330
43E
100
AcDbEntity
  8
0
100
AcDbBlockBegin
  2
BLOCK_155
 70
     0
 71
     0
 10
0.0
 20
0.0
 30
0.0
  3
BLOCK_155
  1

  0
MTEXT
  5
442
330
43E
100
AcDbEntity
  8
GR2_01
 62
     7
100
AcDbMText
 10
94.60283878928333
 20
242.2963215540093
 30
0.0
 40
1.515151487183604
 41
0.0
 71
     7
 72
     1
  1
\fMS Gothic|b0|i0|c0|p34;\W0.761538;Ｙ６
  0
ENDBLK
  5
441
330
43E
100
AcDbEntity
  8
0
100
AcDbBlockEnd
  0
BLOCK
  5
445
330
443
100
AcDbEntity
  8
0
100
AcDbBlockBegin
  2
BLOCK_156
 70
     0
 71
     0
 10
0.0
 20
0.0
 30
0.0
  3
BLOCK_156
  1

  0
MTEXT
  5
447
330
443
100
AcDbEntity
  8
GR2_01
 62
     7
100
AcDbMText
 10
102.2228732383332
 20
242.2963215540093
 30
0.0
 40
1.515151487183604
 41
0.0
 71
     7
 72
     1
  1
\fMS Gothic|b0|i0|c0|p34;\W0.761538;Ｙ７
  0
ENDBLK
  5
446
330
443
100
AcDbEntity
  8
0
100
AcDbBlockEnd
  0
BLOCK
  5
44A
330
448
100
AcDbEntity
  8
0
100
AcDbBlockBegin
  2
BLOCK_157
 70
     0
 71
     0
 10
0.0
 20
0.0
 30
0.0
  3
BLOCK_157
  1

  0
MTEXT
  5
44C
330
448
100
AcDbEntity
  8
GR2_01
 62
     7
100
AcDbMText
 10
109.8427354326088
 20
242.2963215540093
 30
0.0
 40
1.515151487183604
 41
0.0
 71
     7
 72
     1
  1
\fMS Gothic|b0|i0|c0|p34;\W0.761538;Ｙ８
  0
ENDBLK
  5
44B
330
448
100
AcDbEntity
  8
0
100
AcDbBlockEnd
  0
BLOCK
  5
44F
330
44D
100
AcDbEntity
  8
0
100
AcDbBlockBegin
  2
BLOCK_158
 70
     0
 71
     0
 10
0.0
 20
0.0
 30
0.0
  3
BLOCK_158
  1

  0
MTEXT
  5
451
330
44D
100
AcDbEntity
  8
GR2_01
 62
     7
100
AcDbMText
 10
117.4625976268844
 20
242.2963215540093
 30
0.0
 40
1.515151487183604
 41
0.0
 71
     7
 72
     1
  1
\fMS Gothic|b0|i0|c0|p34;\W0.761538;Ｙ９
  0
ENDBLK
  5
450
330
44D
100
AcDbEntity
  8
0
100
AcDbBlockEnd
  0
BLOCK
  5
454
330
452
100
AcDbEntity
  8
0
100
AcDbBlockBegin
  2
BLOCK_159
 70
     0
 71
     0
 10
0.0
 20
0.0
 30
0.0
  3
BLOCK_159
  1

  0
MTEXT
  5
456
330
452
100
AcDbEntity
  8
GR2_01
 62
     7
100
AcDbMText
 10
125.0828043307085
 20
242.2963215540093
 30
0.0
 40
1.515151487183604
 41
0.0
 71
     7
 72
     1
  1
\fMS Gothic|b0|i0|c0|p34;\W0.761538;ＹＡ
  0
ENDBLK
  5
455
330
452
100
AcDbEntity
  8
0
100
AcDbBlockEnd
  0
BLOCK
  5
459
330
457
100
AcDbEntity
  8
0
100
AcDbBlockBegin
  2
BLOCK_160
 70
     0
 71
     0
 10
0.0
 20
0.0
 30
0.0
  3
BLOCK_160
  1

  0
MTEXT
  5
45B
330
457
100
AcDbEntity
  8
GR2_01
 62
     7
100
AcDbMText
 10
132.7030110345326
 20
242.2963215540093
 30
0.0
 40
1.515151487183604
 41
0.0
 71
     7
 72
     1
  1
\fMS Gothic|b0|i0|c0|p34;\W0.761538;ＹＢ
  0
ENDBLK
  5
45A
330
457
100
AcDbEntity
  8
0
100
AcDbBlockEnd
  0
BLOCK
  5
45E
330
45C
100
AcDbEntity
  8
0
100
AcDbBlockBegin
  2
BLOCK_161
 70
     0
 71
     0
 10
0.0
 20
0.0
 30
0.0
  3
BLOCK_161
  1

  0
MTEXT
  5
460
330
45C
100
AcDbEntity
  8
GR2_01
 62
     7
100
AcDbMText
 10
140.3228732288082
 20
242.2963215540093
 30
0.0
 40
1.515151487183604
 41
0.0
 71
     7
 72
     1
  1
\fMS Gothic|b0|i0|c0|p34;\W0.761538;ＹＣ
  0
ENDBLK
  5
45F
330
45C
100
AcDbEntity
  8
0
100
AcDbBlockEnd
  0
BLOCK
  5
463
330
461
100
AcDbEntity
  8
0
100
AcDbBlockBegin
  2
BLOCK_162
 70
     0
 71
     0
 10
0.0
 20
0.0
 30
0.0
  3
BLOCK_162
  1

  0
MTEXT
  5
465
330
461
100
AcDbEntity
  8
GR2_01
 62
     7
100
AcDbMText
 10
147.9427354230838
 20
242.2963215540093
 30
0.0
 40
1.515151487183604
 41
0.0
 71
     7
 72
     1
  1
\fMS Gothic|b0|i0|c0|p34;\W0.761538;ＹＤ
  0
ENDBLK
  5
464
330
461
100
AcDbEntity
  8
0
100
AcDbBlockEnd
  0
BLOCK
  5
468
330
466
100
AcDbEntity
  8
0
100
AcDbBlockBegin
  2
BLOCK_163
 70
     0
 71
     0
 10
0.0
 20
0.0
 30
0.0
  3
BLOCK_163
  1

  0
MTEXT
  5
46A
330
466
100
AcDbEntity
  8
GR2_01
 62
     7
100
AcDbMText
 10
155.5625976173594
 20
242.2963215540093
 30
0.0
 40
1.515151487183604
 41
0.0
 71
     7
 72
     1
  1
\fMS Gothic|b0|i0|c0|p34;\W0.761538;ＹＥ
  0
ENDBLK
  5
469
330
466
100
AcDbEntity
  8
0
100
AcDbBlockEnd
  0
BLOCK
  5
46D
330
46B
100
AcDbEntity
  8
0
100
AcDbBlockBegin
  2
BLOCK_164
 70
     0
 71
     0
 10
0.0
 20
0.0
 30
0.0
  3
BLOCK_164
  1

  0
MTEXT
  5
46F
330
46B
100
AcDbEntity
  8
GR2_01
 62
     7
100
AcDbMText
 10
163.1828043211835
 20
242.2963215540093
 30
0.0
 40
1.515151487183604
 41
0.0
 71
     7
 72
     1
  1
\fMS Gothic|b0|i0|c0|p34;\W0.761538;ＹＦ
  0
ENDBLK
  5
46E
330
46B
100
AcDbEntity
  8
0
100
AcDbBlockEnd
  0
BLOCK
  5
472
330
470
100
AcDbEntity
  8
0
100
AcDbBlockBegin
  2
BLOCK_165
 70
     0
 71
     0
 10
0.0
 20
0.0
 30
0.0
  3
BLOCK_165
  1

  0
MTEXT
  5
474
330
470
100
AcDbEntity
  8
GR2_01
 62
     7
100
AcDbMText
 10
53.69284666626429
 20
241.727191779846
 30
0.0
 40
1.136363615387703
 41
0.0
 71
     7
 72
     1
  1
\fMS Gothic|b0|i0|c0|p34;\W0.676923;０
  0
ENDBLK
  5
473
330
470
100
AcDbEntity
  8
0
100
AcDbBlockEnd
  0
BLOCK
  5
477
330
475
100
AcDbEntity
  8
0
100
AcDbBlockBegin
  2
BLOCK_166
 70
     0
 71
     0
 10
0.0
 20
0.0
 30
0.0
  3
BLOCK_166
  1

  0
MTEXT
  5
479
330
475
100
AcDbEntity
  8
GR2_01
 62
     7
100
AcDbMText
 10
52.69273544689626
 20
243.4769557768044
 30
0.0
 40
1.136363615387703
 41
0.0
 71
     7
 72
     1
  1
\fMS Gothic|b0|i0|c0|p34;\W0.676923;ＣＯＭ
  0
ENDBLK
  5
478
330
475
100
AcDbEntity
  8
0
100
AcDbBlockEnd
  0
BLOCK
  5
47C
330
47A
100
AcDbEntity
  8
0
100
AcDbBlockBegin
  2
BLOCK_167
 70
     0
 71
     0
 10
0.0
 20
0.0
 30
0.0
  3
BLOCK_167
  1

  0
MTEXT
  5
47E
330
47A
100
AcDbEntity
  8
GR2_01
 62
     7
100
AcDbMText
 10
61.31270886053988
 20
241.727191779846
 30
0.0
 40
1.136363615387703
 41
0.0
 71
     7
 72
     1
  1
\fMS Gothic|b0|i0|c0|p34;\W0.676923;１
  0
ENDBLK
  5
47D
330
47A
100
AcDbEntity
  8
0
100
AcDbBlockEnd
  0
BLOCK
  5
481
330
47F
100
AcDbEntity
  8
0
100
AcDbBlockBegin
  2
BLOCK_168
 70
     0
 71
     0
 10
0.0
 20
0.0
 30
0.0
  3
BLOCK_168
  1

  0
MTEXT
  5
483
330
47F
100
AcDbEntity
  8
GR2_01
 62
     7
100
AcDbMText
 10
60.31276989594612
 20
243.4769557768044
 30
0.0
 40
1.136363615387703
 41
0.0
 71
     7
 72
     1
  1
\fMS Gothic|b0|i0|c0|p34;\W0.676923;ＣＯＭ
  0
ENDBLK
  5
482
330
47F
100
AcDbEntity
  8
0
100
AcDbBlockEnd
  0
BLOCK
  5
486
330
484
100
AcDbEntity
  8
0
100
AcDbBlockBegin
  2
BLOCK_169
 70
     0
 71
     0
 10
0.0
 20
0.0
 30
0.0
  3
BLOCK_169
  1

  0
MTEXT
  5
488
330
484
100
AcDbEntity
  8
GR2_01
 62
     7
100
AcDbMText
 10
68.93274330958974
 20
241.727191779846
 30
0.0
 40
1.136363615387703
 41
0.0
 71
     7
 72
     1
  1
\fMS Gothic|b0|i0|c0|p34;\W0.676923;２
  0
ENDBLK
  5
487
330
484
100
AcDbEntity
  8
0
100
AcDbBlockEnd
  0
BLOCK
  5
48B
330
489
100
AcDbEntity
  8
0
100
AcDbBlockBegin
  2
BLOCK_170
 70
     0
 71
     0
 10
0.0
 20
0.0
 30
0.0
  3
BLOCK_170
  1

  0
MTEXT
  5
48D
330
489
100
AcDbEntity
  8
GR2_01
 62
     7
100
AcDbMText
 10
67.93280434499597
 20
243.4769557768044
 30
0.0
 40
1.136363615387703
 41
0.0
 71
     7
 72
     1
  1
\fMS Gothic|b0|i0|c0|p34;\W0.676923;ＣＯＭ
  0
ENDBLK
  5
48C
330
489
100
AcDbEntity
  8
0
100
AcDbBlockEnd
  0
BLOCK
  5
490
330
48E
100
AcDbEntity
  8
0
100
AcDbBlockBegin
  2
BLOCK_171
 70
     0
 71
     0
 10
0.0
 20
0.0
 30
0.0
  3
BLOCK_171
  1

  0
MTEXT
  5
492
330
48E
100
AcDbEntity
  8
GR2_01
 62
     7
100
AcDbMText
 10
76.55277775863959
 20
241.727191779846
 30
0.0
 40
1.136363615387703
 41
0.0
 71
     7
 72
     1
  1
\fMS Gothic|b0|i0|c0|p34;\W0.676923;３
  0
ENDBLK
  5
491
330
48E
100
AcDbEntity
  8
0
100
AcDbBlockEnd
  0
BLOCK
  5
495
330
493
100
AcDbEntity
  8
0
100
AcDbBlockBegin
  2
BLOCK_172
 70
     0
 71
     0
 10
0.0
 20
0.0
 30
0.0
  3
BLOCK_172
  1

  0
MTEXT
  5
497
330
493
100
AcDbEntity
  8
GR2_01
 62
     7
100
AcDbMText
 10
75.55283879404583
 20
243.4769557768044
 30
0.0
 40
1.136363615387703
 41
0.0
 71
     7
 72
     1
  1
\fMS Gothic|b0|i0|c0|p34;\W0.676923;ＣＯＭ
  0
ENDBLK
  5
496
330
493
100
AcDbEntity
  8
0
100
AcDbBlockEnd
  0
BLOCK
  5
49A
330
498
100
AcDbEntity
  8
0
100
AcDbBlockBegin
  2
BLOCK_173
 70
     0
 71
     0
 10
0.0
 20
0.0
 30
0.0
  3
BLOCK_173
  1

  0
MTEXT
  5
49C
330
498
100
AcDbEntity
  8
GR2_01
 62
     7
100
AcDbMText
 10
84.17281220768945
 20
241.727191779846
 30
0.0
 40
1.136363615387703
 41
0.0
 71
     7
 72
     1
  1
\fMS Gothic|b0|i0|c0|p34;\W0.676923;４
  0
ENDBLK
  5
49B
330
498
100
AcDbEntity
  8
0
100
AcDbBlockEnd
  0
BLOCK
  5
49F
330
49D
100
AcDbEntity
  8
0
100
AcDbBlockBegin
  2
BLOCK_174
 70
     0
 71
     0
 10
0.0
 20
0.0
 30
0.0
  3
BLOCK_174
  1

  0
MTEXT
  5
4A1
330
49D
100
AcDbEntity
  8
GR2_01
 62
     7
100
AcDbMText
 10
83.17270098832141
 20
243.4769557768044
 30
0.0
 40
1.136363615387703
 41
0.0
 71
     7
 72
     1
  1
\fMS Gothic|b0|i0|c0|p34;\W0.676923;ＣＯＭ
  0
ENDBLK
  5
4A0
330
49D
100
AcDbEntity
  8
0
100
AcDbBlockEnd
  0
BLOCK
  5
4A4
330
4A2
100
AcDbEntity
  8
0
100
AcDbBlockBegin
  2
BLOCK_175
 70
     0
 71
     0
 10
0.0
 20
0.0
 30
0.0
  3
BLOCK_175
  1

  0
MTEXT
  5
4A6
330
4A2
100
AcDbEntity
  8
GR2_01
 62
     7
100
AcDbMText
 10
91.79284665673929
 20
241.727191779846
 30
0.0
 40
1.136363615387703
 41
0.0
 71
     7
 72
     1
  1
\fMS Gothic|b0|i0|c0|p34;\W0.676923;５
  0
ENDBLK
  5
4A5
330
4A2
100
AcDbEntity
  8
0
100
AcDbBlockEnd
  0
BLOCK
  5
4A9
330
4A7
100
AcDbEntity
  8
0
100
AcDbBlockBegin
  2
BLOCK_176
 70
     0
 71
     0
 10
0.0
 20
0.0
 30
0.0
  3
BLOCK_176
  1

  0
MTEXT
  5
4AB
330
4A7
100
AcDbEntity
  8
GR2_01
 62
     7
100
AcDbMText
 10
90.79273543737126
 20
243.4769557768044
 30
0.0
 40
1.136363615387703
 41
0.0
 71
     7
 72
     1
  1
\fMS Gothic|b0|i0|c0|p34;\W0.676923;ＣＯＭ
  0
ENDBLK
  5
4AA
330
4A7
100
AcDbEntity
  8
0
100
AcDbBlockEnd
  0
BLOCK
  5
4AE
330
4AC
100
AcDbEntity
  8
0
100
AcDbBlockBegin
  2
BLOCK_177
 70
     0
 71
     0
 10
0.0
 20
0.0
 30
0.0
  3
BLOCK_177
  1

  0
MTEXT
  5
4B0
330
4AC
100
AcDbEntity
  8
GR2_01
 62
     7
100
AcDbMText
 10
99.41270885101488
 20
241.727191779846
 30
0.0
 40
1.136363615387703
 41
0.0
 71
     7
 72
     1
  1
\fMS Gothic|b0|i0|c0|p34;\W0.676923;６
  0
ENDBLK
  5
4AF
330
4AC
100
AcDbEntity
  8
0
100
AcDbBlockEnd
  0
BLOCK
  5
4B3
330
4B1
100
AcDbEntity
  8
0
100
AcDbBlockBegin
  2
BLOCK_178
 70
     0
 71
     0
 10
0.0
 20
0.0
 30
0.0
  3
BLOCK_178
  1

  0
MTEXT
  5
4B5
330
4B1
100
AcDbEntity
  8
GR2_01
 62
     7
100
AcDbMText
 10
98.41276988642112
 20
243.4769557768044
 30
0.0
 40
1.136363615387703
 41
0.0
 71
     7
 72
     1
  1
\fMS Gothic|b0|i0|c0|p34;\W0.676923;ＣＯＭ
  0
ENDBLK
  5
4B4
330
4B1
100
AcDbEntity
  8
0
100
AcDbBlockEnd
  0
BLOCK
  5
4B8
330
4B6
100
AcDbEntity
  8
0
100
AcDbBlockBegin
  2
BLOCK_179
 70
     0
 71
     0
 10
0.0
 20
0.0
 30
0.0
  3
BLOCK_179
  1

  0
MTEXT
  5
4BA
330
4B6
100
AcDbEntity
  8
GR2_01
 62
     7
100
AcDbMText
 10
107.032915554839
 20
241.727191779846
 30
0.0
 40
1.136363615387703
 41
0.0
 71
     7
 72
     1
  1
\fMS Gothic|b0|i0|c0|p34;\W0.676923;７
  0
ENDBLK
  5
4B9
330
4B6
100
AcDbEntity
  8
0
100
AcDbBlockEnd
  0
BLOCK
  5
4BD
330
4BB
100
AcDbEntity
  8
0
100
AcDbBlockBegin
  2
BLOCK_180
 70
     0
 71
     0
 10
0.0
 20
0.0
 30
0.0
  3
BLOCK_180
  1

  0
MTEXT
  5
4BF
330
4BB
100
AcDbEntity
  8
GR2_01
 62
     7
100
AcDbMText
 10
106.032804335471
 20
243.4769557768044
 30
0.0
 40
1.136363615387703
 41
0.0
 71
     7
 72
     1
  1
\fMS Gothic|b0|i0|c0|p34;\W0.676923;ＣＯＭ
  0
ENDBLK
  5
4BE
330
4BB
100
AcDbEntity
  8
0
100
AcDbBlockEnd
  0
BLOCK
  5
4C2
330
4C0
100
AcDbEntity
  8
0
100
AcDbBlockBegin
  2
BLOCK_181
 70
     0
 71
     0
 10
0.0
 20
0.0
 30
0.0
  3
BLOCK_181
  1

  0
MTEXT
  5
4C4
330
4C0
100
AcDbEntity
  8
GR2_01
 62
     7
100
AcDbMText
 10
114.6527777491146
 20
241.727191779846
 30
0.0
 40
1.136363615387703
 41
0.0
 71
     7
 72
     1
  1
\fMS Gothic|b0|i0|c0|p34;\W0.676923;８
  0
ENDBLK
  5
4C3
330
4C0
100
AcDbEntity
  8
0
100
AcDbBlockEnd
  0
BLOCK
  5
4C7
330
4C5
100
AcDbEntity
  8
0
100
AcDbBlockBegin
  2
BLOCK_182
 70
     0
 71
     0
 10
0.0
 20
0.0
 30
0.0
  3
BLOCK_182
  1

  0
MTEXT
  5
4C9
330
4C5
100
AcDbEntity
  8
GR2_01
 62
     7
100
AcDbMText
 10
113.6530110392951
 20
243.4769557768044
 30
0.0
 40
1.136363615387703
 41
0.0
 71
     7
 72
     1
  1
\fMS Gothic|b0|i0|c0|p34;\W0.676923;ＣＯＭ
  0
ENDBLK
  5
4C8
330
4C5
100
AcDbEntity
  8
0
100
AcDbBlockEnd
  0
BLOCK
  5
4CC
330
4CA
100
AcDbEntity
  8
0
100
AcDbBlockBegin
  2
BLOCK_183
 70
     0
 71
     0
 10
0.0
 20
0.0
 30
0.0
  3
BLOCK_183
  1

  0
MTEXT
  5
4CE
330
4CA
100
AcDbEntity
  8
GR2_01
 62
     7
100
AcDbMText
 10
122.2726399433902
 20
241.727191779846
 30
0.0
 40
1.136363615387703
 41
0.0
 71
     7
 72
     1
  1
\fMS Gothic|b0|i0|c0|p34;\W0.676923;９
  0
ENDBLK
  5
4CD
330
4CA
100
AcDbEntity
  8
0
100
AcDbBlockEnd
  0
BLOCK
  5
4D1
330
4CF
100
AcDbEntity
  8
0
100
AcDbBlockBegin
  2
BLOCK_184
 70
     0
 71
     0
 10
0.0
 20
0.0
 30
0.0
  3
BLOCK_184
  1

  0
MTEXT
  5
4D3
330
4CF
100
AcDbEntity
  8
GR2_01
 62
     7
100
AcDbMText
 10
121.2728732335707
 20
243.4769557768044
 30
0.0
 40
1.136363615387703
 41
0.0
 71
     7
 72
     1
  1
\fMS Gothic|b0|i0|c0|p34;\W0.676923;ＣＯＭ
  0
ENDBLK
  5
4D2
330
4CF
100
AcDbEntity
  8
0
100
AcDbBlockEnd
  0
BLOCK
  5
4D6
330
4D4
100
AcDbEntity
  8
0
100
AcDbBlockBegin
  2
BLOCK_185
 70
     0
 71
     0
 10
0.0
 20
0.0
 30
0.0
  3
BLOCK_185
  1

  0
MTEXT
  5
4D8
330
4D4
100
AcDbEntity
  8
GR2_01
 62
     7
100
AcDbMText
 10
129.8928466472143
 20
241.727191779846
 30
0.0
 40
1.136363615387703
 41
0.0
 71
     7
 72
     1
  1
\fMS Gothic|b0|i0|c0|p34;\W0.676923;Ａ
  0
ENDBLK
  5
4D7
330
4D4
100
AcDbEntity
  8
0
100
AcDbBlockEnd
  0
BLOCK
  5
4DB
330
4D9
100
AcDbEntity
  8
0
100
AcDbBlockBegin
  2
BLOCK_186
 70
     0
 71
     0
 10
0.0
 20
0.0
 30
0.0
  3
BLOCK_186
  1

  0
MTEXT
  5
4DD
330
4D9
100
AcDbEntity
  8
GR2_01
 62
     7
100
AcDbMText
 10
128.8927354278463
 20
243.4769557768044
 30
0.0
 40
1.136363615387703
 41
0.0
 71
     7
 72
     1
  1
\fMS Gothic|b0|i0|c0|p34;\W0.676923;ＣＯＭ
  0
ENDBLK
  5
4DC
330
4D9
100
AcDbEntity
  8
0
100
AcDbBlockEnd
  0
BLOCK
  5
4E0
330
4DE
100
AcDbEntity
  8
0
100
AcDbBlockBegin
  2
BLOCK_187
 70
     0
 71
     0
 10
0.0
 20
0.0
 30
0.0
  3
BLOCK_187
  1

  0
MTEXT
  5
4E2
330
4DE
100
AcDbEntity
  8
GR2_01
 62
     7
100
AcDbMText
 10
137.5130533510384
 20
241.727191779846
 30
0.0
 40
1.136363615387703
 41
0.0
 71
     7
 72
     1
  1
\fMS Gothic|b0|i0|c0|p34;\W0.676923;Ｂ
  0
ENDBLK
  5
4E1
330
4DE
100
AcDbEntity
  8
0
100
AcDbBlockEnd
  0
BLOCK
  5
4E5
330
4E3
100
AcDbEntity
  8
0
100
AcDbBlockBegin
  2
BLOCK_188
 70
     0
 71
     0
 10
0.0
 20
0.0
 30
0.0
  3
BLOCK_188
  1

  0
MTEXT
  5
4E7
330
4E3
100
AcDbEntity
  8
GR2_01
 62
     7
100
AcDbMText
 10
136.5125976221219
 20
243.4769557768044
 30
0.0
 40
1.136363615387703
 41
0.0
 71
     7
 72
     1
  1
\fMS Gothic|b0|i0|c0|p34;\W0.676923;ＣＯＭ
  0
ENDBLK
  5
4E6
330
4E3
100
AcDbEntity
  8
0
100
AcDbBlockEnd
  0
BLOCK
  5
4EA
330
4E8
100
AcDbEntity
  8
0
100
AcDbBlockBegin
  2
BLOCK_189
 70
     0
 71
     0
 10
0.0
 20
0.0
 30
0.0
  3
BLOCK_189
  1

  0
MTEXT
  5
4EC
330
4E8
100
AcDbEntity
  8
GR2_01
 62
     7
100
AcDbMText
 10
145.132915545314
 20
241.727191779846
 30
0.0
 40
1.136363615387703
 41
0.0
 71
     7
 72
     1
  1
\fMS Gothic|b0|i0|c0|p34;\W0.676923;Ｃ
  0
ENDBLK
  5
4EB
330
4E8
100
AcDbEntity
  8
0
100
AcDbBlockEnd
  0
BLOCK
  5
4EF
330
4ED
100
AcDbEntity
  8
0
100
AcDbBlockBegin
  2
BLOCK_190
 70
     0
 71
     0
 10
0.0
 20
0.0
 30
0.0
  3
BLOCK_190
  1

  0
MTEXT
  5
4F1
330
4ED
100
AcDbEntity
  8
GR2_01
 62
     7
100
AcDbMText
 10
144.132804325946
 20
243.4769557768044
 30
0.0
 40
1.136363615387703
 41
0.0
 71
     7
 72
     1
  1
\fMS Gothic|b0|i0|c0|p34;\W0.676923;ＣＯＭ
  0
ENDBLK
  5
4F0
330
4ED
100
AcDbEntity
  8
0
100
AcDbBlockEnd
  0
BLOCK
  5
4F4
330
4F2
100
AcDbEntity
  8
0
100
AcDbBlockBegin
  2
BLOCK_191
 70
     0
 71
     0
 10
0.0
 20
0.0
 30
0.0
  3
BLOCK_191
  1

  0
MTEXT
  5
4F6
330
4F2
100
AcDbEntity
  8
GR2_01
 62
     7
100
AcDbMText
 10
152.7527777395896
 20
241.727191779846
 30
0.0
 40
1.136363615387703
 41
0.0
 71
     7
 72
     1
  1
\fMS Gothic|b0|i0|c0|p34;\W0.676923;Ｄ
  0
ENDBLK
  5
4F5
330
4F2
100
AcDbEntity
  8
0
100
AcDbBlockEnd
  0
BLOCK
  5
4F9
330
4F7
100
AcDbEntity
  8
0
100
AcDbBlockBegin
  2
BLOCK_192
 70
     0
 71
     0
 10
0.0
 20
0.0
 30
0.0
  3
BLOCK_192
  1

  0
MTEXT
  5
4FB
330
4F7
100
AcDbEntity
  8
GR2_01
 62
     7
100
AcDbMText
 10
151.7530110297701
 20
243.4769557768044
 30
0.0
 40
1.136363615387703
 41
0.0
 71
     7
 72
     1
  1
\fMS Gothic|b0|i0|c0|p34;\W0.676923;ＣＯＭ
  0
ENDBLK
  5
4FA
330
4F7
100
AcDbEntity
  8
0
100
AcDbBlockEnd
  0
BLOCK
  5
4FE
330
4FC
100
AcDbEntity
  8
0
100
AcDbBlockBegin
  2
BLOCK_193
 70
     0
 71
     0
 10
0.0
 20
0.0
 30
0.0
  3
BLOCK_193
  1

  0
MTEXT
  5
500
330
4FC
100
AcDbEntity
  8
GR2_01
 62
     7
100
AcDbMText
 10
160.3726399338652
 20
241.727191779846
 30
0.0
 40
1.136363615387703
 41
0.0
 71
     7
 72
     1
  1
\fMS Gothic|b0|i0|c0|p34;\W0.676923;Ｅ
  0
ENDBLK
  5
4FF
330
4FC
100
AcDbEntity
  8
0
100
AcDbBlockEnd
  0
BLOCK
  5
503
330
501
100
AcDbEntity
  8
0
100
AcDbBlockBegin
  2
BLOCK_194
 70
     0
 71
     0
 10
0.0
 20
0.0
 30
0.0
  3
BLOCK_194
  1

  0
MTEXT
  5
505
330
501
100
AcDbEntity
  8
GR2_01
 62
     7
100
AcDbMText
 10
159.3728732240457
 20
243.4769557768044
 30
0.0
 40
1.136363615387703
 41
0.0
 71
     7
 72
     1
  1
\fMS Gothic|b0|i0|c0|p34;\W0.676923;ＣＯＭ
  0
ENDBLK
  5
504
330
501
100
AcDbEntity
  8
0
100
AcDbBlockEnd
  0
BLOCK
  5
508
330
506
100
AcDbEntity
  8
0
100
AcDbBlockBegin
  2
BLOCK_195
 70
     0
 71
     0
 10
0.0
 20
0.0
 30
0.0
  3
BLOCK_195
  1

  0
MTEXT
  5
50A
330
506
100
AcDbEntity
  8
GR2_01
 62
     7
100
AcDbMText
 10
167.9928466376893
 20
241.727191779846
 30
0.0
 40
1.136363615387703
 41
0.0
 71
     7
 72
     1
  1
\fMS Gothic|b0|i0|c0|p34;\W0.676923;Ｆ
  0
ENDBLK
  5
509
330
506
100
AcDbEntity
  8
0
100
AcDbBlockEnd
  0
BLOCK
  5
50D
330
50B
100
AcDbEntity
  8
0
100
AcDbBlockBegin
  2
BLOCK_196
 70
     0
 71
     0
 10
0.0
 20
0.0
 30
0.0
  3
BLOCK_196
  1

  0
MTEXT
  5
50F
330
50B
100
AcDbEntity
  8
GR2_01
 62
     7
100
AcDbMText
 10
166.9927354183213
 20
243.4769557768044
 30
0.0
 40
1.136363615387703
 41
0.0
 71
     7
 72
     1
  1
\fMS Gothic|b0|i0|c0|p34;\W0.676923;ＣＯＭ
  0
ENDBLK
  5
50E
330
50B
100
AcDbEntity
  8
0
100
AcDbBlockEnd
  0
BLOCK
  5
512
330
510
100
AcDbEntity
  8
0
100
AcDbBlockBegin
  2
BLOCK_197
 70
     0
 71
     0
 10
0.0
 20
0.0
 30
0.0
  3
BLOCK_197
  1

  0
MTEXT
  5
514
330
510
100
AcDbEntity
  8
GR2_01
 62
     7
100
AcDbMText
 10
40.45851235967704
 20
224.7693982728007
 30
0.0
 40
1.515151487183604
 41
0.0
 71
     7
 72
     1
  1
\fMS Gothic|b0|i0|c0|p34;\W0.52;ＦＡ１－ＴＨ１Ｅ１６Ｙ２ＲＡ２０Ｓ
 11
-4.371139000186241E-8
 21
0.999999999999999
 31
0.0
  0
ENDBLK
  5
513
330
510
100
AcDbEntity
  8
0
100
AcDbBlockEnd
  0
BLOCK
  5
517
330
515
100
AcDbEntity
  8
0
100
AcDbBlockBegin
  2
BLOCK_198
 70
     0
 71
     0
 10
0.0
 20
0.0
 30
0.0
  3
BLOCK_198
  1

  0
POLYLINE
  5
519
330
515
100
AcDbEntity
  8
GR2_01
 62
     7
100
AcDb2dPolyline
 66
     1
 10
0.0
 20
0.0
 30
0.0
  0
VERTEX
  5
51A
330
519
100
AcDbEntity
  8
GR2_01
 62
     7
100
AcDbVertex
100
AcDb2dVertex
 10
38.62778861881527
 20
185.0193697996653
 30
0.0
  0
VERTEX
  5
51B
330
519
100
AcDbEntity
  8
GR2_01
 62
     7
100
AcDbVertex
100
AcDb2dVertex
 10
38.62778861881527
 20
164.0194457597764
 30
0.0
  0
SEQEND
  5
51C
330
519
100
AcDbEntity
  8
GR2_01
  0
ENDBLK
  5
518
330
515
100
AcDbEntity
  8
0
100
AcDbBlockEnd
  0
BLOCK
  5
51F
330
51D
100
AcDbEntity
  8
0
100
AcDbBlockBegin
  2
BLOCK_199
 70
     0
 71
     0
 10
0.0
 20
0.0
 30
0.0
  3
BLOCK_199
  1

  0
POLYLINE
  5
521
330
51D
100
AcDbEntity
  8
GR2_01
100
AcDb2dPolyline
 66
     1
 10
0.0
 20
0.0
 30
0.0
  0
VERTEX
  5
522
330
521
100
AcDbEntity
  8
GR2_01
100
AcDbVertex
100
AcDb2dVertex
 10
172.6278781035444
 20
245.019497280325
 30
0.0
  0
VERTEX
  5
523
330
521
100
AcDbEntity
  8
GR2_01
100
AcDbVertex
100
AcDb2dVertex
 10
170.3978677959422
 20
245.019497280325
 30
0.0
  0
VERTEX
  5
524
330
521
100
AcDbEntity
  8
GR2_01
100
AcDbVertex
100
AcDb2dVertex
 10
170.3978677959422
 20
224.0194009856618
 30
0.0
  0
VERTEX
  5
525
330
521
100
AcDbEntity
  8
GR2_01
100
AcDbVertex
100
AcDb2dVertex
 10
172.6278781035444
 20
224.0194009856618
 30
0.0
  0
VERTEX
  5
526
330
521
100
AcDbEntity
  8
GR2_01
100
AcDbVertex
100
AcDb2dVertex
 10
172.6278781035444
 20
245.019497280325
 30
0.0
  0
VERTEX
  5
527
330
521
100
AcDbEntity
  8
GR2_01
100
AcDbVertex
100
AcDb2dVertex
 10
172.6278781035444
 20
245.019497280325
 30
0.0
  0
SEQEND
  5
528
330
521
100
AcDbEntity
  8
GR2_01
  0
HATCH
  5
529
330
51D
100
AcDbEntity
  8
GR2_01
 62
     7
100
AcDbHatch
 10
0.0
 20
0.0
 30
0.0
210
0.0
220
0.0
230
1.0
  2
AI_USER_DEFINED_HATCH
 70
     0
 71
     0
 91
        1
 92
        1
 93
        4
 72
     1
 10
172.6278781035444
 20
245.019497280325
 11
170.3978677959422
 21
245.019497280325
 72
     1
 10
170.3978677959422
 20
245.019497280325
 11
170.3978677959422
 21
224.0194009856618
 72
     1
 10
170.3978677959422
 20
224.0194009856618
 11
172.6278781035444
 21
224.0194009856618
 72
     1
 10
172.6278781035444
 20
224.0194009856618
 11
172.6278781035444
 21
245.019497280325
 97
        0
 75
     0
 76
     0
 52
45.0
 41
10.0
 77
     0
 78
     1
 53
45.0
 43
0.0
 44
0.0
 45
-7.071067811865475
 46
7.071067811865476
 79
     0
 98
        0
  0
ENDBLK
  5
520
330
51D
100
AcDbEntity
  8
0
100
AcDbBlockEnd
  0
BLOCK
  5
52C
330
52A
100
AcDbEntity
  8
0
100
AcDbBlockBegin
  2
BLOCK_200
 70
     0
 71
     0
 10
0.0
 20
0.0
 30
0.0
  3
BLOCK_200
  1

  0
POLYLINE
  5
52E
330
52A
100
AcDbEntity
  8
GR2_01
 62
     7
100
AcDb2dPolyline
 66
     1
 10
0.0
 20
0.0
 30
0.0
  0
VERTEX
  5
52F
330
52E
100
AcDbEntity
  8
GR2_01
 62
     7
100
AcDbVertex
100
AcDb2dVertex
 10
38.62778861881527
 20
83.01956649400206
 30
0.0
  0
VERTEX
  5
530
330
52E
100
AcDbEntity
  8
GR2_01
 62
     7
100
AcDbVertex
100
AcDb2dVertex
 10
172.6278781035444
 20
83.01956649400206
 30
0.0
  0
SEQEND
  5
531
330
52E
100
AcDbEntity
  8
GR2_01
  0
ENDBLK
  5
52D
330
52A
100
AcDbEntity
  8
0
100
AcDbBlockEnd
  0
BLOCK
  5
534
330
532
100
AcDbEntity
  8
0
100
AcDbBlockBegin
  2
BLOCK_201
 70
     0
 71
     0
 10
0.0
 20
0.0
 30
0.0
  3
BLOCK_201
  1

  0
POLYLINE
  5
536
330
532
100
AcDbEntity
  8
GR2_01
 62
     7
100
AcDb2dPolyline
 66
     1
 10
0.0
 20
0.0
 30
0.0
  0
VERTEX
  5
537
330
536
100
AcDbEntity
  8
GR2_01
 62
     7
100
AcDbVertex
100
AcDb2dVertex
 10
172.6278781035444
 20
104.019490533891
 30
0.0
  0
VERTEX
  5
538
330
536
100
AcDbEntity
  8
GR2_01
 62
     7
100
AcDbVertex
100
AcDb2dVertex
 10
38.62778861881527
 20
104.019490533891
 30
0.0
  0
SEQEND
  5
539
330
536
100
AcDbEntity
  8
GR2_01
  0
ENDBLK
  5
535
330
532
100
AcDbEntity
  8
0
100
AcDbBlockEnd
  0
BLOCK
  5
53C
330
53A
100
AcDbEntity
  8
0
100
AcDbBlockBegin
  2
BLOCK_202
 70
     0
 71
     0
 10
0.0
 20
0.0
 30
0.0
  3
BLOCK_202
  1

  0
POLYLINE
  5
53E
330
53A
100
AcDbEntity
  8
GR2_01
 62
     7
100
AcDb2dPolyline
 66
     1
 10
0.0
 20
0.0
 30
0.0
  0
VERTEX
  5
53F
330
53E
100
AcDbEntity
  8
GR2_01
 62
     7
100
AcDbVertex
100
AcDb2dVertex
 10
38.62778861881527
 20
93.51952851394651
 30
0.0
  0
VERTEX
  5
540
330
53E
100
AcDbEntity
  8
GR2_01
 62
     7
100
AcDbVertex
100
AcDb2dVertex
 10
172.6278781035444
 20
93.51952851394651
 30
0.0
  0
SEQEND
  5
541
330
53E
100
AcDbEntity
  8
GR2_01
  0
ENDBLK
  5
53D
330
53A
100
AcDbEntity
  8
0
100
AcDbBlockEnd
  0
BLOCK
  5
544
330
542
100
AcDbEntity
  8
0
100
AcDbBlockBegin
  2
BLOCK_203
 70
     0
 71
     0
 10
0.0
 20
0.0
 30
0.0
  3
BLOCK_203
  1

  0
POLYLINE
  5
546
330
542
100
AcDbEntity
  8
GR2_01
 62
     7
100
AcDb2dPolyline
 66
     1
 10
0.0
 20
0.0
 30
0.0
  0
VERTEX
  5
547
330
546
100
AcDbEntity
  8
GR2_01
 62
     7
100
AcDbVertex
100
AcDb2dVertex
 10
168.492729992599
 20
104.019490533891
 30
0.0
  0
VERTEX
  5
548
330
546
100
AcDbEntity
  8
GR2_01
 62
     7
100
AcDbVertex
100
AcDb2dVertex
 10
168.492729992599
 20
93.51952851394651
 30
0.0
  0
SEQEND
  5
549
330
546
100
AcDbEntity
  8
GR2_01
  0
ENDBLK
  5
545
330
542
100
AcDbEntity
  8
0
100
AcDbBlockEnd
  0
BLOCK
  5
54C
330
54A
100
AcDbEntity
  8
0
100
AcDbBlockBegin
  2
BLOCK_204
 70
     0
 71
     0
 10
0.0
 20
0.0
 30
0.0
  3
BLOCK_204
  1

  0
POLYLINE
  5
54E
330
54A
100
AcDbEntity
  8
GR2_01
 62
     7
100
AcDb2dPolyline
 66
     1
 10
0.0
 20
0.0
 30
0.0
  0
VERTEX
  5
54F
330
54E
100
AcDbEntity
  8
GR2_01
 62
     7
100
AcDbVertex
100
AcDb2dVertex
 10
160.8728677983235
 20
103.9695366493548
 30
0.0
  0
VERTEX
  5
550
330
54E
100
AcDbEntity
  8
GR2_01
 62
     7
100
AcDbVertex
100
AcDb2dVertex
 10
160.8728677983235
 20
93.51952851394651
 30
0.0
  0
SEQEND
  5
551
330
54E
100
AcDbEntity
  8
GR2_01
  0
ENDBLK
  5
54D
330
54A
100
AcDbEntity
  8
0
100
AcDbBlockEnd
  0
BLOCK
  5
554
330
552
100
AcDbEntity
  8
0
100
AcDbBlockBegin
  2
BLOCK_205
 70
     0
 71
     0
 10
0.0
 20
0.0
 30
0.0
  3
BLOCK_205
  1

  0
POLYLINE
  5
556
330
552
100
AcDbEntity
  8
GR2_01
 62
     7
100
AcDb2dPolyline
 66
     1
 10
0.0
 20
0.0
 30
0.0
  0
VERTEX
  5
557
330
556
100
AcDbEntity
  8
GR2_01
 62
     7
100
AcDbVertex
100
AcDb2dVertex
 10
153.2526610944993
 20
103.9695366493548
 30
0.0
  0
VERTEX
  5
558
330
556
100
AcDbEntity
  8
GR2_01
 62
     7
100
AcDbVertex
100
AcDb2dVertex
 10
153.2526610944993
 20
93.51952851394651
 30
0.0
  0
SEQEND
  5
559
330
556
100
AcDbEntity
  8
GR2_01
  0
ENDBLK
  5
555
330
552
100
AcDbEntity
  8
0
100
AcDbBlockEnd
  0
BLOCK
  5
55C
330
55A
100
AcDbEntity
  8
0
100
AcDbBlockBegin
  2
BLOCK_206
 70
     0
 71
     0
 10
0.0
 20
0.0
 30
0.0
  3
BLOCK_206
  1

  0
POLYLINE
  5
55E
330
55A
100
AcDbEntity
  8
GR2_01
 62
     7
100
AcDb2dPolyline
 66
     1
 10
0.0
 20
0.0
 30
0.0
  0
VERTEX
  5
55F
330
55E
100
AcDbEntity
  8
GR2_01
 62
     7
100
AcDbVertex
100
AcDb2dVertex
 10
145.6327989002237
 20
103.9695366493548
 30
0.0
  0
VERTEX
  5
560
330
55E
100
AcDbEntity
  8
GR2_01
 62
     7
100
AcDbVertex
100
AcDb2dVertex
 10
145.6327989002237
 20
93.51952851394651
 30
0.0
  0
SEQEND
  5
561
330
55E
100
AcDbEntity
  8
GR2_01
  0
ENDBLK
  5
55D
330
55A
100
AcDbEntity
  8
0
100
AcDbBlockEnd
  0
BLOCK
  5
564
330
562
100
AcDbEntity
  8
0
100
AcDbBlockBegin
  2
BLOCK_207
 70
     0
 71
     0
 10
0.0
 20
0.0
 30
0.0
  3
BLOCK_207
  1

  0
POLYLINE
  5
566
330
562
100
AcDbEntity
  8
GR2_01
 62
     7
100
AcDb2dPolyline
 66
     1
 10
0.0
 20
0.0
 30
0.0
  0
VERTEX
  5
567
330
566
100
AcDbEntity
  8
GR2_01
 62
     7
100
AcDbVertex
100
AcDb2dVertex
 10
138.0129367059482
 20
103.9695366493548
 30
0.0
  0
VERTEX
  5
568
330
566
100
AcDbEntity
  8
GR2_01
 62
     7
100
AcDbVertex
100
AcDb2dVertex
 10
138.0129367059482
 20
93.51952851394651
 30
0.0
  0
SEQEND
  5
569
330
566
100
AcDbEntity
  8
GR2_01
  0
ENDBLK
  5
565
330
562
100
AcDbEntity
  8
0
100
AcDbBlockEnd
  0
BLOCK
  5
56C
330
56A
100
AcDbEntity
  8
0
100
AcDbBlockBegin
  2
BLOCK_208
 70
     0
 71
     0
 10
0.0
 20
0.0
 30
0.0
  3
BLOCK_208
  1

  0
POLYLINE
  5
56E
330
56A
100
AcDbEntity
  8
GR2_01
 62
     7
100
AcDb2dPolyline
 66
     1
 10
0.0
 20
0.0
 30
0.0
  0
VERTEX
  5
56F
330
56E
100
AcDbEntity
  8
GR2_01
 62
     7
100
AcDbVertex
100
AcDb2dVertex
 10
130.392730002124
 20
103.9695366493548
 30
0.0
  0
VERTEX
  5
570
330
56E
100
AcDbEntity
  8
GR2_01
 62
     7
100
AcDbVertex
100
AcDb2dVertex
 10
130.392730002124
 20
93.51952851394651
 30
0.0
  0
SEQEND
  5
571
330
56E
100
AcDbEntity
  8
GR2_01
  0
ENDBLK
  5
56D
330
56A
100
AcDbEntity
  8
0
100
AcDbBlockEnd
  0
BLOCK
  5
574
330
572
100
AcDbEntity
  8
0
100
AcDbBlockBegin
  2
BLOCK_209
 70
     0
 71
     0
 10
0.0
 20
0.0
 30
0.0
  3
BLOCK_209
  1

  0
POLYLINE
  5
576
330
572
100
AcDbEntity
  8
GR2_01
 62
     7
100
AcDb2dPolyline
 66
     1
 10
0.0
 20
0.0
 30
0.0
  0
VERTEX
  5
577
330
576
100
AcDbEntity
  8
GR2_01
 62
     7
100
AcDbVertex
100
AcDb2dVertex
 10
122.7728678078485
 20
103.9695366493548
 30
0.0
  0
VERTEX
  5
578
330
576
100
AcDbEntity
  8
GR2_01
 62
     7
100
AcDbVertex
100
AcDb2dVertex
 10
122.7728678078485
 20
93.51952851394651
 30
0.0
  0
SEQEND
  5
579
330
576
100
AcDbEntity
  8
GR2_01
  0
ENDBLK
  5
575
330
572
100
AcDbEntity
  8
0
100
AcDbBlockEnd
  0
BLOCK
  5
57C
330
57A
100
AcDbEntity
  8
0
100
AcDbBlockBegin
  2
BLOCK_210
 70
     0
 71
     0
 10
0.0
 20
0.0
 30
0.0
  3
BLOCK_210
  1

  0
POLYLINE
  5
57E
330
57A
100
AcDbEntity
  8
GR2_01
 62
     7
100
AcDb2dPolyline
 66
     1
 10
0.0
 20
0.0
 30
0.0
  0
VERTEX
  5
57F
330
57E
100
AcDbEntity
  8
GR2_01
 62
     7
100
AcDbVertex
100
AcDb2dVertex
 10
115.1526611040243
 20
103.9695366493548
 30
0.0
  0
VERTEX
  5
580
330
57E
100
AcDbEntity
  8
GR2_01
 62
     7
100
AcDbVertex
100
AcDb2dVertex
 10
115.1526611040243
 20
93.51952851394651
 30
0.0
  0
SEQEND
  5
581
330
57E
100
AcDbEntity
  8
GR2_01
  0
ENDBLK
  5
57D
330
57A
100
AcDbEntity
  8
0
100
AcDbBlockEnd
  0
BLOCK
  5
584
330
582
100
AcDbEntity
  8
0
100
AcDbBlockBegin
  2
BLOCK_211
 70
     0
 71
     0
 10
0.0
 20
0.0
 30
0.0
  3
BLOCK_211
  1

  0
POLYLINE
  5
586
330
582
100
AcDbEntity
  8
GR2_01
 62
     7
100
AcDb2dPolyline
 66
     1
 10
0.0
 20
0.0
 30
0.0
  0
VERTEX
  5
587
330
586
100
AcDbEntity
  8
GR2_01
 62
     7
100
AcDbVertex
100
AcDb2dVertex
 10
107.5327989097487
 20
103.9695366493548
 30
0.0
  0
VERTEX
  5
588
330
586
100
AcDbEntity
  8
GR2_01
 62
     7
100
AcDbVertex
100
AcDb2dVertex
 10
107.5327989097487
 20
93.51952851394651
 30
0.0
  0
SEQEND
  5
589
330
586
100
AcDbEntity
  8
GR2_01
  0
ENDBLK
  5
585
330
582
100
AcDbEntity
  8
0
100
AcDbBlockEnd
  0
BLOCK
  5
58C
330
58A
100
AcDbEntity
  8
0
100
AcDbBlockBegin
  2
BLOCK_212
 70
     0
 71
     0
 10
0.0
 20
0.0
 30
0.0
  3
BLOCK_212
  1

  0
POLYLINE
  5
58E
330
58A
100
AcDbEntity
  8
GR2_01
 62
     7
100
AcDb2dPolyline
 66
     1
 10
0.0
 20
0.0
 30
0.0
  0
VERTEX
  5
58F
330
58E
100
AcDbEntity
  8
GR2_01
 62
     7
100
AcDbVertex
100
AcDb2dVertex
 10
99.9127644606989
 20
103.9695366493548
 30
0.0
  0
VERTEX
  5
590
330
58E
100
AcDbEntity
  8
GR2_01
 62
     7
100
AcDbVertex
100
AcDb2dVertex
 10
99.9127644606989
 20
93.51952851394651
 30
0.0
  0
SEQEND
  5
591
330
58E
100
AcDbEntity
  8
GR2_01
  0
ENDBLK
  5
58D
330
58A
100
AcDbEntity
  8
0
100
AcDbBlockEnd
  0
BLOCK
  5
594
330
592
100
AcDbEntity
  8
0
100
AcDbBlockBegin
  2
BLOCK_213
 70
     0
 71
     0
 10
0.0
 20
0.0
 30
0.0
  3
BLOCK_213
  1

  0
POLYLINE
  5
596
330
592
100
AcDbEntity
  8
GR2_01
 62
     7
100
AcDb2dPolyline
 66
     1
 10
0.0
 20
0.0
 30
0.0
  0
VERTEX
  5
597
330
596
100
AcDbEntity
  8
GR2_01
 62
     7
100
AcDbVertex
100
AcDb2dVertex
 10
92.29273001164904
 20
103.9695366493548
 30
0.0
  0
VERTEX
  5
598
330
596
100
AcDbEntity
  8
GR2_01
 62
     7
100
AcDbVertex
100
AcDb2dVertex
 10
92.29273001164904
 20
93.51952851394651
 30
0.0
  0
SEQEND
  5
599
330
596
100
AcDbEntity
  8
GR2_01
  0
ENDBLK
  5
595
330
592
100
AcDbEntity
  8
0
100
AcDbBlockEnd
  0
BLOCK
  5
59C
330
59A
100
AcDbEntity
  8
0
100
AcDbBlockBegin
  2
BLOCK_214
 70
     0
 71
     0
 10
0.0
 20
0.0
 30
0.0
  3
BLOCK_214
  1

  0
POLYLINE
  5
59E
330
59A
100
AcDbEntity
  8
GR2_01
 62
     7
100
AcDb2dPolyline
 66
     1
 10
0.0
 20
0.0
 30
0.0
  0
VERTEX
  5
59F
330
59E
100
AcDbEntity
  8
GR2_01
 62
     7
100
AcDbVertex
100
AcDb2dVertex
 10
84.67269556259919
 20
103.9695366493548
 30
0.0
  0
VERTEX
  5
5A0
330
59E
100
AcDbEntity
  8
GR2_01
 62
     7
100
AcDbVertex
100
AcDb2dVertex
 10
84.67269556259919
 20
93.51952851394651
 30
0.0
  0
SEQEND
  5
5A1
330
59E
100
AcDbEntity
  8
GR2_01
  0
ENDBLK
  5
59D
330
59A
100
AcDbEntity
  8
0
100
AcDbBlockEnd
  0
BLOCK
  5
5A4
330
5A2
100
AcDbEntity
  8
0
100
AcDbBlockBegin
  2
BLOCK_215
 70
     0
 71
     0
 10
0.0
 20
0.0
 30
0.0
  3
BLOCK_215
  1

  0
POLYLINE
  5
5A6
330
5A2
100
AcDbEntity
  8
GR2_01
 62
     7
100
AcDb2dPolyline
 66
     1
 10
0.0
 20
0.0
 30
0.0
  0
VERTEX
  5
5A7
330
5A6
100
AcDbEntity
  8
GR2_01
 62
     7
100
AcDbVertex
100
AcDb2dVertex
 10
77.0528333683236
 20
103.9695366493548
 30
0.0
  0
VERTEX
  5
5A8
330
5A6
100
AcDbEntity
  8
GR2_01
 62
     7
100
AcDbVertex
100
AcDb2dVertex
 10
77.0528333683236
 20
93.51952851394651
 30
0.0
  0
SEQEND
  5
5A9
330
5A6
100
AcDbEntity
  8
GR2_01
  0
ENDBLK
  5
5A5
330
5A2
100
AcDbEntity
  8
0
100
AcDbBlockEnd
  0
BLOCK
  5
5AC
330
5AA
100
AcDbEntity
  8
0
100
AcDbBlockBegin
  2
BLOCK_216
 70
     0
 71
     0
 10
0.0
 20
0.0
 30
0.0
  3
BLOCK_216
  1

  0
POLYLINE
  5
5AE
330
5AA
100
AcDbEntity
  8
GR2_01
 62
     7
100
AcDb2dPolyline
 66
     1
 10
0.0
 20
0.0
 30
0.0
  0
VERTEX
  5
5AF
330
5AE
100
AcDbEntity
  8
GR2_01
 62
     7
100
AcDbVertex
100
AcDb2dVertex
 10
69.43279891927375
 20
103.9695366493548
 30
0.0
  0
VERTEX
  5
5B0
330
5AE
100
AcDbEntity
  8
GR2_01
 62
     7
100
AcDbVertex
100
AcDb2dVertex
 10
69.43279891927375
 20
93.51952851394651
 30
0.0
  0
SEQEND
  5
5B1
330
5AE
100
AcDbEntity
  8
GR2_01
  0
ENDBLK
  5
5AD
330
5AA
100
AcDbEntity
  8
0
100
AcDbBlockEnd
  0
BLOCK
  5
5B4
330
5B2
100
AcDbEntity
  8
0
100
AcDbBlockBegin
  2
BLOCK_217
 70
     0
 71
     0
 10
0.0
 20
0.0
 30
0.0
  3
BLOCK_217
  1

  0
POLYLINE
  5
5B6
330
5B2
100
AcDbEntity
  8
GR2_01
 62
     7
100
AcDb2dPolyline
 66
     1
 10
0.0
 20
0.0
 30
0.0
  0
VERTEX
  5
5B7
330
5B6
100
AcDbEntity
  8
GR2_01
 62
     7
100
AcDbVertex
100
AcDb2dVertex
 10
61.8127644702239
 20
103.9695366493548
 30
0.0
  0
VERTEX
  5
5B8
330
5B6
100
AcDbEntity
  8
GR2_01
 62
     7
100
AcDbVertex
100
AcDb2dVertex
 10
61.8127644702239
 20
93.51952851394651
 30
0.0
  0
SEQEND
  5
5B9
330
5B6
100
AcDbEntity
  8
GR2_01
  0
ENDBLK
  5
5B5
330
5B2
100
AcDbEntity
  8
0
100
AcDbBlockEnd
  0
BLOCK
  5
5BC
330
5BA
100
AcDbEntity
  8
0
100
AcDbBlockBegin
  2
BLOCK_218
 70
     0
 71
     0
 10
0.0
 20
0.0
 30
0.0
  3
BLOCK_218
  1

  0
POLYLINE
  5
5BE
330
5BA
100
AcDbEntity
  8
GR2_01
 62
     7
100
AcDb2dPolyline
 66
     1
 10
0.0
 20
0.0
 30
0.0
  0
VERTEX
  5
5BF
330
5BE
100
AcDbEntity
  8
GR2_01
 62
     7
100
AcDbVertex
100
AcDb2dVertex
 10
54.19273002117404
 20
103.9695366493548
 30
0.0
  0
VERTEX
  5
5C0
330
5BE
100
AcDbEntity
  8
GR2_01
 62
     7
100
AcDbVertex
100
AcDb2dVertex
 10
54.19273002117404
 20
93.51952851394651
 30
0.0
  0
SEQEND
  5
5C1
330
5BE
100
AcDbEntity
  8
GR2_01
  0
ENDBLK
  5
5BD
330
5BA
100
AcDbEntity
  8
0
100
AcDbBlockEnd
  0
BLOCK
  5
5C4
330
5C2
100
AcDbEntity
  8
0
100
AcDbBlockBegin
  2
BLOCK_219
 70
     0
 71
     0
 10
0.0
 20
0.0
 30
0.0
  3
BLOCK_219
  1

  0
POLYLINE
  5
5C6
330
5C2
100
AcDbEntity
  8
GR2_01
 62
     7
100
AcDb2dPolyline
 66
     1
 10
0.0
 20
0.0
 30
0.0
  0
VERTEX
  5
5C7
330
5C6
100
AcDbEntity
  8
GR2_01
 62
     7
100
AcDbVertex
100
AcDb2dVertex
 10
46.57269557212419
 20
103.9695366493548
 30
0.0
  0
VERTEX
  5
5C8
330
5C6
100
AcDbEntity
  8
GR2_01
 62
     7
100
AcDbVertex
100
AcDb2dVertex
 10
46.57269557212419
 20
93.51952851394651
 30
0.0
  0
SEQEND
  5
5C9
330
5C6
100
AcDbEntity
  8
GR2_01
  0
ENDBLK
  5
5C5
330
5C2
100
AcDbEntity
  8
0
100
AcDbBlockEnd
  0
BLOCK
  5
5CC
330
5CA
100
AcDbEntity
  8
0
100
AcDbBlockBegin
  2
BLOCK_220
 70
     0
 71
     0
 10
0.0
 20
0.0
 30
0.0
  3
BLOCK_220
  1

  0
POLYLINE
  5
5CE
330
5CA
100
AcDbEntity
  8
GR2_01
 62
     7
100
AcDb2dPolyline
 66
     1
 10
0.0
 20
0.0
 30
0.0
  0
VERTEX
  5
5CF
330
5CE
100
AcDbEntity
  8
GR2_01
 62
     7
100
AcDbVertex
100
AcDb2dVertex
 10
42.7627644749864
 20
93.51952851394651
 30
0.0
  0
VERTEX
  5
5D0
330
5CE
100
AcDbEntity
  8
GR2_01
 62
     7
100
AcDbVertex
100
AcDb2dVertex
 10
42.7627644749864
 20
83.01956649400206
 30
0.0
  0
SEQEND
  5
5D1
330
5CE
100
AcDbEntity
  8
GR2_01
  0
ENDBLK
  5
5CD
330
5CA
100
AcDbEntity
  8
0
100
AcDbBlockEnd
  0
BLOCK
  5
5D4
330
5D2
100
AcDbEntity
  8
0
100
AcDbBlockBegin
  2
BLOCK_221
 70
     0
 71
     0
 10
0.0
 20
0.0
 30
0.0
  3
BLOCK_221
  1

  0
POLYLINE
  5
5D6
330
5D2
100
AcDbEntity
  8
GR2_01
 62
     7
100
AcDb2dPolyline
 66
     1
 10
0.0
 20
0.0
 30
0.0
  0
VERTEX
  5
5D7
330
5D6
100
AcDbEntity
  8
GR2_01
 62
     7
100
AcDbVertex
100
AcDb2dVertex
 10
50.38279892403624
 20
93.51952851394651
 30
0.0
  0
VERTEX
  5
5D8
330
5D6
100
AcDbEntity
  8
GR2_01
 62
     7
100
AcDbVertex
100
AcDb2dVertex
 10
50.38279892403624
 20
83.01956649400206
 30
0.0
  0
SEQEND
  5
5D9
330
5D6
100
AcDbEntity
  8
GR2_01
  0
ENDBLK
  5
5D5
330
5D2
100
AcDbEntity
  8
0
100
AcDbBlockEnd
  0
BLOCK
  5
5DC
330
5DA
100
AcDbEntity
  8
0
100
AcDbBlockBegin
  2
BLOCK_222
 70
     0
 71
     0
 10
0.0
 20
0.0
 30
0.0
  3
BLOCK_222
  1

  0
POLYLINE
  5
5DE
330
5DA
100
AcDbEntity
  8
GR2_01
 62
     7
100
AcDb2dPolyline
 66
     1
 10
0.0
 20
0.0
 30
0.0
  0
VERTEX
  5
5DF
330
5DE
100
AcDbEntity
  8
GR2_01
 62
     7
100
AcDbVertex
100
AcDb2dVertex
 10
58.0028333730861
 20
93.51952851394651
 30
0.0
  0
VERTEX
  5
5E0
330
5DE
100
AcDbEntity
  8
GR2_01
 62
     7
100
AcDbVertex
100
AcDb2dVertex
 10
58.0028333730861
 20
83.01956649400206
 30
0.0
  0
SEQEND
  5
5E1
330
5DE
100
AcDbEntity
  8
GR2_01
  0
ENDBLK
  5
5DD
330
5DA
100
AcDbEntity
  8
0
100
AcDbBlockEnd
  0
BLOCK
  5
5E4
330
5E2
100
AcDbEntity
  8
0
100
AcDbBlockBegin
  2
BLOCK_223
 70
     0
 71
     0
 10
0.0
 20
0.0
 30
0.0
  3
BLOCK_223
  1

  0
POLYLINE
  5
5E6
330
5E2
100
AcDbEntity
  8
GR2_01
 62
     7
100
AcDb2dPolyline
 66
     1
 10
0.0
 20
0.0
 30
0.0
  0
VERTEX
  5
5E7
330
5E6
100
AcDbEntity
  8
GR2_01
 62
     7
100
AcDbVertex
100
AcDb2dVertex
 10
65.62269556736169
 20
93.51952851394651
 30
0.0
  0
VERTEX
  5
5E8
330
5E6
100
AcDbEntity
  8
GR2_01
 62
     7
100
AcDbVertex
100
AcDb2dVertex
 10
65.62269556736169
 20
83.01956649400206
 30
0.0
  0
SEQEND
  5
5E9
330
5E6
100
AcDbEntity
  8
GR2_01
  0
ENDBLK
  5
5E5
330
5E2
100
AcDbEntity
  8
0
100
AcDbBlockEnd
  0
BLOCK
  5
5EC
330
5EA
100
AcDbEntity
  8
0
100
AcDbBlockBegin
  2
BLOCK_224
 70
     0
 71
     0
 10
0.0
 20
0.0
 30
0.0
  3
BLOCK_224
  1

  0
POLYLINE
  5
5EE
330
5EA
100
AcDbEntity
  8
GR2_01
 62
     7
100
AcDb2dPolyline
 66
     1
 10
0.0
 20
0.0
 30
0.0
  0
VERTEX
  5
5EF
330
5EE
100
AcDbEntity
  8
GR2_01
 62
     7
100
AcDbVertex
100
AcDb2dVertex
 10
73.24273001641154
 20
93.51952851394651
 30
0.0
  0
VERTEX
  5
5F0
330
5EE
100
AcDbEntity
  8
GR2_01
 62
     7
100
AcDbVertex
100
AcDb2dVertex
 10
73.24273001641154
 20
83.01956649400206
 30
0.0
  0
SEQEND
  5
5F1
330
5EE
100
AcDbEntity
  8
GR2_01
  0
ENDBLK
  5
5ED
330
5EA
100
AcDbEntity
  8
0
100
AcDbBlockEnd
  0
BLOCK
  5
5F4
330
5F2
100
AcDbEntity
  8
0
100
AcDbBlockBegin
  2
BLOCK_225
 70
     0
 71
     0
 10
0.0
 20
0.0
 30
0.0
  3
BLOCK_225
  1

  0
POLYLINE
  5
5F6
330
5F2
100
AcDbEntity
  8
GR2_01
 62
     7
100
AcDb2dPolyline
 66
     1
 10
0.0
 20
0.0
 30
0.0
  0
VERTEX
  5
5F7
330
5F6
100
AcDbEntity
  8
GR2_01
 62
     7
100
AcDbVertex
100
AcDb2dVertex
 10
80.8627644654614
 20
93.51952851394651
 30
0.0
  0
VERTEX
  5
5F8
330
5F6
100
AcDbEntity
  8
GR2_01
 62
     7
100
AcDbVertex
100
AcDb2dVertex
 10
80.8627644654614
 20
83.01956649400206
 30
0.0
  0
SEQEND
  5
5F9
330
5F6
100
AcDbEntity
  8
GR2_01
  0
ENDBLK
  5
5F5
330
5F2
100
AcDbEntity
  8
0
100
AcDbBlockEnd
  0
BLOCK
  5
5FC
330
5FA
100
AcDbEntity
  8
0
100
AcDbBlockBegin
  2
BLOCK_226
 70
     0
 71
     0
 10
0.0
 20
0.0
 30
0.0
  3
BLOCK_226
  1

  0
POLYLINE
  5
5FE
330
5FA
100
AcDbEntity
  8
GR2_01
 62
     7
100
AcDb2dPolyline
 66
     1
 10
0.0
 20
0.0
 30
0.0
  0
VERTEX
  5
5FF
330
5FE
100
AcDbEntity
  8
GR2_01
 62
     7
100
AcDbVertex
100
AcDb2dVertex
 10
88.48279891451125
 20
93.51952851394651
 30
0.0
  0
VERTEX
  5
600
330
5FE
100
AcDbEntity
  8
GR2_01
 62
     7
100
AcDbVertex
100
AcDb2dVertex
 10
88.48279891451125
 20
83.01956649400206
 30
0.0
  0
SEQEND
  5
601
330
5FE
100
AcDbEntity
  8
GR2_01
  0
ENDBLK
  5
5FD
330
5FA
100
AcDbEntity
  8
0
100
AcDbBlockEnd
  0
BLOCK
  5
604
330
602
100
AcDbEntity
  8
0
100
AcDbBlockBegin
  2
BLOCK_227
 70
     0
 71
     0
 10
0.0
 20
0.0
 30
0.0
  3
BLOCK_227
  1

  0
POLYLINE
  5
606
330
602
100
AcDbEntity
  8
GR2_01
 62
     7
100
AcDb2dPolyline
 66
     1
 10
0.0
 20
0.0
 30
0.0
  0
VERTEX
  5
607
330
606
100
AcDbEntity
  8
GR2_01
 62
     7
100
AcDbVertex
100
AcDb2dVertex
 10
96.1028333635611
 20
93.51952851394651
 30
0.0
  0
VERTEX
  5
608
330
606
100
AcDbEntity
  8
GR2_01
 62
     7
100
AcDbVertex
100
AcDb2dVertex
 10
96.1028333635611
 20
83.01956649400206
 30
0.0
  0
SEQEND
  5
609
330
606
100
AcDbEntity
  8
GR2_01
  0
ENDBLK
  5
605
330
602
100
AcDbEntity
  8
0
100
AcDbBlockEnd
  0
BLOCK
  5
60C
330
60A
100
AcDbEntity
  8
0
100
AcDbBlockBegin
  2
BLOCK_228
 70
     0
 71
     0
 10
0.0
 20
0.0
 30
0.0
  3
BLOCK_228
  1

  0
POLYLINE
  5
60E
330
60A
100
AcDbEntity
  8
GR2_01
 62
     7
100
AcDb2dPolyline
 66
     1
 10
0.0
 20
0.0
 30
0.0
  0
VERTEX
  5
60F
330
60E
100
AcDbEntity
  8
GR2_01
 62
     7
100
AcDbVertex
100
AcDb2dVertex
 10
103.722867812611
 20
93.51952851394651
 30
0.0
  0
VERTEX
  5
610
330
60E
100
AcDbEntity
  8
GR2_01
 62
     7
100
AcDbVertex
100
AcDb2dVertex
 10
103.722867812611
 20
83.01956649400206
 30
0.0
  0
SEQEND
  5
611
330
60E
100
AcDbEntity
  8
GR2_01
  0
ENDBLK
  5
60D
330
60A
100
AcDbEntity
  8
0
100
AcDbBlockEnd
  0
BLOCK
  5
614
330
612
100
AcDbEntity
  8
0
100
AcDbBlockBegin
  2
BLOCK_229
 70
     0
 71
     0
 10
0.0
 20
0.0
 30
0.0
  3
BLOCK_229
  1

  0
POLYLINE
  5
616
330
612
100
AcDbEntity
  8
GR2_01
 62
     7
100
AcDb2dPolyline
 66
     1
 10
0.0
 20
0.0
 30
0.0
  0
VERTEX
  5
617
330
616
100
AcDbEntity
  8
GR2_01
 62
     7
100
AcDbVertex
100
AcDb2dVertex
 10
111.3427300068865
 20
93.51952851394651
 30
0.0
  0
VERTEX
  5
618
330
616
100
AcDbEntity
  8
GR2_01
 62
     7
100
AcDbVertex
100
AcDb2dVertex
 10
111.3427300068865
 20
83.01956649400206
 30
0.0
  0
SEQEND
  5
619
330
616
100
AcDbEntity
  8
GR2_01
  0
ENDBLK
  5
615
330
612
100
AcDbEntity
  8
0
100
AcDbBlockEnd
  0
BLOCK
  5
61C
330
61A
100
AcDbEntity
  8
0
100
AcDbBlockBegin
  2
BLOCK_230
 70
     0
 71
     0
 10
0.0
 20
0.0
 30
0.0
  3
BLOCK_230
  1

  0
POLYLINE
  5
61E
330
61A
100
AcDbEntity
  8
GR2_01
 62
     7
100
AcDb2dPolyline
 66
     1
 10
0.0
 20
0.0
 30
0.0
  0
VERTEX
  5
61F
330
61E
100
AcDbEntity
  8
GR2_01
 62
     7
100
AcDbVertex
100
AcDb2dVertex
 10
118.9629367107107
 20
93.51952851394651
 30
0.0
  0
VERTEX
  5
620
330
61E
100
AcDbEntity
  8
GR2_01
 62
     7
100
AcDbVertex
100
AcDb2dVertex
 10
118.9629367107107
 20
83.01956649400206
 30
0.0
  0
SEQEND
  5
621
330
61E
100
AcDbEntity
  8
GR2_01
  0
ENDBLK
  5
61D
330
61A
100
AcDbEntity
  8
0
100
AcDbBlockEnd
  0
BLOCK
  5
624
330
622
100
AcDbEntity
  8
0
100
AcDbBlockBegin
  2
BLOCK_231
 70
     0
 71
     0
 10
0.0
 20
0.0
 30
0.0
  3
BLOCK_231
  1

  0
POLYLINE
  5
626
330
622
100
AcDbEntity
  8
GR2_01
 62
     7
100
AcDb2dPolyline
 66
     1
 10
0.0
 20
0.0
 30
0.0
  0
VERTEX
  5
627
330
626
100
AcDbEntity
  8
GR2_01
 62
     7
100
AcDbVertex
100
AcDb2dVertex
 10
126.5827989049862
 20
93.51952851394651
 30
0.0
  0
VERTEX
  5
628
330
626
100
AcDbEntity
  8
GR2_01
 62
     7
100
AcDbVertex
100
AcDb2dVertex
 10
126.5827989049862
 20
83.01956649400206
 30
0.0
  0
SEQEND
  5
629
330
626
100
AcDbEntity
  8
GR2_01
  0
ENDBLK
  5
625
330
622
100
AcDbEntity
  8
0
100
AcDbBlockEnd
  0
BLOCK
  5
62C
330
62A
100
AcDbEntity
  8
0
100
AcDbBlockBegin
  2
BLOCK_232
 70
     0
 71
     0
 10
0.0
 20
0.0
 30
0.0
  3
BLOCK_232
  1

  0
POLYLINE
  5
62E
330
62A
100
AcDbEntity
  8
GR2_01
 62
     7
100
AcDb2dPolyline
 66
     1
 10
0.0
 20
0.0
 30
0.0
  0
VERTEX
  5
62F
330
62E
100
AcDbEntity
  8
GR2_01
 62
     7
100
AcDbVertex
100
AcDb2dVertex
 10
134.2026610992618
 20
93.51952851394651
 30
0.0
  0
VERTEX
  5
630
330
62E
100
AcDbEntity
  8
GR2_01
 62
     7
100
AcDbVertex
100
AcDb2dVertex
 10
134.2026610992618
 20
83.01956649400206
 30
0.0
  0
SEQEND
  5
631
330
62E
100
AcDbEntity
  8
GR2_01
  0
ENDBLK
  5
62D
330
62A
100
AcDbEntity
  8
0
100
AcDbBlockEnd
  0
BLOCK
  5
634
330
632
100
AcDbEntity
  8
0
100
AcDbBlockBegin
  2
BLOCK_233
 70
     0
 71
     0
 10
0.0
 20
0.0
 30
0.0
  3
BLOCK_233
  1

  0
POLYLINE
  5
636
330
632
100
AcDbEntity
  8
GR2_01
 62
     7
100
AcDb2dPolyline
 66
     1
 10
0.0
 20
0.0
 30
0.0
  0
VERTEX
  5
637
330
636
100
AcDbEntity
  8
GR2_01
 62
     7
100
AcDbVertex
100
AcDb2dVertex
 10
141.822867803086
 20
93.51952851394651
 30
0.0
  0
VERTEX
  5
638
330
636
100
AcDbEntity
  8
GR2_01
 62
     7
100
AcDbVertex
100
AcDb2dVertex
 10
141.822867803086
 20
83.01956649400206
 30
0.0
  0
SEQEND
  5
639
330
636
100
AcDbEntity
  8
GR2_01
  0
ENDBLK
  5
635
330
632
100
AcDbEntity
  8
0
100
AcDbBlockEnd
  0
BLOCK
  5
63C
330
63A
100
AcDbEntity
  8
0
100
AcDbBlockBegin
  2
BLOCK_234
 70
     0
 71
     0
 10
0.0
 20
0.0
 30
0.0
  3
BLOCK_234
  1

  0
POLYLINE
  5
63E
330
63A
100
AcDbEntity
  8
GR2_01
 62
     7
100
AcDb2dPolyline
 66
     1
 10
0.0
 20
0.0
 30
0.0
  0
VERTEX
  5
63F
330
63E
100
AcDbEntity
  8
GR2_01
 62
     7
100
AcDbVertex
100
AcDb2dVertex
 10
149.4427299973615
 20
93.51952851394651
 30
0.0
  0
VERTEX
  5
640
330
63E
100
AcDbEntity
  8
GR2_01
 62
     7
100
AcDbVertex
100
AcDb2dVertex
 10
149.4427299973615
 20
83.01956649400206
 30
0.0
  0
SEQEND
  5
641
330
63E
100
AcDbEntity
  8
GR2_01
  0
ENDBLK
  5
63D
330
63A
100
AcDbEntity
  8
0
100
AcDbBlockEnd
  0
BLOCK
  5
644
330
642
100
AcDbEntity
  8
0
100
AcDbBlockBegin
  2
BLOCK_235
 70
     0
 71
     0
 10
0.0
 20
0.0
 30
0.0
  3
BLOCK_235
  1

  0
POLYLINE
  5
646
330
642
100
AcDbEntity
  8
GR2_01
 62
     7
100
AcDb2dPolyline
 66
     1
 10
0.0
 20
0.0
 30
0.0
  0
VERTEX
  5
647
330
646
100
AcDbEntity
  8
GR2_01
 62
     7
100
AcDbVertex
100
AcDb2dVertex
 10
157.0629367011857
 20
93.51952851394651
 30
0.0
  0
VERTEX
  5
648
330
646
100
AcDbEntity
  8
GR2_01
 62
     7
100
AcDbVertex
100
AcDb2dVertex
 10
157.0629367011857
 20
83.01956649400206
 30
0.0
  0
SEQEND
  5
649
330
646
100
AcDbEntity
  8
GR2_01
  0
ENDBLK
  5
645
330
642
100
AcDbEntity
  8
0
100
AcDbBlockEnd
  0
BLOCK
  5
64C
330
64A
100
AcDbEntity
  8
0
100
AcDbBlockBegin
  2
BLOCK_236
 70
     0
 71
     0
 10
0.0
 20
0.0
 30
0.0
  3
BLOCK_236
  1

  0
POLYLINE
  5
64E
330
64A
100
AcDbEntity
  8
GR2_01
 62
     7
100
AcDb2dPolyline
 66
     1
 10
0.0
 20
0.0
 30
0.0
  0
VERTEX
  5
64F
330
64E
100
AcDbEntity
  8
GR2_01
 62
     7
100
AcDbVertex
100
AcDb2dVertex
 10
164.6827988954612
 20
93.51952851394651
 30
0.0
  0
VERTEX
  5
650
330
64E
100
AcDbEntity
  8
GR2_01
 62
     7
100
AcDbVertex
100
AcDb2dVertex
 10
164.6827988954612
 20
83.01956649400206
 30
0.0
  0
SEQEND
  5
651
330
64E
100
AcDbEntity
  8
GR2_01
  0
ENDBLK
  5
64D
330
64A
100
AcDbEntity
  8
0
100
AcDbBlockEnd
  0
BLOCK
  5
654
330
652
100
AcDbEntity
  8
0
100
AcDbBlockBegin
  2
BLOCK_237
 70
     0
 71
     0
 10
0.0
 20
0.0
 30
0.0
  3
BLOCK_237
  1

  0
POLYLINE
  5
656
330
652
100
AcDbEntity
  8
GR2_01
 62
     7
100
AcDb2dPolyline
 66
     1
 10
0.0
 20
0.0
 30
0.0
  0
VERTEX
  5
657
330
656
100
AcDbEntity
  8
GR2_01
 62
     7
100
AcDbVertex
100
AcDb2dVertex
 10
172.6278781035444
 20
104.019490533891
 30
0.0
  0
VERTEX
  5
658
330
656
100
AcDbEntity
  8
GR2_01
 62
     7
100
AcDbVertex
100
AcDb2dVertex
 10
172.6278781035444
 20
83.06952037853817
 30
0.0
  0
SEQEND
  5
659
330
656
100
AcDbEntity
  8
GR2_01
  0
ENDBLK
  5
655
330
652
100
AcDbEntity
  8
0
100
AcDbBlockEnd
  0
BLOCK
  5
65C
330
65A
100
AcDbEntity
  8
0
100
AcDbBlockBegin
  2
BLOCK_238
 70
     0
 71
     0
 10
0.0
 20
0.0
 30
0.0
  3
BLOCK_238
  1

  0
MTEXT
  5
65E
330
65A
100
AcDbEntity
  8
GR2_01
 62
     7
100
AcDbMText
 10
170.3503254782458
 20
94.76940915599515
 30
0.0
 40
1.136363615387703
 41
0.0
 71
     7
 72
     1
  1
\fMS Gothic|b0|i0|c0|p34;\W0.676923;８４５３６９４０
 11
-4.371139000186241E-8
 21
0.999999999999999
 31
0.0
  0
ENDBLK
  5
65D
330
65A
100
AcDbEntity
  8
0
100
AcDbBlockEnd
  0
BLOCK
  5
661
330
65F
100
AcDbEntity
  8
0
100
AcDbBlockBegin
  2
BLOCK_239
 70
     0
 71
     0
 10
0.0
 20
0.0
 30
0.0
  3
BLOCK_239
  1

  0
MTEXT
  5
663
330
65F
100
AcDbEntity
  8
GR2_01
 62
     7
100
AcDbMText
 10
41.26276990070861
 20
83.83329804761807
 30
0.0
 40
1.136363615387703
 41
0.0
 71
     7
 72
     1
  1
\fMS Gothic|b0|i0|c0|p34;\W0.676923;７５℃ ＷＩＲＥ
 11
-4.371139000186241E-8
 21
0.999999999999999
 31
0.0
  0
ENDBLK
  5
662
330
65F
100
AcDbEntity
  8
0
100
AcDbBlockEnd
  0
BLOCK
  5
666
330
664
100
AcDbEntity
  8
0
100
AcDbBlockBegin
  2
BLOCK_240
 70
     0
 71
     0
 10
0.0
 20
0.0
 30
0.0
  3
BLOCK_240
  1

  0
MTEXT
  5
668
330
664
100
AcDbEntity
  8
GR2_01
 62
     7
100
AcDbMText
 10
171.8503200525235
 20
98.75572914197774
 30
0.0
 40
1.136363615387703
 41
0.0
 71
     7
 72
     1
  1
\fMS Gothic|b0|i0|c0|p34;\W0.676923;－００１
 11
-4.371139000186241E-8
 21
0.999999999999999
 31
0.0
  0
ENDBLK
  5
667
330
664
100
AcDbEntity
  8
0
100
AcDbBlockEnd
  0
BLOCK
  5
66B
330
669
100
AcDbEntity
  8
0
100
AcDbBlockBegin
  2
BLOCK_241
 70
     0
 71
     0
 10
0.0
 20
0.0
 30
0.0
  3
BLOCK_241
  1

  0
MTEXT
  5
66D
330
669
100
AcDbEntity
  8
GR2_01
 62
     7
100
AcDbMText
 10
39.62772758340904
 20
101.296142552801
 30
0.0
 40
1.515151487183604
 41
0.0
 71
     7
 72
     1
  1
\fMS Gothic|b0|i0|c0|p34;\W0.761538;ＤＣ
  0
ENDBLK
  5
66C
330
669
100
AcDbEntity
  8
0
100
AcDbBlockEnd
  0
BLOCK
  5
670
330
66E
100
AcDbEntity
  8
0
100
AcDbBlockBegin
  2
BLOCK_242
 70
     0
 71
     0
 10
0.0
 20
0.0
 30
0.0
  3
BLOCK_242
  1

  0
MTEXT
  5
672
330
66E
100
AcDbEntity
  8
GR2_01
 62
     7
100
AcDbMText
 10
39.62772758340904
 20
98.79638126870368
 30
0.0
 40
1.515151487183604
 41
0.0
 71
     7
 72
     1
  1
\fMS Gothic|b0|i0|c0|p34;\W0.761538;２４Ｖ
  0
ENDBLK
  5
671
330
66E
100
AcDbEntity
  8
0
100
AcDbBlockEnd
  0
BLOCK
  5
675
330
673
100
AcDbEntity
  8
0
100
AcDbBlockBegin
  2
BLOCK_243
 70
     0
 71
     0
 10
0.0
 20
0.0
 30
0.0
  3
BLOCK_243
  1

  0
MTEXT
  5
677
330
673
100
AcDbEntity
  8
GR2_01
 62
     7
100
AcDbMText
 10
43.76270343958016
 20
90.79618053285651
 30
0.0
 40
1.515151487183604
 41
0.0
 71
     7
 72
     1
  1
\fMS Gothic|b0|i0|c0|p34;\W0.761538;ＤＣ
  0
ENDBLK
  5
676
330
673
100
AcDbEntity
  8
0
100
AcDbBlockEnd
  0
BLOCK
  5
67A
330
678
100
AcDbEntity
  8
0
100
AcDbBlockBegin
  2
BLOCK_244
 70
     0
 71
     0
 10
0.0
 20
0.0
 30
0.0
  3
BLOCK_244
  1

  0
MTEXT
  5
67C
330
678
100
AcDbEntity
  8
GR2_01
 62
     7
100
AcDbMText
 10
43.76270343958016
 20
88.29607473921071
 30
0.0
 40
1.515151487183604
 41
0.0
 71
     7
 72
     1
  1
\fMS Gothic|b0|i0|c0|p34;\W0.761538;０Ｖ
  0
ENDBLK
  5
67B
330
678
100
AcDbEntity
  8
0
100
AcDbBlockEnd
  0
BLOCK
  5
67F
330
67D
100
AcDbEntity
  8
0
100
AcDbBlockBegin
  2
BLOCK_245
 70
     0
 71
     0
 10
0.0
 20
0.0
 30
0.0
  3
BLOCK_245
  1

  0
MTEXT
  5
681
330
67D
100
AcDbEntity
  8
GR2_01
 62
     7
100
AcDbMText
 10
47.57280679149222
 20
101.2461886682648
 30
0.0
 40
1.515151487183604
 41
0.0
 71
     7
 72
     1
  1
\fMS Gothic|b0|i0|c0|p34;\W0.761538;Ｙ０
  0
ENDBLK
  5
680
330
67D
100
AcDbEntity
  8
0
100
AcDbBlockEnd
  0
BLOCK
  5
684
330
682
100
AcDbEntity
  8
0
100
AcDbBlockBegin
  2
BLOCK_246
 70
     0
 71
     0
 10
0.0
 20
0.0
 30
0.0
  3
BLOCK_246
  1

  0
MTEXT
  5
686
330
682
100
AcDbEntity
  8
GR2_01
 62
     7
100
AcDbMText
 10
55.19284124054207
 20
101.2461886682648
 30
0.0
 40
1.515151487183604
 41
0.0
 71
     7
 72
     1
  1
\fMS Gothic|b0|i0|c0|p34;\W0.761538;Ｙ１
  0
ENDBLK
  5
685
330
682
100
AcDbEntity
  8
0
100
AcDbBlockEnd
  0
BLOCK
  5
689
330
687
100
AcDbEntity
  8
0
100
AcDbBlockBegin
  2
BLOCK_247
 70
     0
 71
     0
 10
0.0
 20
0.0
 30
0.0
  3
BLOCK_247
  1

  0
MTEXT
  5
68B
330
687
100
AcDbEntity
  8
GR2_01
 62
     7
100
AcDbMText
 10
62.81270343481766
 20
101.2461886682648
 30
0.0
 40
1.515151487183604
 41
0.0
 71
     7
 72
     1
  1
\fMS Gothic|b0|i0|c0|p34;\W0.761538;Ｙ２
  0
ENDBLK
  5
68A
330
687
100
AcDbEntity
  8
0
100
AcDbBlockEnd
  0
BLOCK
  5
68E
330
68C
100
AcDbEntity
  8
0
100
AcDbBlockBegin
  2
BLOCK_248
 70
     0
 71
     0
 10
0.0
 20
0.0
 30
0.0
  3
BLOCK_248
  1

  0
MTEXT
  5
690
330
68C
100
AcDbEntity
  8
GR2_01
 62
     7
100
AcDbMText
 10
70.43273788386752
 20
101.2461886682648
 30
0.0
 40
1.515151487183604
 41
0.0
 71
     7
 72
     1
  1
\fMS Gothic|b0|i0|c0|p34;\W0.761538;Ｙ３
  0
ENDBLK
  5
68F
330
68C
100
AcDbEntity
  8
0
100
AcDbBlockEnd
  0
BLOCK
  5
693
330
691
100
AcDbEntity
  8
0
100
AcDbBlockBegin
  2
BLOCK_249
 70
     0
 71
     0
 10
0.0
 20
0.0
 30
0.0
  3
BLOCK_249
  1

  0
MTEXT
  5
695
330
691
100
AcDbEntity
  8
GR2_01
 62
     7
100
AcDbMText
 10
78.05277233291737
 20
101.2461886682648
 30
0.0
 40
1.515151487183604
 41
0.0
 71
     7
 72
     1
  1
\fMS Gothic|b0|i0|c0|p34;\W0.761538;Ｙ４
  0
ENDBLK
  5
694
330
691
100
AcDbEntity
  8
0
100
AcDbBlockEnd
  0
BLOCK
  5
698
330
696
100
AcDbEntity
  8
0
100
AcDbBlockBegin
  2
BLOCK_250
 70
     0
 71
     0
 10
0.0
 20
0.0
 30
0.0
  3
BLOCK_250
  1

  0
MTEXT
  5
69A
330
696
100
AcDbEntity
  8
GR2_01
 62
     7
100
AcDbMText
 10
85.67280678196722
 20
101.2461886682648
 30
0.0
 40
1.515151487183604
 41
0.0
 71
     7
 72
     1
  1
\fMS Gothic|b0|i0|c0|p34;\W0.761538;Ｙ５
  0
ENDBLK
  5
699
330
696
100
AcDbEntity
  8
0
100
AcDbBlockEnd
  0
BLOCK
  5
69D
330
69B
100
AcDbEntity
  8
0
100
AcDbBlockBegin
  2
BLOCK_251
 70
     0
 71
     0
 10
0.0
 20
0.0
 30
0.0
  3
BLOCK_251
  1

  0
MTEXT
  5
69F
330
69B
100
AcDbEntity
  8
GR2_01
 62
     7
100
AcDbMText
 10
93.29284123101708
 20
101.2461886682648
 30
0.0
 40
1.515151487183604
 41
0.0
 71
     7
 72
     1
  1
\fMS Gothic|b0|i0|c0|p34;\W0.761538;Ｙ６
  0
ENDBLK
  5
69E
330
69B
100
AcDbEntity
  8
0
100
AcDbBlockEnd
  0
BLOCK
  5
6A2
330
6A0
100
AcDbEntity
  8
0
100
AcDbBlockBegin
  2
BLOCK_252
 70
     0
 71
     0
 10
0.0
 20
0.0
 30
0.0
  3
BLOCK_252
  1

  0
MTEXT
  5
6A4
330
6A0
100
AcDbEntity
  8
GR2_01
 62
     7
100
AcDbMText
 10
100.9128756800669
 20
101.2461886682648
 30
0.0
 40
1.515151487183604
 41
0.0
 71
     7
 72
     1
  1
\fMS Gothic|b0|i0|c0|p34;\W0.761538;Ｙ７
  0
ENDBLK
  5
6A3
330
6A0
100
AcDbEntity
  8
0
100
AcDbBlockEnd
  0
BLOCK
  5
6A7
330
6A5
100
AcDbEntity
  8
0
100
AcDbBlockBegin
  2
BLOCK_253
 70
     0
 71
     0
 10
0.0
 20
0.0
 30
0.0
  3
BLOCK_253
  1

  0
MTEXT
  5
6A9
330
6A5
100
AcDbEntity
  8
GR2_01
 62
     7
100
AcDbMText
 10
108.5329101291168
 20
101.2461886682648
 30
0.0
 40
1.515151487183604
 41
0.0
 71
     7
 72
     1
  1
\fMS Gothic|b0|i0|c0|p34;\W0.761538;Ｙ８
  0
ENDBLK
  5
6A8
330
6A5
100
AcDbEntity
  8
0
100
AcDbBlockEnd
  0
BLOCK
  5
6AC
330
6AA
100
AcDbEntity
  8
0
100
AcDbBlockBegin
  2
BLOCK_254
 70
     0
 71
     0
 10
0.0
 20
0.0
 30
0.0
  3
BLOCK_254
  1

  0
MTEXT
  5
6AE
330
6AA
100
AcDbEntity
  8
GR2_01
 62
     7
100
AcDbMText
 10
116.1527723233924
 20
101.2461886682648
 30
0.0
 40
1.515151487183604
 41
0.0
 71
     7
 72
     1
  1
\fMS Gothic|b0|i0|c0|p34;\W0.761538;Ｙ９
  0
ENDBLK
  5
6AD
330
6AA
100
AcDbEntity
  8
0
100
AcDbBlockEnd
  0
BLOCK
  5
6B1
330
6AF
100
AcDbEntity
  8
0
100
AcDbBlockBegin
  2
BLOCK_255
 70
     0
 71
     0
 10
0.0
 20
0.0
 30
0.0
  3
BLOCK_255
  1

  0
MTEXT
  5
6B3
330
6AF
100
AcDbEntity
  8
GR2_01
 62
     7
100
AcDbMText
 10
123.772634517668
 20
101.2461886682648
 30
0.0
 40
1.515151487183604
 41
0.0
 71
     7
 72
     1
  1
\fMS Gothic|b0|i0|c0|p34;\W0.761538;ＹＡ
  0
ENDBLK
  5
6B2
330
6AF
100
AcDbEntity
  8
0
100
AcDbBlockEnd
  0
BLOCK
  5
6B6
330
6B4
100
AcDbEntity
  8
0
100
AcDbBlockBegin
  2
BLOCK_256
 70
     0
 71
     0
 10
0.0
 20
0.0
 30
0.0
  3
BLOCK_256
  1

  0
MTEXT
  5
6B8
330
6B4
100
AcDbEntity
  8
GR2_01
 62
     7
100
AcDbMText
 10
131.3928412214921
 20
101.2461886682648
 30
0.0
 40
1.515151487183604
 41
0.0
 71
     7
 72
     1
  1
\fMS Gothic|b0|i0|c0|p34;\W0.761538;ＹＢ
  0
ENDBLK
  5
6B7
330
6B4
100
AcDbEntity
  8
0
100
AcDbBlockEnd
  0
BLOCK
  5
6BB
330
6B9
100
AcDbEntity
  8
0
100
AcDbBlockBegin
  2
BLOCK_257
 70
     0
 71
     0
 10
0.0
 20
0.0
 30
0.0
  3
BLOCK_257
  1

  0
MTEXT
  5
6BD
330
6B9
100
AcDbEntity
  8
GR2_01
 62
     7
100
AcDbMText
 10
139.0130479253162
 20
101.2461886682648
 30
0.0
 40
1.515151487183604
 41
0.0
 71
     7
 72
     1
  1
\fMS Gothic|b0|i0|c0|p34;\W0.761538;ＹＣ
  0
ENDBLK
  5
6BC
330
6B9
100
AcDbEntity
  8
0
100
AcDbBlockEnd
  0
BLOCK
  5
6C0
330
6BE
100
AcDbEntity
  8
0
100
AcDbBlockBegin
  2
BLOCK_258
 70
     0
 71
     0
 10
0.0
 20
0.0
 30
0.0
  3
BLOCK_258
  1

  0
MTEXT
  5
6C2
330
6BE
100
AcDbEntity
  8
GR2_01
 62
     7
100
AcDbMText
 10
146.6329101195918
 20
101.2461886682648
 30
0.0
 40
1.515151487183604
 41
0.0
 71
     7
 72
     1
  1
\fMS Gothic|b0|i0|c0|p34;\W0.761538;ＹＤ
  0
ENDBLK
  5
6C1
330
6BE
100
AcDbEntity
  8
0
100
AcDbBlockEnd
  0
BLOCK
  5
6C5
330
6C3
100
AcDbEntity
  8
0
100
AcDbBlockBegin
  2
BLOCK_259
 70
     0
 71
     0
 10
0.0
 20
0.0
 30
0.0
  3
BLOCK_259
  1

  0
MTEXT
  5
6C7
330
6C3
100
AcDbEntity
  8
GR2_01
 62
     7
100
AcDbMText
 10
154.2527723138674
 20
101.2461886682648
 30
0.0
 40
1.515151487183604
 41
0.0
 71
     7
 72
     1
  1
\fMS Gothic|b0|i0|c0|p34;\W0.761538;ＹＥ
  0
ENDBLK
  5
6C6
330
6C3
100
AcDbEntity
  8
0
100
AcDbBlockEnd
  0
BLOCK
  5
6CA
330
6C8
100
AcDbEntity
  8
0
100
AcDbBlockBegin
  2
BLOCK_260
 70
     0
 71
     0
 10
0.0
 20
0.0
 30
0.0
  3
BLOCK_260
  1

  0
MTEXT
  5
6CC
330
6C8
100
AcDbEntity
  8
GR2_01
 62
     7
100
AcDbMText
 10
161.872634508143
 20
101.2461886682648
 30
0.0
 40
1.515151487183604
 41
0.0
 71
     7
 72
     1
  1
\fMS Gothic|b0|i0|c0|p34;\W0.761538;ＹＦ
  0
ENDBLK
  5
6CB
330
6C8
100
AcDbEntity
  8
0
100
AcDbBlockEnd
  0
BLOCK
  5
6CF
330
6CD
100
AcDbEntity
  8
0
100
AcDbBlockBegin
  2
BLOCK_261
 70
     0
 71
     0
 10
0.0
 20
0.0
 30
0.0
  3
BLOCK_261
  1

  0
MTEXT
  5
6D1
330
6CD
100
AcDbEntity
  8
GR2_01
 62
     7
100
AcDbMText
 10
59.00277233767986
 20
90.79618053285651
 30
0.0
 40
1.515151487183604
 41
0.0
 71
     7
 72
     1
  1
\fMS Gothic|b0|i0|c0|p34;\W0.761538;ＣＯＭ
  0
ENDBLK
  5
6D0
330
6CD
100
AcDbEntity
  8
0
100
AcDbBlockEnd
  0
BLOCK
  5
6D4
330
6D2
100
AcDbEntity
  8
0
100
AcDbBlockBegin
  2
BLOCK_262
 70
     0
 71
     0
 10
0.0
 20
0.0
 30
0.0
  3
BLOCK_262
  1

  0
MTEXT
  5
6D6
330
6D2
100
AcDbEntity
  8
GR2_01
 62
     7
100
AcDbMText
 10
59.00277233767986
 20
88.29607473921071
 30
0.0
 40
1.515151487183604
 41
0.0
 71
     7
 72
     1
  1
\fMS Gothic|b0|i0|c0|p34;\W0.761538;　１
  0
ENDBLK
  5
6D5
330
6D2
100
AcDbEntity
  8
0
100
AcDbBlockEnd
  0
BLOCK
  5
6D9
330
6D7
100
AcDbEntity
  8
0
100
AcDbBlockBegin
  2
BLOCK_263
 70
     0
 71
     0
 10
0.0
 20
0.0
 30
0.0
  3
BLOCK_263
  1

  0
MTEXT
  5
6DB
330
6D7
100
AcDbEntity
  8
GR2_01
 62
     7
100
AcDbMText
 10
66.62280678672971
 20
90.79618053285651
 30
0.0
 40
1.515151487183604
 41
0.0
 71
     7
 72
     1
  1
\fMS Gothic|b0|i0|c0|p34;\W0.761538;ＣＯＭ
  0
ENDBLK
  5
6DA
330
6D7
100
AcDbEntity
  8
0
100
AcDbBlockEnd
  0
BLOCK
  5
6DE
330
6DC
100
AcDbEntity
  8
0
100
AcDbBlockBegin
  2
BLOCK_264
 70
     0
 71
     0
 10
0.0
 20
0.0
 30
0.0
  3
BLOCK_264
  1

  0
MTEXT
  5
6E0
330
6DC
100
AcDbEntity
  8
GR2_01
 62
     7
100
AcDbMText
 10
66.62280678672971
 20
88.29607473921071
 30
0.0
 40
1.515151487183604
 41
0.0
 71
     7
 72
     1
  1
\fMS Gothic|b0|i0|c0|p34;\W0.761538;　２
  0
ENDBLK
  5
6DF
330
6DC
100
AcDbEntity
  8
0
100
AcDbBlockEnd
  0
BLOCK
  5
6E3
330
6E1
100
AcDbEntity
  8
0
100
AcDbBlockBegin
  2
BLOCK_265
 70
     0
 71
     0
 10
0.0
 20
0.0
 30
0.0
  3
BLOCK_265
  1

  0
MTEXT
  5
6E5
330
6E1
100
AcDbEntity
  8
GR2_01
 62
     7
100
AcDbMText
 10
74.24284123577957
 20
90.79618053285651
 30
0.0
 40
1.515151487183604
 41
0.0
 71
     7
 72
     1
  1
\fMS Gothic|b0|i0|c0|p34;\W0.761538;ＣＯＭ
  0
ENDBLK
  5
6E4
330
6E1
100
AcDbEntity
  8
0
100
AcDbBlockEnd
  0
BLOCK
  5
6E8
330
6E6
100
AcDbEntity
  8
0
100
AcDbBlockBegin
  2
BLOCK_266
 70
     0
 71
     0
 10
0.0
 20
0.0
 30
0.0
  3
BLOCK_266
  1

  0
MTEXT
  5
6EA
330
6E6
100
AcDbEntity
  8
GR2_01
 62
     7
100
AcDbMText
 10
74.24284123577957
 20
88.29607473921071
 30
0.0
 40
1.515151487183604
 41
0.0
 71
     7
 72
     1
  1
\fMS Gothic|b0|i0|c0|p34;\W0.761538;　３
  0
ENDBLK
  5
6E9
330
6E6
100
AcDbEntity
  8
0
100
AcDbBlockEnd
  0
BLOCK
  5
6ED
330
6EB
100
AcDbEntity
  8
0
100
AcDbBlockBegin
  2
BLOCK_267
 70
     0
 71
     0
 10
0.0
 20
0.0
 30
0.0
  3
BLOCK_267
  1

  0
MTEXT
  5
6EF
330
6EB
100
AcDbEntity
  8
GR2_01
 62
     7
100
AcDbMText
 10
81.86270343005516
 20
90.79618053285651
 30
0.0
 40
1.515151487183604
 41
0.0
 71
     7
 72
     1
  1
\fMS Gothic|b0|i0|c0|p34;\W0.761538;ＣＯＭ
  0
ENDBLK
  5
6EE
330
6EB
100
AcDbEntity
  8
0
100
AcDbBlockEnd
  0
BLOCK
  5
6F2
330
6F0
100
AcDbEntity
  8
0
100
AcDbBlockBegin
  2
BLOCK_268
 70
     0
 71
     0
 10
0.0
 20
0.0
 30
0.0
  3
BLOCK_268
  1

  0
MTEXT
  5
6F4
330
6F0
100
AcDbEntity
  8
GR2_01
 62
     7
100
AcDbMText
 10
81.86270343005516
 20
88.29607473921071
 30
0.0
 40
1.515151487183604
 41
0.0
 71
     7
 72
     1
  1
\fMS Gothic|b0|i0|c0|p34;\W0.761538;　４
  0
ENDBLK
  5
6F3
330
6F0
100
AcDbEntity
  8
0
100
AcDbBlockEnd
  0
BLOCK
  5
6F7
330
6F5
100
AcDbEntity
  8
0
100
AcDbBlockBegin
  2
BLOCK_269
 70
     0
 71
     0
 10
0.0
 20
0.0
 30
0.0
  3
BLOCK_269
  1

  0
MTEXT
  5
6F9
330
6F5
100
AcDbEntity
  8
GR2_01
 62
     7
100
AcDbMText
 10
89.48273787910502
 20
90.79618053285651
 30
0.0
 40
1.515151487183604
 41
0.0
 71
     7
 72
     1
  1
\fMS Gothic|b0|i0|c0|p34;\W0.761538;ＣＯＭ
  0
ENDBLK
  5
6F8
330
6F5
100
AcDbEntity
  8
0
100
AcDbBlockEnd
  0
BLOCK
  5
6FC
330
6FA
100
AcDbEntity
  8
0
100
AcDbBlockBegin
  2
BLOCK_270
 70
     0
 71
     0
 10
0.0
 20
0.0
 30
0.0
  3
BLOCK_270
  1

  0
MTEXT
  5
6FE
330
6FA
100
AcDbEntity
  8
GR2_01
 62
     7
100
AcDbMText
 10
89.48273787910502
 20
88.29607473921071
 30
0.0
 40
1.515151487183604
 41
0.0
 71
     7
 72
     1
  1
\fMS Gothic|b0|i0|c0|p34;\W0.761538;　５
  0
ENDBLK
  5
6FD
330
6FA
100
AcDbEntity
  8
0
100
AcDbBlockEnd
  0
BLOCK
  5
701
330
6FF
100
AcDbEntity
  8
0
100
AcDbBlockBegin
  2
BLOCK_271
 70
     0
 71
     0
 10
0.0
 20
0.0
 30
0.0
  3
BLOCK_271
  1

  0
MTEXT
  5
703
330
6FF
100
AcDbEntity
  8
GR2_01
 62
     7
100
AcDbMText
 10
97.10277232815487
 20
90.79618053285651
 30
0.0
 40
1.515151487183604
 41
0.0
 71
     7
 72
     1
  1
\fMS Gothic|b0|i0|c0|p34;\W0.761538;ＣＯＭ
  0
ENDBLK
  5
702
330
6FF
100
AcDbEntity
  8
0
100
AcDbBlockEnd
  0
BLOCK
  5
706
330
704
100
AcDbEntity
  8
0
100
AcDbBlockBegin
  2
BLOCK_272
 70
     0
 71
     0
 10
0.0
 20
0.0
 30
0.0
  3
BLOCK_272
  1

  0
MTEXT
  5
708
330
704
100
AcDbEntity
  8
GR2_01
 62
     7
100
AcDbMText
 10
97.10277232815487
 20
88.29607473921071
 30
0.0
 40
1.515151487183604
 41
0.0
 71
     7
 72
     1
  1
\fMS Gothic|b0|i0|c0|p34;\W0.761538;　６
  0
ENDBLK
  5
707
330
704
100
AcDbEntity
  8
0
100
AcDbBlockEnd
  0
BLOCK
  5
70B
330
709
100
AcDbEntity
  8
0
100
AcDbBlockBegin
  2
BLOCK_273
 70
     0
 71
     0
 10
0.0
 20
0.0
 30
0.0
  3
BLOCK_273
  1

  0
MTEXT
  5
70D
330
709
100
AcDbEntity
  8
GR2_01
 62
     7
100
AcDbMText
 10
104.7228067772047
 20
90.79618053285651
 30
0.0
 40
1.515151487183604
 41
0.0
 71
     7
 72
     1
  1
\fMS Gothic|b0|i0|c0|p34;\W0.761538;ＣＯＭ
  0
ENDBLK
  5
70C
330
709
100
AcDbEntity
  8
0
100
AcDbBlockEnd
  0
BLOCK
  5
710
330
70E
100
AcDbEntity
  8
0
100
AcDbBlockBegin
  2
BLOCK_274
 70
     0
 71
     0
 10
0.0
 20
0.0
 30
0.0
  3
BLOCK_274
  1

  0
MTEXT
  5
712
330
70E
100
AcDbEntity
  8
GR2_01
 62
     7
100
AcDbMText
 10
104.7228067772047
 20
88.29607473921071
 30
0.0
 40
1.515151487183604
 41
0.0
 71
     7
 72
     1
  1
\fMS Gothic|b0|i0|c0|p34;\W0.761538;　７
  0
ENDBLK
  5
711
330
70E
100
AcDbEntity
  8
0
100
AcDbBlockEnd
  0
BLOCK
  5
715
330
713
100
AcDbEntity
  8
0
100
AcDbBlockBegin
  2
BLOCK_275
 70
     0
 71
     0
 10
0.0
 20
0.0
 30
0.0
  3
BLOCK_275
  1

  0
MTEXT
  5
717
330
713
100
AcDbEntity
  8
GR2_01
 62
     7
100
AcDbMText
 10
112.3428412262546
 20
90.79618053285651
 30
0.0
 40
1.515151487183604
 41
0.0
 71
     7
 72
     1
  1
\fMS Gothic|b0|i0|c0|p34;\W0.761538;ＣＯＭ
  0
ENDBLK
  5
716
330
713
100
AcDbEntity
  8
0
100
AcDbBlockEnd
  0
BLOCK
  5
71A
330
718
100
AcDbEntity
  8
0
100
AcDbBlockBegin
  2
BLOCK_276
 70
     0
 71
     0
 10
0.0
 20
0.0
 30
0.0
  3
BLOCK_276
  1

  0
MTEXT
  5
71C
330
718
100
AcDbEntity
  8
GR2_01
 62
     7
100
AcDbMText
 10
112.3428412262546
 20
88.29607473921071
 30
0.0
 40
1.515151487183604
 41
0.0
 71
     7
 72
     1
  1
\fMS Gothic|b0|i0|c0|p34;\W0.761538;　８
  0
ENDBLK
  5
71B
330
718
100
AcDbEntity
  8
0
100
AcDbBlockEnd
  0
BLOCK
  5
71F
330
71D
100
AcDbEntity
  8
0
100
AcDbBlockBegin
  2
BLOCK_277
 70
     0
 71
     0
 10
0.0
 20
0.0
 30
0.0
  3
BLOCK_277
  1

  0
MTEXT
  5
721
330
71D
100
AcDbEntity
  8
GR2_01
 62
     7
100
AcDbMText
 10
119.9630479300787
 20
90.79618053285651
 30
0.0
 40
1.515151487183604
 41
0.0
 71
     7
 72
     1
  1
\fMS Gothic|b0|i0|c0|p34;\W0.761538;ＣＯＭ
  0
ENDBLK
  5
720
330
71D
100
AcDbEntity
  8
0
100
AcDbBlockEnd
  0
BLOCK
  5
724
330
722
100
AcDbEntity
  8
0
100
AcDbBlockBegin
  2
BLOCK_278
 70
     0
 71
     0
 10
0.0
 20
0.0
 30
0.0
  3
BLOCK_278
  1

  0
MTEXT
  5
726
330
722
100
AcDbEntity
  8
GR2_01
 62
     7
100
AcDbMText
 10
119.9630479300787
 20
88.29607473921071
 30
0.0
 40
1.515151487183604
 41
0.0
 71
     7
 72
     1
  1
\fMS Gothic|b0|i0|c0|p34;\W0.761538;　９
  0
ENDBLK
  5
725
330
722
100
AcDbEntity
  8
0
100
AcDbBlockEnd
  0
BLOCK
  5
729
330
727
100
AcDbEntity
  8
0
100
AcDbBlockBegin
  2
BLOCK_279
 70
     0
 71
     0
 10
0.0
 20
0.0
 30
0.0
  3
BLOCK_279
  1

  0
MTEXT
  5
72B
330
727
100
AcDbEntity
  8
GR2_01
 62
     7
100
AcDbMText
 10
127.5829101243543
 20
90.79618053285651
 30
0.0
 40
1.515151487183604
 41
0.0
 71
     7
 72
     1
  1
\fMS Gothic|b0|i0|c0|p34;\W0.761538;ＣＯＭ
  0
ENDBLK
  5
72A
330
727
100
AcDbEntity
  8
0
100
AcDbBlockEnd
  0
BLOCK
  5
72E
330
72C
100
AcDbEntity
  8
0
100
AcDbBlockBegin
  2
BLOCK_280
 70
     0
 71
     0
 10
0.0
 20
0.0
 30
0.0
  3
BLOCK_280
  1

  0
MTEXT
  5
730
330
72C
100
AcDbEntity
  8
GR2_01
 62
     7
100
AcDbMText
 10
127.5829101243543
 20
88.29607473921071
 30
0.0
 40
1.515151487183604
 41
0.0
 71
     7
 72
     1
  1
\fMS Gothic|b0|i0|c0|p34;\W0.761538;　Ａ
  0
ENDBLK
  5
72F
330
72C
100
AcDbEntity
  8
0
100
AcDbBlockEnd
  0
BLOCK
  5
733
330
731
100
AcDbEntity
  8
0
100
AcDbBlockBegin
  2
BLOCK_281
 70
     0
 71
     0
 10
0.0
 20
0.0
 30
0.0
  3
BLOCK_281
  1

  0
MTEXT
  5
735
330
731
100
AcDbEntity
  8
GR2_01
 62
     7
100
AcDbMText
 10
135.2027723186299
 20
90.79618053285651
 30
0.0
 40
1.515151487183604
 41
0.0
 71
     7
 72
     1
  1
\fMS Gothic|b0|i0|c0|p34;\W0.761538;ＣＯＭ
  0
ENDBLK
  5
734
330
731
100
AcDbEntity
  8
0
100
AcDbBlockEnd
  0
BLOCK
  5
738
330
736
100
AcDbEntity
  8
0
100
AcDbBlockBegin
  2
BLOCK_282
 70
     0
 71
     0
 10
0.0
 20
0.0
 30
0.0
  3
BLOCK_282
  1

  0
MTEXT
  5
73A
330
736
100
AcDbEntity
  8
GR2_01
 62
     7
100
AcDbMText
 10
135.2027723186299
 20
88.29607473921071
 30
0.0
 40
1.515151487183604
 41
0.0
 71
     7
 72
     1
  1
\fMS Gothic|b0|i0|c0|p34;\W0.761538;　Ｂ
  0
ENDBLK
  5
739
330
736
100
AcDbEntity
  8
0
100
AcDbBlockEnd
  0
BLOCK
  5
73D
330
73B
100
AcDbEntity
  8
0
100
AcDbBlockBegin
  2
BLOCK_283
 70
     0
 71
     0
 10
0.0
 20
0.0
 30
0.0
  3
BLOCK_283
  1

  0
MTEXT
  5
73F
330
73B
100
AcDbEntity
  8
GR2_01
 62
     7
100
AcDbMText
 10
142.8226345129055
 20
90.79618053285651
 30
0.0
 40
1.515151487183604
 41
0.0
 71
     7
 72
     1
  1
\fMS Gothic|b0|i0|c0|p34;\W0.761538;ＣＯＭ
  0
ENDBLK
  5
73E
330
73B
100
AcDbEntity
  8
0
100
AcDbBlockEnd
  0
BLOCK
  5
742
330
740
100
AcDbEntity
  8
0
100
AcDbBlockBegin
  2
BLOCK_284
 70
     0
 71
     0
 10
0.0
 20
0.0
 30
0.0
  3
BLOCK_284
  1

  0
MTEXT
  5
744
330
740
100
AcDbEntity
  8
GR2_01
 62
     7
100
AcDbMText
 10
142.8226345129055
 20
88.29607473921071
 30
0.0
 40
1.515151487183604
 41
0.0
 71
     7
 72
     1
  1
\fMS Gothic|b0|i0|c0|p34;\W0.761538;　Ｃ
  0
ENDBLK
  5
743
330
740
100
AcDbEntity
  8
0
100
AcDbBlockEnd
  0
BLOCK
  5
747
330
745
100
AcDbEntity
  8
0
100
AcDbBlockBegin
  2
BLOCK_285
 70
     0
 71
     0
 10
0.0
 20
0.0
 30
0.0
  3
BLOCK_285
  1

  0
MTEXT
  5
749
330
745
100
AcDbEntity
  8
GR2_01
 62
     7
100
AcDbMText
 10
150.4428412167296
 20
90.79618053285651
 30
0.0
 40
1.515151487183604
 41
0.0
 71
     7
 72
     1
  1
\fMS Gothic|b0|i0|c0|p34;\W0.761538;ＣＯＭ
  0
ENDBLK
  5
748
330
745
100
AcDbEntity
  8
0
100
AcDbBlockEnd
  0
BLOCK
  5
74C
330
74A
100
AcDbEntity
  8
0
100
AcDbBlockBegin
  2
BLOCK_286
 70
     0
 71
     0
 10
0.0
 20
0.0
 30
0.0
  3
BLOCK_286
  1

  0
MTEXT
  5
74E
330
74A
100
AcDbEntity
  8
GR2_01
 62
     7
100
AcDbMText
 10
150.4428412167296
 20
88.29607473921071
 30
0.0
 40
1.515151487183604
 41
0.0
 71
     7
 72
     1
  1
\fMS Gothic|b0|i0|c0|p34;\W0.761538;　Ｄ
  0
ENDBLK
  5
74D
330
74A
100
AcDbEntity
  8
0
100
AcDbBlockEnd
  0
BLOCK
  5
751
330
74F
100
AcDbEntity
  8
0
100
AcDbBlockBegin
  2
BLOCK_287
 70
     0
 71
     0
 10
0.0
 20
0.0
 30
0.0
  3
BLOCK_287
  1

  0
MTEXT
  5
753
330
74F
100
AcDbEntity
  8
GR2_01
 62
     7
100
AcDbMText
 10
158.0630479205537
 20
90.79618053285651
 30
0.0
 40
1.515151487183604
 41
0.0
 71
     7
 72
     1
  1
\fMS Gothic|b0|i0|c0|p34;\W0.761538;ＣＯＭ
  0
ENDBLK
  5
752
330
74F
100
AcDbEntity
  8
0
100
AcDbBlockEnd
  0
BLOCK
  5
756
330
754
100
AcDbEntity
  8
0
100
AcDbBlockBegin
  2
BLOCK_288
 70
     0
 71
     0
 10
0.0
 20
0.0
 30
0.0
  3
BLOCK_288
  1

  0
MTEXT
  5
758
330
754
100
AcDbEntity
  8
GR2_01
 62
     7
100
AcDbMText
 10
158.0630479205537
 20
88.29607473921071
 30
0.0
 40
1.515151487183604
 41
0.0
 71
     7
 72
     1
  1
\fMS Gothic|b0|i0|c0|p34;\W0.761538;　Ｅ
  0
ENDBLK
  5
757
330
754
100
AcDbEntity
  8
0
100
AcDbBlockEnd
  0
BLOCK
  5
75B
330
759
100
AcDbEntity
  8
0
100
AcDbBlockBegin
  2
BLOCK_289
 70
     0
 71
     0
 10
0.0
 20
0.0
 30
0.0
  3
BLOCK_289
  1

  0
MTEXT
  5
75D
330
759
100
AcDbEntity
  8
GR2_01
 62
     7
100
AcDbMText
 10
165.6829101148293
 20
90.79618053285651
 30
0.0
 40
1.515151487183604
 41
0.0
 71
     7
 72
     1
  1
\fMS Gothic|b0|i0|c0|p34;\W0.761538;ＣＯＭ
  0
ENDBLK
  5
75C
330
759
100
AcDbEntity
  8
0
100
AcDbBlockEnd
  0
BLOCK
  5
760
330
75E
100
AcDbEntity
  8
0
100
AcDbBlockBegin
  2
BLOCK_290
 70
     0
 71
     0
 10
0.0
 20
0.0
 30
0.0
  3
BLOCK_290
  1

  0
MTEXT
  5
762
330
75E
100
AcDbEntity
  8
GR2_01
 62
     7
100
AcDbMText
 10
165.6829101148293
 20
88.29607473921071
 30
0.0
 40
1.515151487183604
 41
0.0
 71
     7
 72
     1
  1
\fMS Gothic|b0|i0|c0|p34;\W0.761538;　Ｆ
  0
ENDBLK
  5
761
330
75E
100
AcDbEntity
  8
0
100
AcDbBlockEnd
  0
BLOCK
  5
765
330
763
100
AcDbEntity
  8
0
100
AcDbBlockBegin
  2
BLOCK_291
 70
     0
 71
     0
 10
0.0
 20
0.0
 30
0.0
  3
BLOCK_291
  1

  0
MTEXT
  5
767
330
763
100
AcDbEntity
  8
GR2_01
 62
     7
100
AcDbMText
 10
51.38273788863001
 20
90.79618053285651
 30
0.0
 40
1.515151487183604
 41
0.0
 71
     7
 72
     1
  1
\fMS Gothic|b0|i0|c0|p34;\W0.761538;ＣＯＭ
  0
ENDBLK
  5
766
330
763
100
AcDbEntity
  8
0
100
AcDbBlockEnd
  0
BLOCK
  5
76A
330
768
100
AcDbEntity
  8
0
100
AcDbBlockBegin
  2
BLOCK_292
 70
     0
 71
     0
 10
0.0
 20
0.0
 30
0.0
  3
BLOCK_292
  1

  0
MTEXT
  5
76C
330
768
100
AcDbEntity
  8
GR2_01
 62
     7
100
AcDbMText
 10
51.38273788863001
 20
88.29607473921071
 30
0.0
 40
1.515151487183604
 41
0.0
 71
     7
 72
     1
  1
\fMS Gothic|b0|i0|c0|p34;\W0.761538;　０
  0
ENDBLK
  5
76B
330
768
100
AcDbEntity
  8
0
100
AcDbBlockEnd
  0
BLOCK
  5
76F
330
76D
100
AcDbEntity
  8
0
100
AcDbBlockBegin
  2
BLOCK_293
 70
     0
 71
     0
 10
0.0
 20
0.0
 30
0.0
  3
BLOCK_293
  1

  0
POLYLINE
  5
771
330
76D
100
AcDbEntity
  8
GR2_01
 62
     7
100
AcDb2dPolyline
 66
     1
 10
0.0
 20
0.0
 30
0.0
  0
VERTEX
  5
772
330
771
100
AcDbEntity
  8
GR2_01
 62
     7
100
AcDbVertex
100
AcDb2dVertex
 10
38.62778861881527
 20
104.019490533891
 30
0.0
  0
VERTEX
  5
773
330
771
100
AcDbEntity
  8
GR2_01
 62
     7
100
AcDbVertex
100
AcDb2dVertex
 10
38.62778861881527
 20
83.01956649400206
 30
0.0
  0
SEQEND
  5
774
330
771
100
AcDbEntity
  8
GR2_01
  0
ENDBLK
  5
770
330
76D
100
AcDbEntity
  8
0
100
AcDbBlockEnd
  0
BLOCK
  5
777
330
775
100
AcDbEntity
  8
0
100
AcDbBlockBegin
  2
BLOCK_294
 70
     0
 71
     0
 10
0.0
 20
0.0
 30
0.0
  3
BLOCK_294
  1

  0
POLYLINE
  5
779
330
775
100
AcDbEntity
  8
GR2_01
 62
     7
100
AcDb2dPolyline
 66
     1
 10
0.0
 20
0.0
 30
0.0
  0
VERTEX
  5
77A
330
779
100
AcDbEntity
  8
GR2_01
 62
     7
100
AcDbVertex
100
AcDb2dVertex
 10
172.6278781035444
 20
125.0194145737799
 30
0.0
  0
VERTEX
  5
77B
330
779
100
AcDbEntity
  8
GR2_01
 62
     7
100
AcDbVertex
100
AcDb2dVertex
 10
38.62778861881527
 20
125.0194145737799
 30
0.0
  0
SEQEND
  5
77C
330
779
100
AcDbEntity
  8
GR2_01
  0
ENDBLK
  5
778
330
775
100
AcDbEntity
  8
0
100
AcDbBlockEnd
  0
BLOCK
  5
77F
330
77D
100
AcDbEntity
  8
0
100
AcDbBlockBegin
  2
BLOCK_295
 70
     0
 71
     0
 10
0.0
 20
0.0
 30
0.0
  3
BLOCK_295
  1

  0
POLYLINE
  5
781
330
77D
100
AcDbEntity
  8
GR2_01
 62
     7
100
AcDb2dPolyline
 66
     1
 10
0.0
 20
0.0
 30
0.0
  0
VERTEX
  5
782
330
781
100
AcDbEntity
  8
GR2_01
 62
     7
100
AcDbVertex
100
AcDb2dVertex
 10
170.3978677959422
 20
125.0194145737799
 30
0.0
  0
VERTEX
  5
783
330
781
100
AcDbEntity
  8
GR2_01
 62
     7
100
AcDbVertex
100
AcDb2dVertex
 10
170.3978677959422
 20
104.019490533891
 30
0.0
  0
SEQEND
  5
784
330
781
100
AcDbEntity
  8
GR2_01
  0
ENDBLK
  5
780
330
77D
100
AcDbEntity
  8
0
100
AcDbBlockEnd
  0
BLOCK
  5
787
330
785
100
AcDbEntity
  8
0
100
AcDbBlockBegin
  2
BLOCK_296
 70
     0
 71
     0
 10
0.0
 20
0.0
 30
0.0
  3
BLOCK_296
  1

  0
POLYLINE
  5
789
330
785
100
AcDbEntity
  8
GR2_01
 62
     7
100
AcDb2dPolyline
 66
     1
 10
0.0
 20
0.0
 30
0.0
  0
VERTEX
  5
78A
330
789
100
AcDbEntity
  8
GR2_01
 62
     7
100
AcDbVertex
100
AcDb2dVertex
 10
162.7776610921181
 20
125.0194145737799
 30
0.0
  0
VERTEX
  5
78B
330
789
100
AcDbEntity
  8
GR2_01
 62
     7
100
AcDbVertex
100
AcDb2dVertex
 10
162.7776610921181
 20
104.019490533891
 30
0.0
  0
SEQEND
  5
78C
330
789
100
AcDbEntity
  8
GR2_01
  0
ENDBLK
  5
788
330
785
100
AcDbEntity
  8
0
100
AcDbBlockEnd
  0
BLOCK
  5
78F
330
78D
100
AcDbEntity
  8
0
100
AcDbBlockBegin
  2
BLOCK_297
 70
     0
 71
     0
 10
0.0
 20
0.0
 30
0.0
  3
BLOCK_297
  1

  0
POLYLINE
  5
791
330
78D
100
AcDbEntity
  8
GR2_01
 62
     7
100
AcDb2dPolyline
 66
     1
 10
0.0
 20
0.0
 30
0.0
  0
VERTEX
  5
792
330
791
100
AcDbEntity
  8
GR2_01
 62
     7
100
AcDbVertex
100
AcDb2dVertex
 10
155.1577988978425
 20
125.0194145737799
 30
0.0
  0
VERTEX
  5
793
330
791
100
AcDbEntity
  8
GR2_01
 62
     7
100
AcDbVertex
100
AcDb2dVertex
 10
155.1577988978425
 20
104.019490533891
 30
0.0
  0
SEQEND
  5
794
330
791
100
AcDbEntity
  8
GR2_01
  0
ENDBLK
  5
790
330
78D
100
AcDbEntity
  8
0
100
AcDbBlockEnd
  0
BLOCK
  5
797
330
795
100
AcDbEntity
  8
0
100
AcDbBlockBegin
  2
BLOCK_298
 70
     0
 71
     0
 10
0.0
 20
0.0
 30
0.0
  3
BLOCK_298
  1

  0
POLYLINE
  5
799
330
795
100
AcDbEntity
  8
GR2_01
 62
     7
100
AcDb2dPolyline
 66
     1
 10
0.0
 20
0.0
 30
0.0
  0
VERTEX
  5
79A
330
799
100
AcDbEntity
  8
GR2_01
 62
     7
100
AcDbVertex
100
AcDb2dVertex
 10
147.5379367035669
 20
125.0194145737799
 30
0.0
  0
VERTEX
  5
79B
330
799
100
AcDbEntity
  8
GR2_01
 62
     7
100
AcDbVertex
100
AcDb2dVertex
 10
147.5379367035669
 20
104.019490533891
 30
0.0
  0
SEQEND
  5
79C
330
799
100
AcDbEntity
  8
GR2_01
  0
ENDBLK
  5
798
330
795
100
AcDbEntity
  8
0
100
AcDbBlockEnd
  0
BLOCK
  5
79F
330
79D
100
AcDbEntity
  8
0
100
AcDbBlockBegin
  2
BLOCK_299
 70
     0
 71
     0
 10
0.0
 20
0.0
 30
0.0
  3
BLOCK_299
  1

  0
POLYLINE
  5
7A1
330
79D
100
AcDbEntity
  8
GR2_01
 62
     7
100
AcDb2dPolyline
 66
     1
 10
0.0
 20
0.0
 30
0.0
  0
VERTEX
  5
7A2
330
7A1
100
AcDbEntity
  8
GR2_01
 62
     7
100
AcDbVertex
100
AcDb2dVertex
 10
139.9177299997428
 20
125.0194145737799
 30
0.0
  0
VERTEX
  5
7A3
330
7A1
100
AcDbEntity
  8
GR2_01
 62
     7
100
AcDbVertex
100
AcDb2dVertex
 10
139.9177299997428
 20
104.019490533891
 30
0.0
  0
SEQEND
  5
7A4
330
7A1
100
AcDbEntity
  8
GR2_01
  0
ENDBLK
  5
7A0
330
79D
100
AcDbEntity
  8
0
100
AcDbBlockEnd
  0
BLOCK
  5
7A7
330
7A5
100
AcDbEntity
  8
0
100
AcDbBlockBegin
  2
BLOCK_300
 70
     0
 71
     0
 10
0.0
 20
0.0
 30
0.0
  3
BLOCK_300
  1

  0
POLYLINE
  5
7A9
330
7A5
100
AcDbEntity
  8
GR2_01
 62
     7
100
AcDb2dPolyline
 66
     1
 10
0.0
 20
0.0
 30
0.0
  0
VERTEX
  5
7AA
330
7A9
100
AcDbEntity
  8
GR2_01
 62
     7
100
AcDbVertex
100
AcDb2dVertex
 10
132.2978678054672
 20
125.0194145737799
 30
0.0
  0
VERTEX
  5
7AB
330
7A9
100
AcDbEntity
  8
GR2_01
 62
     7
100
AcDbVertex
100
AcDb2dVertex
 10
132.2978678054672
 20
104.019490533891
 30
0.0
  0
SEQEND
  5
7AC
330
7A9
100
AcDbEntity
  8
GR2_01
  0
ENDBLK
  5
7A8
330
7A5
100
AcDbEntity
  8
0
100
AcDbBlockEnd
  0
BLOCK
  5
7AF
330
7AD
100
AcDbEntity
  8
0
100
AcDbBlockBegin
  2
BLOCK_301
 70
     0
 71
     0
 10
0.0
 20
0.0
 30
0.0
  3
BLOCK_301
  1

  0
POLYLINE
  5
7B1
330
7AD
100
AcDbEntity
  8
GR2_01
 62
     7
100
AcDb2dPolyline
 66
     1
 10
0.0
 20
0.0
 30
0.0
  0
VERTEX
  5
7B2
330
7B1
100
AcDbEntity
  8
GR2_01
 62
     7
100
AcDbVertex
100
AcDb2dVertex
 10
124.6776611016431
 20
125.0194145737799
 30
0.0
  0
VERTEX
  5
7B3
330
7B1
100
AcDbEntity
  8
GR2_01
 62
     7
100
AcDbVertex
100
AcDb2dVertex
 10
124.6776611016431
 20
104.019490533891
 30
0.0
  0
SEQEND
  5
7B4
330
7B1
100
AcDbEntity
  8
GR2_01
  0
ENDBLK
  5
7B0
330
7AD
100
AcDbEntity
  8
0
100
AcDbBlockEnd
  0
BLOCK
  5
7B7
330
7B5
100
AcDbEntity
  8
0
100
AcDbBlockBegin
  2
BLOCK_302
 70
     0
 71
     0
 10
0.0
 20
0.0
 30
0.0
  3
BLOCK_302
  1

  0
POLYLINE
  5
7B9
330
7B5
100
AcDbEntity
  8
GR2_01
 62
     7
100
AcDb2dPolyline
 66
     1
 10
0.0
 20
0.0
 30
0.0
  0
VERTEX
  5
7BA
330
7B9
100
AcDbEntity
  8
GR2_01
 62
     7
100
AcDbVertex
100
AcDb2dVertex
 10
117.0577989073675
 20
125.0194145737799
 30
0.0
  0
VERTEX
  5
7BB
330
7B9
100
AcDbEntity
  8
GR2_01
 62
     7
100
AcDbVertex
100
AcDb2dVertex
 10
117.0577989073675
 20
104.019490533891
 30
0.0
  0
SEQEND
  5
7BC
330
7B9
100
AcDbEntity
  8
GR2_01
  0
ENDBLK
  5
7B8
330
7B5
100
AcDbEntity
  8
0
100
AcDbBlockEnd
  0
BLOCK
  5
7BF
330
7BD
100
AcDbEntity
  8
0
100
AcDbBlockBegin
  2
BLOCK_303
 70
     0
 71
     0
 10
0.0
 20
0.0
 30
0.0
  3
BLOCK_303
  1

  0
POLYLINE
  5
7C1
330
7BD
100
AcDbEntity
  8
GR2_01
 62
     7
100
AcDb2dPolyline
 66
     1
 10
0.0
 20
0.0
 30
0.0
  0
VERTEX
  5
7C2
330
7C1
100
AcDbEntity
  8
GR2_01
 62
     7
100
AcDbVertex
100
AcDb2dVertex
 10
109.4379367130919
 20
125.0194145737799
 30
0.0
  0
VERTEX
  5
7C3
330
7C1
100
AcDbEntity
  8
GR2_01
 62
     7
100
AcDbVertex
100
AcDb2dVertex
 10
109.4379367130919
 20
104.019490533891
 30
0.0
  0
SEQEND
  5
7C4
330
7C1
100
AcDbEntity
  8
GR2_01
  0
ENDBLK
  5
7C0
330
7BD
100
AcDbEntity
  8
0
100
AcDbBlockEnd
  0
BLOCK
  5
7C7
330
7C5
100
AcDbEntity
  8
0
100
AcDbBlockBegin
  2
BLOCK_304
 70
     0
 71
     0
 10
0.0
 20
0.0
 30
0.0
  3
BLOCK_304
  1

  0
POLYLINE
  5
7C9
330
7C5
100
AcDbEntity
  8
GR2_01
 62
     7
100
AcDb2dPolyline
 66
     1
 10
0.0
 20
0.0
 30
0.0
  0
VERTEX
  5
7CA
330
7C9
100
AcDbEntity
  8
GR2_01
 62
     7
100
AcDbVertex
100
AcDb2dVertex
 10
101.8177300092678
 20
125.0194145737799
 30
0.0
  0
VERTEX
  5
7CB
330
7C9
100
AcDbEntity
  8
GR2_01
 62
     7
100
AcDbVertex
100
AcDb2dVertex
 10
101.8177300092678
 20
104.019490533891
 30
0.0
  0
SEQEND
  5
7CC
330
7C9
100
AcDbEntity
  8
GR2_01
  0
ENDBLK
  5
7C8
330
7C5
100
AcDbEntity
  8
0
100
AcDbBlockEnd
  0
BLOCK
  5
7CF
330
7CD
100
AcDbEntity
  8
0
100
AcDbBlockBegin
  2
BLOCK_305
 70
     0
 71
     0
 10
0.0
 20
0.0
 30
0.0
  3
BLOCK_305
  1

  0
POLYLINE
  5
7D1
330
7CD
100
AcDbEntity
  8
GR2_01
 62
     7
100
AcDb2dPolyline
 66
     1
 10
0.0
 20
0.0
 30
0.0
  0
VERTEX
  5
7D2
330
7D1
100
AcDbEntity
  8
GR2_01
 62
     7
100
AcDbVertex
100
AcDb2dVertex
 10
94.19786781499221
 20
125.0194145737799
 30
0.0
  0
VERTEX
  5
7D3
330
7D1
100
AcDbEntity
  8
GR2_01
 62
     7
100
AcDbVertex
100
AcDb2dVertex
 10
94.19786781499221
 20
104.019490533891
 30
0.0
  0
SEQEND
  5
7D4
330
7D1
100
AcDbEntity
  8
GR2_01
  0
ENDBLK
  5
7D0
330
7CD
100
AcDbEntity
  8
0
100
AcDbBlockEnd
  0
BLOCK
  5
7D7
330
7D5
100
AcDbEntity
  8
0
100
AcDbBlockBegin
  2
BLOCK_306
 70
     0
 71
     0
 10
0.0
 20
0.0
 30
0.0
  3
BLOCK_306
  1

  0
POLYLINE
  5
7D9
330
7D5
100
AcDbEntity
  8
GR2_01
 62
     7
100
AcDb2dPolyline
 66
     1
 10
0.0
 20
0.0
 30
0.0
  0
VERTEX
  5
7DA
330
7D9
100
AcDbEntity
  8
GR2_01
 62
     7
100
AcDbVertex
100
AcDb2dVertex
 10
86.57783336594235
 20
125.0194145737799
 30
0.0
  0
VERTEX
  5
7DB
330
7D9
100
AcDbEntity
  8
GR2_01
 62
     7
100
AcDbVertex
100
AcDb2dVertex
 10
86.57783336594235
 20
104.019490533891
 30
0.0
  0
SEQEND
  5
7DC
330
7D9
100
AcDbEntity
  8
GR2_01
  0
ENDBLK
  5
7D8
330
7D5
100
AcDbEntity
  8
0
100
AcDbBlockEnd
  0
BLOCK
  5
7DF
330
7DD
100
AcDbEntity
  8
0
100
AcDbBlockBegin
  2
BLOCK_307
 70
     0
 71
     0
 10
0.0
 20
0.0
 30
0.0
  3
BLOCK_307
  1

  0
POLYLINE
  5
7E1
330
7DD
100
AcDbEntity
  8
GR2_01
 62
     7
100
AcDb2dPolyline
 66
     1
 10
0.0
 20
0.0
 30
0.0
  0
VERTEX
  5
7E2
330
7E1
100
AcDbEntity
  8
GR2_01
 62
     7
100
AcDbVertex
100
AcDb2dVertex
 10
78.9577989168925
 20
125.0194145737799
 30
0.0
  0
VERTEX
  5
7E3
330
7E1
100
AcDbEntity
  8
GR2_01
 62
     7
100
AcDbVertex
100
AcDb2dVertex
 10
78.9577989168925
 20
104.019490533891
 30
0.0
  0
SEQEND
  5
7E4
330
7E1
100
AcDbEntity
  8
GR2_01
  0
ENDBLK
  5
7E0
330
7DD
100
AcDbEntity
  8
0
100
AcDbBlockEnd
  0
BLOCK
  5
7E7
330
7E5
100
AcDbEntity
  8
0
100
AcDbBlockBegin
  2
BLOCK_308
 70
     0
 71
     0
 10
0.0
 20
0.0
 30
0.0
  3
BLOCK_308
  1

  0
POLYLINE
  5
7E9
330
7E5
100
AcDbEntity
  8
GR2_01
 62
     7
100
AcDb2dPolyline
 66
     1
 10
0.0
 20
0.0
 30
0.0
  0
VERTEX
  5
7EA
330
7E9
100
AcDbEntity
  8
GR2_01
 62
     7
100
AcDbVertex
100
AcDb2dVertex
 10
71.33776446784265
 20
125.0194145737799
 30
0.0
  0
VERTEX
  5
7EB
330
7E9
100
AcDbEntity
  8
GR2_01
 62
     7
100
AcDbVertex
100
AcDb2dVertex
 10
71.33776446784265
 20
104.019490533891
 30
0.0
  0
SEQEND
  5
7EC
330
7E9
100
AcDbEntity
  8
GR2_01
  0
ENDBLK
  5
7E8
330
7E5
100
AcDbEntity
  8
0
100
AcDbBlockEnd
  0
BLOCK
  5
7EF
330
7ED
100
AcDbEntity
  8
0
100
AcDbBlockBegin
  2
BLOCK_309
 70
     0
 71
     0
 10
0.0
 20
0.0
 30
0.0
  3
BLOCK_309
  1

  0
POLYLINE
  5
7F1
330
7ED
100
AcDbEntity
  8
GR2_01
 62
     7
100
AcDb2dPolyline
 66
     1
 10
0.0
 20
0.0
 30
0.0
  0
VERTEX
  5
7F2
330
7F1
100
AcDbEntity
  8
GR2_01
 62
     7
100
AcDbVertex
100
AcDb2dVertex
 10
63.71773001879279
 20
125.0194145737799
 30
0.0
  0
VERTEX
  5
7F3
330
7F1
100
AcDbEntity
  8
GR2_01
 62
     7
100
AcDbVertex
100
AcDb2dVertex
 10
63.71773001879279
 20
104.019490533891
 30
0.0
  0
SEQEND
  5
7F4
330
7F1
100
AcDbEntity
  8
GR2_01
  0
ENDBLK
  5
7F0
330
7ED
100
AcDbEntity
  8
0
100
AcDbBlockEnd
  0
BLOCK
  5
7F7
330
7F5
100
AcDbEntity
  8
0
100
AcDbBlockBegin
  2
BLOCK_310
 70
     0
 71
     0
 10
0.0
 20
0.0
 30
0.0
  3
BLOCK_310
  1

  0
POLYLINE
  5
7F9
330
7F5
100
AcDbEntity
  8
GR2_01
 62
     7
100
AcDb2dPolyline
 66
     1
 10
0.0
 20
0.0
 30
0.0
  0
VERTEX
  5
7FA
330
7F9
100
AcDbEntity
  8
GR2_01
 62
     7
100
AcDbVertex
100
AcDb2dVertex
 10
56.09769556974294
 20
125.0194145737799
 30
0.0
  0
VERTEX
  5
7FB
330
7F9
100
AcDbEntity
  8
GR2_01
 62
     7
100
AcDbVertex
100
AcDb2dVertex
 10
56.09769556974294
 20
104.019490533891
 30
0.0
  0
SEQEND
  5
7FC
330
7F9
100
AcDbEntity
  8
GR2_01
  0
ENDBLK
  5
7F8
330
7F5
100
AcDbEntity
  8
0
100
AcDbBlockEnd
  0
BLOCK
  5
7FF
330
7FD
100
AcDbEntity
  8
0
100
AcDbBlockBegin
  2
BLOCK_311
 70
     0
 71
     0
 10
0.0
 20
0.0
 30
0.0
  3
BLOCK_311
  1

  0
POLYLINE
  5
801
330
7FD
100
AcDbEntity
  8
GR2_01
 62
     7
100
AcDb2dPolyline
 66
     1
 10
0.0
 20
0.0
 30
0.0
  0
VERTEX
  5
802
330
801
100
AcDbEntity
  8
GR2_01
 62
     7
100
AcDbVertex
100
AcDb2dVertex
 10
48.47783337546735
 20
125.0194145737799
 30
0.0
  0
VERTEX
  5
803
330
801
100
AcDbEntity
  8
GR2_01
 62
     7
100
AcDbVertex
100
AcDb2dVertex
 10
48.47783337546735
 20
104.019490533891
 30
0.0
  0
SEQEND
  5
804
330
801
100
AcDbEntity
  8
GR2_01
  0
ENDBLK
  5
800
330
7FD
100
AcDbEntity
  8
0
100
AcDbBlockEnd
  0
BLOCK
  5
807
330
805
100
AcDbEntity
  8
0
100
AcDbBlockBegin
  2
BLOCK_312
 70
     0
 71
     0
 10
0.0
 20
0.0
 30
0.0
  3
BLOCK_312
  1

  0
POLYLINE
  5
809
330
805
100
AcDbEntity
  8
GR2_01
 62
     7
100
AcDb2dPolyline
 66
     1
 10
0.0
 20
0.0
 30
0.0
  0
VERTEX
  5
80A
330
809
100
AcDbEntity
  8
GR2_01
 62
     7
100
AcDbVertex
100
AcDb2dVertex
 10
44.66773002355529
 20
125.0194145737799
 30
0.0
  0
VERTEX
  5
80B
330
809
100
AcDbEntity
  8
GR2_01
 62
     7
100
AcDbVertex
100
AcDb2dVertex
 10
44.66773002355529
 20
104.019490533891
 30
0.0
  0
SEQEND
  5
80C
330
809
100
AcDbEntity
  8
GR2_01
  0
ENDBLK
  5
808
330
805
100
AcDbEntity
  8
0
100
AcDbBlockEnd
  0
BLOCK
  5
80F
330
80D
100
AcDbEntity
  8
0
100
AcDbBlockBegin
  2
BLOCK_313
 70
     0
 71
     0
 10
0.0
 20
0.0
 30
0.0
  3
BLOCK_313
  1

  0
POLYLINE
  5
811
330
80D
100
AcDbEntity
  8
GR2_01
 62
     7
100
AcDb2dPolyline
 66
     1
 10
0.0
 20
0.0
 30
0.0
  0
VERTEX
  5
812
330
811
100
AcDbEntity
  8
GR2_01
 62
     7
100
AcDbVertex
100
AcDb2dVertex
 10
52.28776447260515
 20
125.0194145737799
 30
0.0
  0
VERTEX
  5
813
330
811
100
AcDbEntity
  8
GR2_01
 62
     7
100
AcDbVertex
100
AcDb2dVertex
 10
52.28776447260515
 20
104.019490533891
 30
0.0
  0
SEQEND
  5
814
330
811
100
AcDbEntity
  8
GR2_01
  0
ENDBLK
  5
810
330
80D
100
AcDbEntity
  8
0
100
AcDbBlockEnd
  0
BLOCK
  5
817
330
815
100
AcDbEntity
  8
0
100
AcDbBlockBegin
  2
BLOCK_314
 70
     0
 71
     0
 10
0.0
 20
0.0
 30
0.0
  3
BLOCK_314
  1

  0
POLYLINE
  5
819
330
815
100
AcDbEntity
  8
GR2_01
 62
     7
100
AcDb2dPolyline
 66
     1
 10
0.0
 20
0.0
 30
0.0
  0
VERTEX
  5
81A
330
819
100
AcDbEntity
  8
GR2_01
 62
     7
100
AcDbVertex
100
AcDb2dVertex
 10
59.907798921655
 20
125.0194145737799
 30
0.0
  0
VERTEX
  5
81B
330
819
100
AcDbEntity
  8
GR2_01
 62
     7
100
AcDbVertex
100
AcDb2dVertex
 10
59.907798921655
 20
104.019490533891
 30
0.0
  0
SEQEND
  5
81C
330
819
100
AcDbEntity
  8
GR2_01
  0
ENDBLK
  5
818
330
815
100
AcDbEntity
  8
0
100
AcDbBlockEnd
  0
BLOCK
  5
81F
330
81D
100
AcDbEntity
  8
0
100
AcDbBlockBegin
  2
BLOCK_315
 70
     0
 71
     0
 10
0.0
 20
0.0
 30
0.0
  3
BLOCK_315
  1

  0
POLYLINE
  5
821
330
81D
100
AcDbEntity
  8
GR2_01
 62
     7
100
AcDb2dPolyline
 66
     1
 10
0.0
 20
0.0
 30
0.0
  0
VERTEX
  5
822
330
821
100
AcDbEntity
  8
GR2_01
 62
     7
100
AcDbVertex
100
AcDb2dVertex
 10
67.52783337070485
 20
125.0194145737799
 30
0.0
  0
VERTEX
  5
823
330
821
100
AcDbEntity
  8
GR2_01
 62
     7
100
AcDbVertex
100
AcDb2dVertex
 10
67.52783337070485
 20
104.019490533891
 30
0.0
  0
SEQEND
  5
824
330
821
100
AcDbEntity
  8
GR2_01
  0
ENDBLK
  5
820
330
81D
100
AcDbEntity
  8
0
100
AcDbBlockEnd
  0
BLOCK
  5
827
330
825
100
AcDbEntity
  8
0
100
AcDbBlockBegin
  2
BLOCK_316
 70
     0
 71
     0
 10
0.0
 20
0.0
 30
0.0
  3
BLOCK_316
  1

  0
POLYLINE
  5
829
330
825
100
AcDbEntity
  8
GR2_01
 62
     7
100
AcDb2dPolyline
 66
     1
 10
0.0
 20
0.0
 30
0.0
  0
VERTEX
  5
82A
330
829
100
AcDbEntity
  8
GR2_01
 62
     7
100
AcDbVertex
100
AcDb2dVertex
 10
75.14769556498044
 20
125.0194145737799
 30
0.0
  0
VERTEX
  5
82B
330
829
100
AcDbEntity
  8
GR2_01
 62
     7
100
AcDbVertex
100
AcDb2dVertex
 10
75.14769556498044
 20
104.019490533891
 30
0.0
  0
SEQEND
  5
82C
330
829
100
AcDbEntity
  8
GR2_01
  0
ENDBLK
  5
828
330
825
100
AcDbEntity
  8
0
100
AcDbBlockEnd
  0
BLOCK
  5
82F
330
82D
100
AcDbEntity
  8
0
100
AcDbBlockBegin
  2
BLOCK_317
 70
     0
 71
     0
 10
0.0
 20
0.0
 30
0.0
  3
BLOCK_317
  1

  0
POLYLINE
  5
831
330
82D
100
AcDbEntity
  8
GR2_01
 62
     7
100
AcDb2dPolyline
 66
     1
 10
0.0
 20
0.0
 30
0.0
  0
VERTEX
  5
832
330
831
100
AcDbEntity
  8
GR2_01
 62
     7
100
AcDbVertex
100
AcDb2dVertex
 10
82.76773001403029
 20
125.0194145737799
 30
0.0
  0
VERTEX
  5
833
330
831
100
AcDbEntity
  8
GR2_01
 62
     7
100
AcDbVertex
100
AcDb2dVertex
 10
82.76773001403029
 20
104.019490533891
 30
0.0
  0
SEQEND
  5
834
330
831
100
AcDbEntity
  8
GR2_01
  0
ENDBLK
  5
830
330
82D
100
AcDbEntity
  8
0
100
AcDbBlockEnd
  0
BLOCK
  5
837
330
835
100
AcDbEntity
  8
0
100
AcDbBlockBegin
  2
BLOCK_318
 70
     0
 71
     0
 10
0.0
 20
0.0
 30
0.0
  3
BLOCK_318
  1

  0
POLYLINE
  5
839
330
835
100
AcDbEntity
  8
GR2_01
 62
     7
100
AcDb2dPolyline
 66
     1
 10
0.0
 20
0.0
 30
0.0
  0
VERTEX
  5
83A
330
839
100
AcDbEntity
  8
GR2_01
 62
     7
100
AcDbVertex
100
AcDb2dVertex
 10
90.38776446308015
 20
125.0194145737799
 30
0.0
  0
VERTEX
  5
83B
330
839
100
AcDbEntity
  8
GR2_01
 62
     7
100
AcDbVertex
100
AcDb2dVertex
 10
90.38776446308015
 20
104.019490533891
 30
0.0
  0
SEQEND
  5
83C
330
839
100
AcDbEntity
  8
GR2_01
  0
ENDBLK
  5
838
330
835
100
AcDbEntity
  8
0
100
AcDbBlockEnd
  0
BLOCK
  5
83F
330
83D
100
AcDbEntity
  8
0
100
AcDbBlockBegin
  2
BLOCK_319
 70
     0
 71
     0
 10
0.0
 20
0.0
 30
0.0
  3
BLOCK_319
  1

  0
POLYLINE
  5
841
330
83D
100
AcDbEntity
  8
GR2_01
 62
     7
100
AcDb2dPolyline
 66
     1
 10
0.0
 20
0.0
 30
0.0
  0
VERTEX
  5
842
330
841
100
AcDbEntity
  8
GR2_01
 62
     7
100
AcDbVertex
100
AcDb2dVertex
 10
98.00779891213
 20
125.0194145737799
 30
0.0
  0
VERTEX
  5
843
330
841
100
AcDbEntity
  8
GR2_01
 62
     7
100
AcDbVertex
100
AcDb2dVertex
 10
98.00779891213
 20
104.019490533891
 30
0.0
  0
SEQEND
  5
844
330
841
100
AcDbEntity
  8
GR2_01
  0
ENDBLK
  5
840
330
83D
100
AcDbEntity
  8
0
100
AcDbBlockEnd
  0
BLOCK
  5
847
330
845
100
AcDbEntity
  8
0
100
AcDbBlockBegin
  2
BLOCK_320
 70
     0
 71
     0
 10
0.0
 20
0.0
 30
0.0
  3
BLOCK_320
  1

  0
POLYLINE
  5
849
330
845
100
AcDbEntity
  8
GR2_01
 62
     7
100
AcDb2dPolyline
 66
     1
 10
0.0
 20
0.0
 30
0.0
  0
VERTEX
  5
84A
330
849
100
AcDbEntity
  8
GR2_01
 62
     7
100
AcDbVertex
100
AcDb2dVertex
 10
105.6276611064056
 20
125.0194145737799
 30
0.0
  0
VERTEX
  5
84B
330
849
100
AcDbEntity
  8
GR2_01
 62
     7
100
AcDbVertex
100
AcDb2dVertex
 10
105.6276611064056
 20
104.019490533891
 30
0.0
  0
SEQEND
  5
84C
330
849
100
AcDbEntity
  8
GR2_01
  0
ENDBLK
  5
848
330
845
100
AcDbEntity
  8
0
100
AcDbBlockEnd
  0
BLOCK
  5
84F
330
84D
100
AcDbEntity
  8
0
100
AcDbBlockBegin
  2
BLOCK_321
 70
     0
 71
     0
 10
0.0
 20
0.0
 30
0.0
  3
BLOCK_321
  1

  0
POLYLINE
  5
851
330
84D
100
AcDbEntity
  8
GR2_01
 62
     7
100
AcDb2dPolyline
 66
     1
 10
0.0
 20
0.0
 30
0.0
  0
VERTEX
  5
852
330
851
100
AcDbEntity
  8
GR2_01
 62
     7
100
AcDbVertex
100
AcDb2dVertex
 10
113.2478678102297
 20
125.0194145737799
 30
0.0
  0
VERTEX
  5
853
330
851
100
AcDbEntity
  8
GR2_01
 62
     7
100
AcDbVertex
100
AcDb2dVertex
 10
113.2478678102297
 20
104.019490533891
 30
0.0
  0
SEQEND
  5
854
330
851
100
AcDbEntity
  8
GR2_01
  0
ENDBLK
  5
850
330
84D
100
AcDbEntity
  8
0
100
AcDbBlockEnd
  0
BLOCK
  5
857
330
855
100
AcDbEntity
  8
0
100
AcDbBlockBegin
  2
BLOCK_322
 70
     0
 71
     0
 10
0.0
 20
0.0
 30
0.0
  3
BLOCK_322
  1

  0
POLYLINE
  5
859
330
855
100
AcDbEntity
  8
GR2_01
 62
     7
100
AcDb2dPolyline
 66
     1
 10
0.0
 20
0.0
 30
0.0
  0
VERTEX
  5
85A
330
859
100
AcDbEntity
  8
GR2_01
 62
     7
100
AcDbVertex
100
AcDb2dVertex
 10
120.8677300045053
 20
125.0194145737799
 30
0.0
  0
VERTEX
  5
85B
330
859
100
AcDbEntity
  8
GR2_01
 62
     7
100
AcDbVertex
100
AcDb2dVertex
 10
120.8677300045053
 20
104.019490533891
 30
0.0
  0
SEQEND
  5
85C
330
859
100
AcDbEntity
  8
GR2_01
  0
ENDBLK
  5
858
330
855
100
AcDbEntity
  8
0
100
AcDbBlockEnd
  0
BLOCK
  5
85F
330
85D
100
AcDbEntity
  8
0
100
AcDbBlockBegin
  2
BLOCK_323
 70
     0
 71
     0
 10
0.0
 20
0.0
 30
0.0
  3
BLOCK_323
  1

  0
POLYLINE
  5
861
330
85D
100
AcDbEntity
  8
GR2_01
 62
     7
100
AcDb2dPolyline
 66
     1
 10
0.0
 20
0.0
 30
0.0
  0
VERTEX
  5
862
330
861
100
AcDbEntity
  8
GR2_01
 62
     7
100
AcDbVertex
100
AcDb2dVertex
 10
128.4879367083294
 20
125.0194145737799
 30
0.0
  0
VERTEX
  5
863
330
861
100
AcDbEntity
  8
GR2_01
 62
     7
100
AcDbVertex
100
AcDb2dVertex
 10
128.4879367083294
 20
104.019490533891
 30
0.0
  0
SEQEND
  5
864
330
861
100
AcDbEntity
  8
GR2_01
  0
ENDBLK
  5
860
330
85D
100
AcDbEntity
  8
0
100
AcDbBlockEnd
  0
BLOCK
  5
867
330
865
100
AcDbEntity
  8
0
100
AcDbBlockBegin
  2
BLOCK_324
 70
     0
 71
     0
 10
0.0
 20
0.0
 30
0.0
  3
BLOCK_324
  1

  0
POLYLINE
  5
869
330
865
100
AcDbEntity
  8
GR2_01
 62
     7
100
AcDb2dPolyline
 66
     1
 10
0.0
 20
0.0
 30
0.0
  0
VERTEX
  5
86A
330
869
100
AcDbEntity
  8
GR2_01
 62
     7
100
AcDbVertex
100
AcDb2dVertex
 10
136.107798902605
 20
125.0194145737799
 30
0.0
  0
VERTEX
  5
86B
330
869
100
AcDbEntity
  8
GR2_01
 62
     7
100
AcDbVertex
100
AcDb2dVertex
 10
136.107798902605
 20
104.019490533891
 30
0.0
  0
SEQEND
  5
86C
330
869
100
AcDbEntity
  8
GR2_01
  0
ENDBLK
  5
868
330
865
100
AcDbEntity
  8
0
100
AcDbBlockEnd
  0
BLOCK
  5
86F
330
86D
100
AcDbEntity
  8
0
100
AcDbBlockBegin
  2
BLOCK_325
 70
     0
 71
     0
 10
0.0
 20
0.0
 30
0.0
  3
BLOCK_325
  1

  0
POLYLINE
  5
871
330
86D
100
AcDbEntity
  8
GR2_01
 62
     7
100
AcDb2dPolyline
 66
     1
 10
0.0
 20
0.0
 30
0.0
  0
VERTEX
  5
872
330
871
100
AcDbEntity
  8
GR2_01
 62
     7
100
AcDbVertex
100
AcDb2dVertex
 10
143.7276610968806
 20
125.0194145737799
 30
0.0
  0
VERTEX
  5
873
330
871
100
AcDbEntity
  8
GR2_01
 62
     7
100
AcDbVertex
100
AcDb2dVertex
 10
143.7276610968806
 20
104.019490533891
 30
0.0
  0
SEQEND
  5
874
330
871
100
AcDbEntity
  8
GR2_01
  0
ENDBLK
  5
870
330
86D
100
AcDbEntity
  8
0
100
AcDbBlockEnd
  0
BLOCK
  5
877
330
875
100
AcDbEntity
  8
0
100
AcDbBlockBegin
  2
BLOCK_326
 70
     0
 71
     0
 10
0.0
 20
0.0
 30
0.0
  3
BLOCK_326
  1

  0
POLYLINE
  5
879
330
875
100
AcDbEntity
  8
GR2_01
 62
     7
100
AcDb2dPolyline
 66
     1
 10
0.0
 20
0.0
 30
0.0
  0
VERTEX
  5
87A
330
879
100
AcDbEntity
  8
GR2_01
 62
     7
100
AcDbVertex
100
AcDb2dVertex
 10
151.3478678007047
 20
125.0194145737799
 30
0.0
  0
VERTEX
  5
87B
330
879
100
AcDbEntity
  8
GR2_01
 62
     7
100
AcDbVertex
100
AcDb2dVertex
 10
151.3478678007047
 20
104.019490533891
 30
0.0
  0
SEQEND
  5
87C
330
879
100
AcDbEntity
  8
GR2_01
  0
ENDBLK
  5
878
330
875
100
AcDbEntity
  8
0
100
AcDbBlockEnd
  0
BLOCK
  5
87F
330
87D
100
AcDbEntity
  8
0
100
AcDbBlockBegin
  2
BLOCK_327
 70
     0
 71
     0
 10
0.0
 20
0.0
 30
0.0
  3
BLOCK_327
  1

  0
POLYLINE
  5
881
330
87D
100
AcDbEntity
  8
GR2_01
 62
     7
100
AcDb2dPolyline
 66
     1
 10
0.0
 20
0.0
 30
0.0
  0
VERTEX
  5
882
330
881
100
AcDbEntity
  8
GR2_01
 62
     7
100
AcDbVertex
100
AcDb2dVertex
 10
158.9677299949803
 20
125.0194145737799
 30
0.0
  0
VERTEX
  5
883
330
881
100
AcDbEntity
  8
GR2_01
 62
     7
100
AcDbVertex
100
AcDb2dVertex
 10
158.9677299949803
 20
104.019490533891
 30
0.0
  0
SEQEND
  5
884
330
881
100
AcDbEntity
  8
GR2_01
  0
ENDBLK
  5
880
330
87D
100
AcDbEntity
  8
0
100
AcDbBlockEnd
  0
BLOCK
  5
887
330
885
100
AcDbEntity
  8
0
100
AcDbBlockBegin
  2
BLOCK_328
 70
     0
 71
     0
 10
0.0
 20
0.0
 30
0.0
  3
BLOCK_328
  1

  0
POLYLINE
  5
889
330
885
100
AcDbEntity
  8
GR2_01
 62
     7
100
AcDb2dPolyline
 66
     1
 10
0.0
 20
0.0
 30
0.0
  0
VERTEX
  5
88A
330
889
100
AcDbEntity
  8
GR2_01
 62
     7
100
AcDbVertex
100
AcDb2dVertex
 10
166.5879366988044
 20
125.0194145737799
 30
0.0
  0
VERTEX
  5
88B
330
889
100
AcDbEntity
  8
GR2_01
 62
     7
100
AcDbVertex
100
AcDb2dVertex
 10
166.5879366988044
 20
104.019490533891
 30
0.0
  0
SEQEND
  5
88C
330
889
100
AcDbEntity
  8
GR2_01
  0
ENDBLK
  5
888
330
885
100
AcDbEntity
  8
0
100
AcDbBlockEnd
  0
BLOCK
  5
88F
330
88D
100
AcDbEntity
  8
0
100
AcDbBlockBegin
  2
BLOCK_329
 70
     0
 71
     0
 10
0.0
 20
0.0
 30
0.0
  3
BLOCK_329
  1

  0
POLYLINE
  5
891
330
88D
100
AcDbEntity
  8
GR2_01
 62
     7
100
AcDb2dPolyline
 66
     1
 10
0.0
 20
0.0
 30
0.0
  0
VERTEX
  5
892
330
891
100
AcDbEntity
  8
GR2_01
 62
     7
100
AcDbVertex
100
AcDb2dVertex
 10
40.85779892641749
 20
125.0194145737799
 30
0.0
  0
VERTEX
  5
893
330
891
100
AcDbEntity
  8
GR2_01
 62
     7
100
AcDbVertex
100
AcDb2dVertex
 10
40.85779892641749
 20
104.019490533891
 30
0.0
  0
SEQEND
  5
894
330
891
100
AcDbEntity
  8
GR2_01
  0
ENDBLK
  5
890
330
88D
100
AcDbEntity
  8
0
100
AcDbBlockEnd
  0
BLOCK
  5
897
330
895
100
AcDbEntity
  8
0
100
AcDbBlockBegin
  2
BLOCK_330
 70
     0
 71
     0
 10
0.0
 20
0.0
 30
0.0
  3
BLOCK_330
  1

  0
POLYLINE
  5
899
330
895
100
AcDbEntity
  8
GR2_01
 62
     7
100
AcDb2dPolyline
 66
     1
 10
0.0
 20
0.0
 30
0.0
  0
VERTEX
  5
89A
330
899
100
AcDbEntity
  8
GR2_01
 62
     7
100
AcDbVertex
100
AcDb2dVertex
 10
170.3978677959422
 20
121.0193142058563
 30
0.0
  0
VERTEX
  5
89B
330
899
100
AcDbEntity
  8
GR2_01
 62
     7
100
AcDbVertex
100
AcDb2dVertex
 10
40.85779892641749
 20
121.0193142058563
 30
0.0
  0
SEQEND
  5
89C
330
899
100
AcDbEntity
  8
GR2_01
  0
ENDBLK
  5
898
330
895
100
AcDbEntity
  8
0
100
AcDbBlockEnd
  0
BLOCK
  5
89F
330
89D
100
AcDbEntity
  8
0
100
AcDbBlockBegin
  2
BLOCK_331
 70
     0
 71
     0
 10
0.0
 20
0.0
 30
0.0
  3
BLOCK_331
  1

  0
POLYLINE
  5
8A1
330
89D
100
AcDbEntity
  8
GR2_01
 62
     7
100
AcDb2dPolyline
 66
     1
 10
0.0
 20
0.0
 30
0.0
  0
VERTEX
  5
8A2
330
8A1
100
AcDbEntity
  8
GR2_01
 62
     7
100
AcDbVertex
100
AcDb2dVertex
 10
172.6278781035444
 20
125.0194145737799
 30
0.0
  0
VERTEX
  5
8A3
330
8A1
100
AcDbEntity
  8
GR2_01
 62
     7
100
AcDbVertex
100
AcDb2dVertex
 10
172.6278781035444
 20
104.019490533891
 30
0.0
  0
SEQEND
  5
8A4
330
8A1
100
AcDbEntity
  8
GR2_01
  0
ENDBLK
  5
8A0
330
89D
100
AcDbEntity
  8
0
100
AcDbBlockEnd
  0
BLOCK
  5
8A7
330
8A5
100
AcDbEntity
  8
0
100
AcDbBlockBegin
  2
BLOCK_332
 70
     0
 71
     0
 10
0.0
 20
0.0
 30
0.0
  3
BLOCK_332
  1

  0
POLYLINE
  5
8A9
330
8A5
100
AcDbEntity
  8
GR2_01
 62
     7
100
AcDb2dPolyline
 66
     1
 10
0.0
 20
0.0
 30
0.0
  0
VERTEX
  5
8AA
330
8A9
100
AcDbEntity
  8
GR2_01
 62
     7
100
AcDbVertex
100
AcDb2dVertex
 10
38.62778861881527
 20
125.0194145737799
 30
0.0
  0
VERTEX
  5
8AB
330
8A9
100
AcDbEntity
  8
GR2_01
 62
     7
100
AcDbVertex
100
AcDb2dVertex
 10
38.62778861881527
 20
104.019490533891
 30
0.0
  0
SEQEND
  5
8AC
330
8A9
100
AcDbEntity
  8
GR2_01
  0
ENDBLK
  5
8A8
330
8A5
100
AcDbEntity
  8
0
100
AcDbBlockEnd
  0
BLOCK
  5
8AF
330
8AD
100
AcDbEntity
  8
0
100
AcDbBlockBegin
  2
BLOCK_333
 70
     0
 71
     0
 10
0.0
 20
0.0
 30
0.0
  3
BLOCK_333
  1

  0
POLYLINE
  5
8B1
330
8AD
100
AcDbEntity
  8
GR2_01
 62
     7
100
AcDb2dPolyline
 66
     1
 10
0.0
 20
0.0
 30
0.0
  0
VERTEX
  5
8B2
330
8B1
100
AcDbEntity
  8
GR2_01
 62
     7
100
AcDbVertex
100
AcDb2dVertex
 10
38.62778861881527
 20
104.019490533891
 30
0.0
  0
VERTEX
  5
8B3
330
8B1
100
AcDbEntity
  8
GR2_01
 62
     7
100
AcDbVertex
100
AcDb2dVertex
 10
172.6278781035444
 20
104.019490533891
 30
0.0
  0
SEQEND
  5
8B4
330
8B1
100
AcDbEntity
  8
GR2_01
  0
ENDBLK
  5
8B0
330
8AD
100
AcDbEntity
  8
0
100
AcDbBlockEnd
  0
BLOCK
  5
8B7
330
8B5
100
AcDbEntity
  8
0
100
AcDbBlockBegin
  2
BLOCK_334
 70
     0
 71
     0
 10
0.0
 20
0.0
 30
0.0
  3
BLOCK_334
  1

  0
MTEXT
  5
8B9
330
8B5
100
AcDbEntity
  8
GR2_01
 62
     7
100
AcDbMText
 10
45.57275660753042
 20
121.7269368185266
 30
0.0
 40
1.136363615387703
 41
0.0
 71
     7
 72
     1
  1
\fMS Gothic|b0|i0|c0|p34;\W0.676923;０Ｖ
  0
ENDBLK
  5
8B8
330
8B5
100
AcDbEntity
  8
0
100
AcDbBlockEnd
  0
BLOCK
  5
8BC
330
8BA
100
AcDbEntity
  8
0
100
AcDbBlockBegin
  2
BLOCK_335
 70
     0
 71
     0
 10
0.0
 20
0.0
 30
0.0
  3
BLOCK_335
  1

  0
MTEXT
  5
8BE
330
8BA
100
AcDbEntity
  8
GR2_01
 62
     7
100
AcDbMText
 10
41.26276990070861
 20
121.7269368185266
 30
0.0
 40
1.136363615387703
 41
0.0
 71
     7
 72
     1
  1
\fMS Gothic|b0|i0|c0|p34;\W0.676923;２４Ｖ
  0
ENDBLK
  5
8BD
330
8BA
100
AcDbEntity
  8
0
100
AcDbBlockEnd
  0
BLOCK
  5
8C1
330
8BF
100
AcDbEntity
  8
0
100
AcDbBlockBegin
  2
BLOCK_336
 70
     0
 71
     0
 10
0.0
 20
0.0
 30
0.0
  3
BLOCK_336
  1

  0
MTEXT
  5
8C3
330
8BF
100
AcDbEntity
  8
GR2_01
 62
     7
100
AcDbMText
 10
45.57275660753042
 20
123.4770453250335
 30
0.0
 40
1.136363615387703
 41
0.0
 71
     7
 72
     1
  1
\fMS Gothic|b0|i0|c0|p34;\W0.676923;ＤＣ
  0
ENDBLK
  5
8C2
330
8BF
100
AcDbEntity
  8
0
100
AcDbBlockEnd
  0
BLOCK
  5
8C6
330
8C4
100
AcDbEntity
  8
0
100
AcDbBlockBegin
  2
BLOCK_337
 70
     0
 71
     0
 10
0.0
 20
0.0
 30
0.0
  3
BLOCK_337
  1

  0
MTEXT
  5
8C8
330
8C4
100
AcDbEntity
  8
GR2_01
 62
     7
100
AcDbMText
 10
41.26276990070861
 20
123.4770453250335
 30
0.0
 40
1.136363615387703
 41
0.0
 71
     7
 72
     1
  1
\fMS Gothic|b0|i0|c0|p34;\W0.676923;ＤＣ
  0
ENDBLK
  5
8C7
330
8C4
100
AcDbEntity
  8
0
100
AcDbBlockEnd
  0
BLOCK
  5
8CB
330
8C9
100
AcDbEntity
  8
0
100
AcDbBlockBegin
  2
BLOCK_338
 70
     0
 71
     0
 10
0.0
 20
0.0
 30
0.0
  3
BLOCK_338
  1

  0
MTEXT
  5
8CD
330
8C9
100
AcDbEntity
  8
GR2_01
 62
     7
100
AcDbMText
 10
48.88280434975847
 20
122.2960665926899
 30
0.0
 40
1.515151487183604
 41
0.0
 71
     7
 72
     1
  1
\fMS Gothic|b0|i0|c0|p34;\W0.761538;Ｙ０
  0
ENDBLK
  5
8CC
330
8C9
100
AcDbEntity
  8
0
100
AcDbBlockEnd
  0
BLOCK
  5
8D0
330
8CE
100
AcDbEntity
  8
0
100
AcDbBlockBegin
  2
BLOCK_339
 70
     0
 71
     0
 10
0.0
 20
0.0
 30
0.0
  3
BLOCK_339
  1

  0
MTEXT
  5
8D2
330
8CE
100
AcDbEntity
  8
GR2_01
 62
     7
100
AcDbMText
 10
56.50283879880832
 20
122.2960665926899
 30
0.0
 40
1.515151487183604
 41
0.0
 71
     7
 72
     1
  1
\fMS Gothic|b0|i0|c0|p34;\W0.761538;Ｙ１
  0
ENDBLK
  5
8D1
330
8CE
100
AcDbEntity
  8
0
100
AcDbBlockEnd
  0
BLOCK
  5
8D5
330
8D3
100
AcDbEntity
  8
0
100
AcDbBlockBegin
  2
BLOCK_340
 70
     0
 71
     0
 10
0.0
 20
0.0
 30
0.0
  3
BLOCK_340
  1

  0
MTEXT
  5
8D7
330
8D3
100
AcDbEntity
  8
GR2_01
 62
     7
100
AcDbMText
 10
64.12287324785818
 20
122.2960665926899
 30
0.0
 40
1.515151487183604
 41
0.0
 71
     7
 72
     1
  1
\fMS Gothic|b0|i0|c0|p34;\W0.761538;Ｙ２
  0
ENDBLK
  5
8D6
330
8D3
100
AcDbEntity
  8
0
100
AcDbBlockEnd
  0
BLOCK
  5
8DA
330
8D8
100
AcDbEntity
  8
0
100
AcDbBlockBegin
  2
BLOCK_341
 70
     0
 71
     0
 10
0.0
 20
0.0
 30
0.0
  3
BLOCK_341
  1

  0
MTEXT
  5
8DC
330
8D8
100
AcDbEntity
  8
GR2_01
 62
     7
100
AcDbMText
 10
71.74273544213376
 20
122.2960665926899
 30
0.0
 40
1.515151487183604
 41
0.0
 71
     7
 72
     1
  1
\fMS Gothic|b0|i0|c0|p34;\W0.761538;Ｙ３
  0
ENDBLK
  5
8DB
330
8D8
100
AcDbEntity
  8
0
100
AcDbBlockEnd
  0
BLOCK
  5
8DF
330
8DD
100
AcDbEntity
  8
0
100
AcDbBlockBegin
  2
BLOCK_342
 70
     0
 71
     0
 10
0.0
 20
0.0
 30
0.0
  3
BLOCK_342
  1

  0
MTEXT
  5
8E1
330
8DD
100
AcDbEntity
  8
GR2_01
 62
     7
100
AcDbMText
 10
79.36276989118362
 20
122.2960665926899
 30
0.0
 40
1.515151487183604
 41
0.0
 71
     7
 72
     1
  1
\fMS Gothic|b0|i0|c0|p34;\W0.761538;Ｙ４
  0
ENDBLK
  5
8E0
330
8DD
100
AcDbEntity
  8
0
100
AcDbBlockEnd
  0
BLOCK
  5
8E4
330
8E2
100
AcDbEntity
  8
0
100
AcDbBlockBegin
  2
BLOCK_343
 70
     0
 71
     0
 10
0.0
 20
0.0
 30
0.0
  3
BLOCK_343
  1

  0
MTEXT
  5
8E6
330
8E2
100
AcDbEntity
  8
GR2_01
 62
     7
100
AcDbMText
 10
86.98280434023347
 20
122.2960665926899
 30
0.0
 40
1.515151487183604
 41
0.0
 71
     7
 72
     1
  1
\fMS Gothic|b0|i0|c0|p34;\W0.761538;Ｙ５
  0
ENDBLK
  5
8E5
330
8E2
100
AcDbEntity
  8
0
100
AcDbBlockEnd
  0
BLOCK
  5
8E9
330
8E7
100
AcDbEntity
  8
0
100
AcDbBlockBegin
  2
BLOCK_344
 70
     0
 71
     0
 10
0.0
 20
0.0
 30
0.0
  3
BLOCK_344
  1

  0
MTEXT
  5
8EB
330
8E7
100
AcDbEntity
  8
GR2_01
 62
     7
100
AcDbMText
 10
94.60283878928333
 20
122.2960665926899
 30
0.0
 40
1.515151487183604
 41
0.0
 71
     7
 72
     1
  1
\fMS Gothic|b0|i0|c0|p34;\W0.761538;Ｙ６
  0
ENDBLK
  5
8EA
330
8E7
100
AcDbEntity
  8
0
100
AcDbBlockEnd
  0
BLOCK
  5
8EE
330
8EC
100
AcDbEntity
  8
0
100
AcDbBlockBegin
  2
BLOCK_345
 70
     0
 71
     0
 10
0.0
 20
0.0
 30
0.0
  3
BLOCK_345
  1

  0
MTEXT
  5
8F0
330
8EC
100
AcDbEntity
  8
GR2_01
 62
     7
100
AcDbMText
 10
102.2228732383332
 20
122.2960665926899
 30
0.0
 40
1.515151487183604
 41
0.0
 71
     7
 72
     1
  1
\fMS Gothic|b0|i0|c0|p34;\W0.761538;Ｙ７
  0
ENDBLK
  5
8EF
330
8EC
100
AcDbEntity
  8
0
100
AcDbBlockEnd
  0
BLOCK
  5
8F3
330
8F1
100
AcDbEntity
  8
0
100
AcDbBlockBegin
  2
BLOCK_346
 70
     0
 71
     0
 10
0.0
 20
0.0
 30
0.0
  3
BLOCK_346
  1

  0
MTEXT
  5
8F5
330
8F1
100
AcDbEntity
  8
GR2_01
 62
     7
100
AcDbMText
 10
109.8427354326088
 20
122.2960665926899
 30
0.0
 40
1.515151487183604
 41
0.0
 71
     7
 72
     1
  1
\fMS Gothic|b0|i0|c0|p34;\W0.761538;Ｙ８
  0
ENDBLK
  5
8F4
330
8F1
100
AcDbEntity
  8
0
100
AcDbBlockEnd
  0
BLOCK
  5
8F8
330
8F6
100
AcDbEntity
  8
0
100
AcDbBlockBegin
  2
BLOCK_347
 70
     0
 71
     0
 10
0.0
 20
0.0
 30
0.0
  3
BLOCK_347
  1

  0
MTEXT
  5
8FA
330
8F6
100
AcDbEntity
  8
GR2_01
 62
     7
100
AcDbMText
 10
117.4625976268844
 20
122.2960665926899
 30
0.0
 40
1.515151487183604
 41
0.0
 71
     7
 72
     1
  1
\fMS Gothic|b0|i0|c0|p34;\W0.761538;Ｙ９
  0
ENDBLK
  5
8F9
330
8F6
100
AcDbEntity
  8
0
100
AcDbBlockEnd
  0
BLOCK
  5
8FD
330
8FB
100
AcDbEntity
  8
0
100
AcDbBlockBegin
  2
BLOCK_348
 70
     0
 71
     0
 10
0.0
 20
0.0
 30
0.0
  3
BLOCK_348
  1

  0
MTEXT
  5
8FF
330
8FB
100
AcDbEntity
  8
GR2_01
 62
     7
100
AcDbMText
 10
125.0828043307085
 20
122.2960665926899
 30
0.0
 40
1.515151487183604
 41
0.0
 71
     7
 72
     1
  1
\fMS Gothic|b0|i0|c0|p34;\W0.761538;ＹＡ
  0
ENDBLK
  5
8FE
330
8FB
100
AcDbEntity
  8
0
100
AcDbBlockEnd
  0
BLOCK
  5
902
330
900
100
AcDbEntity
  8
0
100
AcDbBlockBegin
  2
BLOCK_349
 70
     0
 71
     0
 10
0.0
 20
0.0
 30
0.0
  3
BLOCK_349
  1

  0
MTEXT
  5
904
330
900
100
AcDbEntity
  8
GR2_01
 62
     7
100
AcDbMText
 10
132.7030110345326
 20
122.2960665926899
 30
0.0
 40
1.515151487183604
 41
0.0
 71
     7
 72
     1
  1
\fMS Gothic|b0|i0|c0|p34;\W0.761538;ＹＢ
  0
ENDBLK
  5
903
330
900
100
AcDbEntity
  8
0
100
AcDbBlockEnd
  0
BLOCK
  5
907
330
905
100
AcDbEntity
  8
0
100
AcDbBlockBegin
  2
BLOCK_350
 70
     0
 71
     0
 10
0.0
 20
0.0
 30
0.0
  3
BLOCK_350
  1

  0
MTEXT
  5
909
330
905
100
AcDbEntity
  8
GR2_01
 62
     7
100
AcDbMText
 10
140.3228732288082
 20
122.2960665926899
 30
0.0
 40
1.515151487183604
 41
0.0
 71
     7
 72
     1
  1
\fMS Gothic|b0|i0|c0|p34;\W0.761538;ＹＣ
  0
ENDBLK
  5
908
330
905
100
AcDbEntity
  8
0
100
AcDbBlockEnd
  0
BLOCK
  5
90C
330
90A
100
AcDbEntity
  8
0
100
AcDbBlockBegin
  2
BLOCK_351
 70
     0
 71
     0
 10
0.0
 20
0.0
 30
0.0
  3
BLOCK_351
  1

  0
MTEXT
  5
90E
330
90A
100
AcDbEntity
  8
GR2_01
 62
     7
100
AcDbMText
 10
147.9427354230838
 20
122.2960665926899
 30
0.0
 40
1.515151487183604
 41
0.0
 71
     7
 72
     1
  1
\fMS Gothic|b0|i0|c0|p34;\W0.761538;ＹＤ
  0
ENDBLK
  5
90D
330
90A
100
AcDbEntity
  8
0
100
AcDbBlockEnd
  0
BLOCK
  5
911
330
90F
100
AcDbEntity
  8
0
100
AcDbBlockBegin
  2
BLOCK_352
 70
     0
 71
     0
 10
0.0
 20
0.0
 30
0.0
  3
BLOCK_352
  1

  0
MTEXT
  5
913
330
90F
100
AcDbEntity
  8
GR2_01
 62
     7
100
AcDbMText
 10
155.5625976173594
 20
122.2960665926899
 30
0.0
 40
1.515151487183604
 41
0.0
 71
     7
 72
     1
  1
\fMS Gothic|b0|i0|c0|p34;\W0.761538;ＹＥ
  0
ENDBLK
  5
912
330
90F
100
AcDbEntity
  8
0
100
AcDbBlockEnd
  0
BLOCK
  5
916
330
914
100
AcDbEntity
  8
0
100
AcDbBlockBegin
  2
BLOCK_353
 70
     0
 71
     0
 10
0.0
 20
0.0
 30
0.0
  3
BLOCK_353
  1

  0
MTEXT
  5
918
330
914
100
AcDbEntity
  8
GR2_01
 62
     7
100
AcDbMText
 10
163.1828043211835
 20
122.2960665926899
 30
0.0
 40
1.515151487183604
 41
0.0
 71
     7
 72
     1
  1
\fMS Gothic|b0|i0|c0|p34;\W0.761538;ＹＦ
  0
ENDBLK
  5
917
330
914
100
AcDbEntity
  8
0
100
AcDbBlockEnd
  0
BLOCK
  5
91B
330
919
100
AcDbEntity
  8
0
100
AcDbBlockBegin
  2
BLOCK_354
 70
     0
 71
     0
 10
0.0
 20
0.0
 30
0.0
  3
BLOCK_354
  1

  0
MTEXT
  5
91D
330
919
100
AcDbEntity
  8
GR2_01
 62
     7
100
AcDbMText
 10
53.69284666626429
 20
121.7269368185266
 30
0.0
 40
1.136363615387703
 41
0.0
 71
     7
 72
     1
  1
\fMS Gothic|b0|i0|c0|p34;\W0.676923;０
  0
ENDBLK
  5
91C
330
919
100
AcDbEntity
  8
0
100
AcDbBlockEnd
  0
BLOCK
  5
920
330
91E
100
AcDbEntity
  8
0
100
AcDbBlockBegin
  2
BLOCK_355
 70
     0
 71
     0
 10
0.0
 20
0.0
 30
0.0
  3
BLOCK_355
  1

  0
MTEXT
  5
922
330
91E
100
AcDbEntity
  8
GR2_01
 62
     7
100
AcDbMText
 10
52.69273544689626
 20
123.4770453250335
 30
0.0
 40
1.136363615387703
 41
0.0
 71
     7
 72
     1
  1
\fMS Gothic|b0|i0|c0|p34;\W0.676923;ＣＯＭ
  0
ENDBLK
  5
921
330
91E
100
AcDbEntity
  8
0
100
AcDbBlockEnd
  0
BLOCK
  5
925
330
923
100
AcDbEntity
  8
0
100
AcDbBlockBegin
  2
BLOCK_356
 70
     0
 71
     0
 10
0.0
 20
0.0
 30
0.0
  3
BLOCK_356
  1

  0
MTEXT
  5
927
330
923
100
AcDbEntity
  8
GR2_01
 62
     7
100
AcDbMText
 10
61.31270886053988
 20
121.7269368185266
 30
0.0
 40
1.136363615387703
 41
0.0
 71
     7
 72
     1
  1
\fMS Gothic|b0|i0|c0|p34;\W0.676923;１
  0
ENDBLK
  5
926
330
923
100
AcDbEntity
  8
0
100
AcDbBlockEnd
  0
BLOCK
  5
92A
330
928
100
AcDbEntity
  8
0
100
AcDbBlockBegin
  2
BLOCK_357
 70
     0
 71
     0
 10
0.0
 20
0.0
 30
0.0
  3
BLOCK_357
  1

  0
MTEXT
  5
92C
330
928
100
AcDbEntity
  8
GR2_01
 62
     7
100
AcDbMText
 10
60.31276989594612
 20
123.4770453250335
 30
0.0
 40
1.136363615387703
 41
0.0
 71
     7
 72
     1
  1
\fMS Gothic|b0|i0|c0|p34;\W0.676923;ＣＯＭ
  0
ENDBLK
  5
92B
330
928
100
AcDbEntity
  8
0
100
AcDbBlockEnd
  0
BLOCK
  5
92F
330
92D
100
AcDbEntity
  8
0
100
AcDbBlockBegin
  2
BLOCK_358
 70
     0
 71
     0
 10
0.0
 20
0.0
 30
0.0
  3
BLOCK_358
  1

  0
MTEXT
  5
931
330
92D
100
AcDbEntity
  8
GR2_01
 62
     7
100
AcDbMText
 10
68.93274330958974
 20
121.7269368185266
 30
0.0
 40
1.136363615387703
 41
0.0
 71
     7
 72
     1
  1
\fMS Gothic|b0|i0|c0|p34;\W0.676923;２
  0
ENDBLK
  5
930
330
92D
100
AcDbEntity
  8
0
100
AcDbBlockEnd
  0
BLOCK
  5
934
330
932
100
AcDbEntity
  8
0
100
AcDbBlockBegin
  2
BLOCK_359
 70
     0
 71
     0
 10
0.0
 20
0.0
 30
0.0
  3
BLOCK_359
  1

  0
MTEXT
  5
936
330
932
100
AcDbEntity
  8
GR2_01
 62
     7
100
AcDbMText
 10
67.93280434499597
 20
123.4770453250335
 30
0.0
 40
1.136363615387703
 41
0.0
 71
     7
 72
     1
  1
\fMS Gothic|b0|i0|c0|p34;\W0.676923;ＣＯＭ
  0
ENDBLK
  5
935
330
932
100
AcDbEntity
  8
0
100
AcDbBlockEnd
  0
BLOCK
  5
939
330
937
100
AcDbEntity
  8
0
100
AcDbBlockBegin
  2
BLOCK_360
 70
     0
 71
     0
 10
0.0
 20
0.0
 30
0.0
  3
BLOCK_360
  1

  0
MTEXT
  5
93B
330
937
100
AcDbEntity
  8
GR2_01
 62
     7
100
AcDbMText
 10
76.55277775863959
 20
121.7269368185266
 30
0.0
 40
1.136363615387703
 41
0.0
 71
     7
 72
     1
  1
\fMS Gothic|b0|i0|c0|p34;\W0.676923;３
  0
ENDBLK
  5
93A
330
937
100
AcDbEntity
  8
0
100
AcDbBlockEnd
  0
BLOCK
  5
93E
330
93C
100
AcDbEntity
  8
0
100
AcDbBlockBegin
  2
BLOCK_361
 70
     0
 71
     0
 10
0.0
 20
0.0
 30
0.0
  3
BLOCK_361
  1

  0
MTEXT
  5
940
330
93C
100
AcDbEntity
  8
GR2_01
 62
     7
100
AcDbMText
 10
75.55283879404583
 20
123.4770453250335
 30
0.0
 40
1.136363615387703
 41
0.0
 71
     7
 72
     1
  1
\fMS Gothic|b0|i0|c0|p34;\W0.676923;ＣＯＭ
  0
ENDBLK
  5
93F
330
93C
100
AcDbEntity
  8
0
100
AcDbBlockEnd
  0
BLOCK
  5
943
330
941
100
AcDbEntity
  8
0
100
AcDbBlockBegin
  2
BLOCK_362
 70
     0
 71
     0
 10
0.0
 20
0.0
 30
0.0
  3
BLOCK_362
  1

  0
MTEXT
  5
945
330
941
100
AcDbEntity
  8
GR2_01
 62
     7
100
AcDbMText
 10
84.17281220768945
 20
121.7269368185266
 30
0.0
 40
1.136363615387703
 41
0.0
 71
     7
 72
     1
  1
\fMS Gothic|b0|i0|c0|p34;\W0.676923;４
  0
ENDBLK
  5
944
330
941
100
AcDbEntity
  8
0
100
AcDbBlockEnd
  0
BLOCK
  5
948
330
946
100
AcDbEntity
  8
0
100
AcDbBlockBegin
  2
BLOCK_363
 70
     0
 71
     0
 10
0.0
 20
0.0
 30
0.0
  3
BLOCK_363
  1

  0
MTEXT
  5
94A
330
946
100
AcDbEntity
  8
GR2_01
 62
     7
100
AcDbMText
 10
83.17270098832141
 20
123.4770453250335
 30
0.0
 40
1.136363615387703
 41
0.0
 71
     7
 72
     1
  1
\fMS Gothic|b0|i0|c0|p34;\W0.676923;ＣＯＭ
  0
ENDBLK
  5
949
330
946
100
AcDbEntity
  8
0
100
AcDbBlockEnd
  0
BLOCK
  5
94D
330
94B
100
AcDbEntity
  8
0
100
AcDbBlockBegin
  2
BLOCK_364
 70
     0
 71
     0
 10
0.0
 20
0.0
 30
0.0
  3
BLOCK_364
  1

  0
MTEXT
  5
94F
330
94B
100
AcDbEntity
  8
GR2_01
 62
     7
100
AcDbMText
 10
91.79284665673929
 20
121.7269368185266
 30
0.0
 40
1.136363615387703
 41
0.0
 71
     7
 72
     1
  1
\fMS Gothic|b0|i0|c0|p34;\W0.676923;５
  0
ENDBLK
  5
94E
330
94B
100
AcDbEntity
  8
0
100
AcDbBlockEnd
  0
BLOCK
  5
952
330
950
100
AcDbEntity
  8
0
100
AcDbBlockBegin
  2
BLOCK_365
 70
     0
 71
     0
 10
0.0
 20
0.0
 30
0.0
  3
BLOCK_365
  1

  0
MTEXT
  5
954
330
950
100
AcDbEntity
  8
GR2_01
 62
     7
100
AcDbMText
 10
90.79273543737126
 20
123.4770453250335
 30
0.0
 40
1.136363615387703
 41
0.0
 71
     7
 72
     1
  1
\fMS Gothic|b0|i0|c0|p34;\W0.676923;ＣＯＭ
  0
ENDBLK
  5
953
330
950
100
AcDbEntity
  8
0
100
AcDbBlockEnd
  0
BLOCK
  5
957
330
955
100
AcDbEntity
  8
0
100
AcDbBlockBegin
  2
BLOCK_366
 70
     0
 71
     0
 10
0.0
 20
0.0
 30
0.0
  3
BLOCK_366
  1

  0
MTEXT
  5
959
330
955
100
AcDbEntity
  8
GR2_01
 62
     7
100
AcDbMText
 10
99.41270885101488
 20
121.7269368185266
 30
0.0
 40
1.136363615387703
 41
0.0
 71
     7
 72
     1
  1
\fMS Gothic|b0|i0|c0|p34;\W0.676923;６
  0
ENDBLK
  5
958
330
955
100
AcDbEntity
  8
0
100
AcDbBlockEnd
  0
BLOCK
  5
95C
330
95A
100
AcDbEntity
  8
0
100
AcDbBlockBegin
  2
BLOCK_367
 70
     0
 71
     0
 10
0.0
 20
0.0
 30
0.0
  3
BLOCK_367
  1

  0
MTEXT
  5
95E
330
95A
100
AcDbEntity
  8
GR2_01
 62
     7
100
AcDbMText
 10
98.41276988642112
 20
123.4770453250335
 30
0.0
 40
1.136363615387703
 41
0.0
 71
     7
 72
     1
  1
\fMS Gothic|b0|i0|c0|p34;\W0.676923;ＣＯＭ
  0
ENDBLK
  5
95D
330
95A
100
AcDbEntity
  8
0
100
AcDbBlockEnd
  0
BLOCK
  5
961
330
95F
100
AcDbEntity
  8
0
100
AcDbBlockBegin
  2
BLOCK_368
 70
     0
 71
     0
 10
0.0
 20
0.0
 30
0.0
  3
BLOCK_368
  1

  0
MTEXT
  5
963
330
95F
100
AcDbEntity
  8
GR2_01
 62
     7
100
AcDbMText
 10
107.032915554839
 20
121.7269368185266
 30
0.0
 40
1.136363615387703
 41
0.0
 71
     7
 72
     1
  1
\fMS Gothic|b0|i0|c0|p34;\W0.676923;７
  0
ENDBLK
  5
962
330
95F
100
AcDbEntity
  8
0
100
AcDbBlockEnd
  0
BLOCK
  5
966
330
964
100
AcDbEntity
  8
0
100
AcDbBlockBegin
  2
BLOCK_369
 70
     0
 71
     0
 10
0.0
 20
0.0
 30
0.0
  3
BLOCK_369
  1

  0
MTEXT
  5
968
330
964
100
AcDbEntity
  8
GR2_01
 62
     7
100
AcDbMText
 10
106.032804335471
 20
123.4770453250335
 30
0.0
 40
1.136363615387703
 41
0.0
 71
     7
 72
     1
  1
\fMS Gothic|b0|i0|c0|p34;\W0.676923;ＣＯＭ
  0
ENDBLK
  5
967
330
964
100
AcDbEntity
  8
0
100
AcDbBlockEnd
  0
BLOCK
  5
96B
330
969
100
AcDbEntity
  8
0
100
AcDbBlockBegin
  2
BLOCK_370
 70
     0
 71
     0
 10
0.0
 20
0.0
 30
0.0
  3
BLOCK_370
  1

  0
MTEXT
  5
96D
330
969
100
AcDbEntity
  8
GR2_01
 62
     7
100
AcDbMText
 10
114.6527777491146
 20
121.7269368185266
 30
0.0
 40
1.136363615387703
 41
0.0
 71
     7
 72
     1
  1
\fMS Gothic|b0|i0|c0|p34;\W0.676923;８
  0
ENDBLK
  5
96C
330
969
100
AcDbEntity
  8
0
100
AcDbBlockEnd
  0
BLOCK
  5
970
330
96E
100
AcDbEntity
  8
0
100
AcDbBlockBegin
  2
BLOCK_371
 70
     0
 71
     0
 10
0.0
 20
0.0
 30
0.0
  3
BLOCK_371
  1

  0
MTEXT
  5
972
330
96E
100
AcDbEntity
  8
GR2_01
 62
     7
100
AcDbMText
 10
113.6530110392951
 20
123.4770453250335
 30
0.0
 40
1.136363615387703
 41
0.0
 71
     7
 72
     1
  1
\fMS Gothic|b0|i0|c0|p34;\W0.676923;ＣＯＭ
  0
ENDBLK
  5
971
330
96E
100
AcDbEntity
  8
0
100
AcDbBlockEnd
  0
BLOCK
  5
975
330
973
100
AcDbEntity
  8
0
100
AcDbBlockBegin
  2
BLOCK_372
 70
     0
 71
     0
 10
0.0
 20
0.0
 30
0.0
  3
BLOCK_372
  1

  0
MTEXT
  5
977
330
973
100
AcDbEntity
  8
GR2_01
 62
     7
100
AcDbMText
 10
122.2726399433902
 20
121.7269368185266
 30
0.0
 40
1.136363615387703
 41
0.0
 71
     7
 72
     1
  1
\fMS Gothic|b0|i0|c0|p34;\W0.676923;９
  0
ENDBLK
  5
976
330
973
100
AcDbEntity
  8
0
100
AcDbBlockEnd
  0
BLOCK
  5
97A
330
978
100
AcDbEntity
  8
0
100
AcDbBlockBegin
  2
BLOCK_373
 70
     0
 71
     0
 10
0.0
 20
0.0
 30
0.0
  3
BLOCK_373
  1

  0
MTEXT
  5
97C
330
978
100
AcDbEntity
  8
GR2_01
 62
     7
100
AcDbMText
 10
121.2728732335707
 20
123.4770453250335
 30
0.0
 40
1.136363615387703
 41
0.0
 71
     7
 72
     1
  1
\fMS Gothic|b0|i0|c0|p34;\W0.676923;ＣＯＭ
  0
ENDBLK
  5
97B
330
978
100
AcDbEntity
  8
0
100
AcDbBlockEnd
  0
BLOCK
  5
97F
330
97D
100
AcDbEntity
  8
0
100
AcDbBlockBegin
  2
BLOCK_374
 70
     0
 71
     0
 10
0.0
 20
0.0
 30
0.0
  3
BLOCK_374
  1

  0
MTEXT
  5
981
330
97D
100
AcDbEntity
  8
GR2_01
 62
     7
100
AcDbMText
 10
129.8928466472143
 20
121.7269368185266
 30
0.0
 40
1.136363615387703
 41
0.0
 71
     7
 72
     1
  1
\fMS Gothic|b0|i0|c0|p34;\W0.676923;Ａ
  0
ENDBLK
  5
980
330
97D
100
AcDbEntity
  8
0
100
AcDbBlockEnd
  0
BLOCK
  5
984
330
982
100
AcDbEntity
  8
0
100
AcDbBlockBegin
  2
BLOCK_375
 70
     0
 71
     0
 10
0.0
 20
0.0
 30
0.0
  3
BLOCK_375
  1

  0
MTEXT
  5
986
330
982
100
AcDbEntity
  8
GR2_01
 62
     7
100
AcDbMText
 10
128.8927354278463
 20
123.4770453250335
 30
0.0
 40
1.136363615387703
 41
0.0
 71
     7
 72
     1
  1
\fMS Gothic|b0|i0|c0|p34;\W0.676923;ＣＯＭ
  0
ENDBLK
  5
985
330
982
100
AcDbEntity
  8
0
100
AcDbBlockEnd
  0
BLOCK
  5
989
330
987
100
AcDbEntity
  8
0
100
AcDbBlockBegin
  2
BLOCK_376
 70
     0
 71
     0
 10
0.0
 20
0.0
 30
0.0
  3
BLOCK_376
  1

  0
MTEXT
  5
98B
330
987
100
AcDbEntity
  8
GR2_01
 62
     7
100
AcDbMText
 10
137.5130533510384
 20
121.7269368185266
 30
0.0
 40
1.136363615387703
 41
0.0
 71
     7
 72
     1
  1
\fMS Gothic|b0|i0|c0|p34;\W0.676923;Ｂ
  0
ENDBLK
  5
98A
330
987
100
AcDbEntity
  8
0
100
AcDbBlockEnd
  0
BLOCK
  5
98E
330
98C
100
AcDbEntity
  8
0
100
AcDbBlockBegin
  2
BLOCK_377
 70
     0
 71
     0
 10
0.0
 20
0.0
 30
0.0
  3
BLOCK_377
  1

  0
MTEXT
  5
990
330
98C
100
AcDbEntity
  8
GR2_01
 62
     7
100
AcDbMText
 10
136.5125976221219
 20
123.4770453250335
 30
0.0
 40
1.136363615387703
 41
0.0
 71
     7
 72
     1
  1
\fMS Gothic|b0|i0|c0|p34;\W0.676923;ＣＯＭ
  0
ENDBLK
  5
98F
330
98C
100
AcDbEntity
  8
0
100
AcDbBlockEnd
  0
BLOCK
  5
993
330
991
100
AcDbEntity
  8
0
100
AcDbBlockBegin
  2
BLOCK_378
 70
     0
 71
     0
 10
0.0
 20
0.0
 30
0.0
  3
BLOCK_378
  1

  0
MTEXT
  5
995
330
991
100
AcDbEntity
  8
GR2_01
 62
     7
100
AcDbMText
 10
145.132915545314
 20
121.7269368185266
 30
0.0
 40
1.136363615387703
 41
0.0
 71
     7
 72
     1
  1
\fMS Gothic|b0|i0|c0|p34;\W0.676923;Ｃ
  0
ENDBLK
  5
994
330
991
100
AcDbEntity
  8
0
100
AcDbBlockEnd
  0
BLOCK
  5
998
330
996
100
AcDbEntity
  8
0
100
AcDbBlockBegin
  2
BLOCK_379
 70
     0
 71
     0
 10
0.0
 20
0.0
 30
0.0
  3
BLOCK_379
  1

  0
MTEXT
  5
99A
330
996
100
AcDbEntity
  8
GR2_01
 62
     7
100
AcDbMText
 10
144.132804325946
 20
123.4770453250335
 30
0.0
 40
1.136363615387703
 41
0.0
 71
     7
 72
     1
  1
\fMS Gothic|b0|i0|c0|p34;\W0.676923;ＣＯＭ
  0
ENDBLK
  5
999
330
996
100
AcDbEntity
  8
0
100
AcDbBlockEnd
  0
BLOCK
  5
99D
330
99B
100
AcDbEntity
  8
0
100
AcDbBlockBegin
  2
BLOCK_380
 70
     0
 71
     0
 10
0.0
 20
0.0
 30
0.0
  3
BLOCK_380
  1

  0
MTEXT
  5
99F
330
99B
100
AcDbEntity
  8
GR2_01
 62
     7
100
AcDbMText
 10
152.7527777395896
 20
121.7269368185266
 30
0.0
 40
1.136363615387703
 41
0.0
 71
     7
 72
     1
  1
\fMS Gothic|b0|i0|c0|p34;\W0.676923;Ｄ
  0
ENDBLK
  5
99E
330
99B
100
AcDbEntity
  8
0
100
AcDbBlockEnd
  0
BLOCK
  5
9A2
330
9A0
100
AcDbEntity
  8
0
100
AcDbBlockBegin
  2
BLOCK_381
 70
     0
 71
     0
 10
0.0
 20
0.0
 30
0.0
  3
BLOCK_381
  1

  0
MTEXT
  5
9A4
330
9A0
100
AcDbEntity
  8
GR2_01
 62
     7
100
AcDbMText
 10
151.7530110297701
 20
123.4770453250335
 30
0.0
 40
1.136363615387703
 41
0.0
 71
     7
 72
     1
  1
\fMS Gothic|b0|i0|c0|p34;\W0.676923;ＣＯＭ
  0
ENDBLK
  5
9A3
330
9A0
100
AcDbEntity
  8
0
100
AcDbBlockEnd
  0
BLOCK
  5
9A7
330
9A5
100
AcDbEntity
  8
0
100
AcDbBlockBegin
  2
BLOCK_382
 70
     0
 71
     0
 10
0.0
 20
0.0
 30
0.0
  3
BLOCK_382
  1

  0
MTEXT
  5
9A9
330
9A5
100
AcDbEntity
  8
GR2_01
 62
     7
100
AcDbMText
 10
160.3726399338652
 20
121.7269368185266
 30
0.0
 40
1.136363615387703
 41
0.0
 71
     7
 72
     1
  1
\fMS Gothic|b0|i0|c0|p34;\W0.676923;Ｅ
  0
ENDBLK
  5
9A8
330
9A5
100
AcDbEntity
  8
0
100
AcDbBlockEnd
  0
BLOCK
  5
9AC
330
9AA
100
AcDbEntity
  8
0
100
AcDbBlockBegin
  2
BLOCK_383
 70
     0
 71
     0
 10
0.0
 20
0.0
 30
0.0
  3
BLOCK_383
  1

  0
MTEXT
  5
9AE
330
9AA
100
AcDbEntity
  8
GR2_01
 62
     7
100
AcDbMText
 10
159.3728732240457
 20
123.4770453250335
 30
0.0
 40
1.136363615387703
 41
0.0
 71
     7
 72
     1
  1
\fMS Gothic|b0|i0|c0|p34;\W0.676923;ＣＯＭ
  0
ENDBLK
  5
9AD
330
9AA
100
AcDbEntity
  8
0
100
AcDbBlockEnd
  0
BLOCK
  5
9B1
330
9AF
100
AcDbEntity
  8
0
100
AcDbBlockBegin
  2
BLOCK_384
 70
     0
 71
     0
 10
0.0
 20
0.0
 30
0.0
  3
BLOCK_384
  1

  0
MTEXT
  5
9B3
330
9AF
100
AcDbEntity
  8
GR2_01
 62
     7
100
AcDbMText
 10
167.9928466376893
 20
121.7269368185266
 30
0.0
 40
1.136363615387703
 41
0.0
 71
     7
 72
     1
  1
\fMS Gothic|b0|i0|c0|p34;\W0.676923;Ｆ
  0
ENDBLK
  5
9B2
330
9AF
100
AcDbEntity
  8
0
100
AcDbBlockEnd
  0
BLOCK
  5
9B6
330
9B4
100
AcDbEntity
  8
0
100
AcDbBlockBegin
  2
BLOCK_385
 70
     0
 71
     0
 10
0.0
 20
0.0
 30
0.0
  3
BLOCK_385
  1

  0
MTEXT
  5
9B8
330
9B4
100
AcDbEntity
  8
GR2_01
 62
     7
100
AcDbMText
 10
166.9927354183213
 20
123.4770453250335
 30
0.0
 40
1.136363615387703
 41
0.0
 71
     7
 72
     1
  1
\fMS Gothic|b0|i0|c0|p34;\W0.676923;ＣＯＭ
  0
ENDBLK
  5
9B7
330
9B4
100
AcDbEntity
  8
0
100
AcDbBlockEnd
  0
BLOCK
  5
9BB
330
9B9
100
AcDbEntity
  8
0
100
AcDbBlockBegin
  2
BLOCK_386
 70
     0
 71
     0
 10
0.0
 20
0.0
 30
0.0
  3
BLOCK_386
  1

  0
MTEXT
  5
9BD
330
9B9
100
AcDbEntity
  8
GR2_01
 62
     7
100
AcDbMText
 10
40.45851235967704
 20
104.7694878210299
 30
0.0
 40
1.515151487183604
 41
0.0
 71
     7
 72
     1
  1
\fMS Gothic|b0|i0|c0|p34;\W0.52;ＦＡ１－ＴＨ１Ｅ１６Ｙ２ＲＡ２０Ｓ
 11
-4.371139000186241E-8
 21
0.999999999999999
 31
0.0
  0
ENDBLK
  5
9BC
330
9B9
100
AcDbEntity
  8
0
100
AcDbBlockEnd
  0
BLOCK
  5
9C0
330
9BE
100
AcDbEntity
  8
0
100
AcDbBlockBegin
  2
BLOCK_387
 70
     0
 71
     0
 10
0.0
 20
0.0
 30
0.0
  3
BLOCK_387
  1

  0
POLYLINE
  5
9C2
330
9BE
100
AcDbEntity
  8
GR2_01
100
AcDb2dPolyline
 66
     1
 10
0.0
 20
0.0
 30
0.0
  0
VERTEX
  5
9C3
330
9C2
100
AcDbEntity
  8
GR2_01
100
AcDbVertex
100
AcDb2dVertex
 10
172.6278781035444
 20
125.0194145737799
 30
0.0
  0
VERTEX
  5
9C4
330
9C2
100
AcDbEntity
  8
GR2_01
100
AcDbVertex
100
AcDb2dVertex
 10
170.3978677959422
 20
125.0194145737799
 30
0.0
  0
VERTEX
  5
9C5
330
9C2
100
AcDbEntity
  8
GR2_01
100
AcDbVertex
100
AcDb2dVertex
 10
170.3978677959422
 20
104.019490533891
 30
0.0
  0
VERTEX
  5
9C6
330
9C2
100
AcDbEntity
  8
GR2_01
100
AcDbVertex
100
AcDb2dVertex
 10
172.6278781035444
 20
104.019490533891
 30
0.0
  0
VERTEX
  5
9C7
330
9C2
100
AcDbEntity
  8
GR2_01
100
AcDbVertex
100
AcDb2dVertex
 10
172.6278781035444
 20
125.0194145737799
 30
0.0
  0
VERTEX
  5
9C8
330
9C2
100
AcDbEntity
  8
GR2_01
100
AcDbVertex
100
AcDb2dVertex
 10
172.6278781035444
 20
125.0194145737799
 30
0.0
  0
SEQEND
  5
9C9
330
9C2
100
AcDbEntity
  8
GR2_01
  0
HATCH
  5
9CA
330
9BE
100
AcDbEntity
  8
GR2_01
 62
     7
100
AcDbHatch
 10
0.0
 20
0.0
 30
0.0
210
0.0
220
0.0
230
1.0
  2
AI_USER_DEFINED_HATCH
 70
     0
 71
     0
 91
        1
 92
        1
 93
        4
 72
     1
 10
172.6278781035444
 20
125.0194145737799
 11
170.3978677959422
 21
125.0194145737799
 72
     1
 10
170.3978677959422
 20
125.0194145737799
 11
170.3978677959422
 21
104.019490533891
 72
     1
 10
170.3978677959422
 20
104.019490533891
 11
172.6278781035444
 21
104.019490533891
 72
     1
 10
172.6278781035444
 20
104.019490533891
 11
172.6278781035444
 21
125.0194145737799
 97
        0
 75
     0
 76
     0
 52
45.0
 41
10.0
 77
     0
 78
     1
 53
45.0
 43
0.0
 44
0.0
 45
-7.071067811865475
 46
7.071067811865476
 79
     0
 98
        0
  0
ENDBLK
  5
9C1
330
9BE
100
AcDbEntity
  8
0
100
AcDbBlockEnd
  0
BLOCK
  5
9CD
330
9CB
100
AcDbEntity
  8
0
100
AcDbBlockBegin
  2
BLOCK_388
 70
     0
 71
     0
 10
0.0
 20
0.0
 30
0.0
  3
BLOCK_388
  1

  0
MTEXT
  5
9CF
330
9CB
100
AcDbEntity
  8
GR2_01
 62
     7
100
AcDbMText
 10
41.26276990070861
 20
164.8839924717998
 30
0.0
 40
1.136363615387703
 41
0.0
 71
     7
 72
     1
  1
\fMS Gothic|b0|i0|c0|p34;\W0.676923;７５℃ ＷＩＲＥ
 11
-4.371139000186241E-8
 21
0.999999999999999
 31
0.0
  0
ENDBLK
  5
9CE
330
9CB
100
AcDbEntity
  8
0
100
AcDbBlockEnd
  0
ENDSEC
  0
SECTION
  2
ENTITIES
  0
INSERT
  5
3D
330
1F
100
AcDbEntity
  8
GR1_16
100
AcDbBlockReference
  2
BLOCK_2
 10
0.0
 20
0.0
 30
0.0
  0
INSERT
  5
45
330
1F
100
AcDbEntity
  8
GR1_16
100
AcDbBlockReference
  2
BLOCK_3
 10
0.0
 20
0.0
 30
0.0
  0
INSERT
  5
4D
330
1F
100
AcDbEntity
  8
GR1_16
100
AcDbBlockReference
  2
BLOCK_4
 10
0.0
 20
0.0
 30
0.0
  0
INSERT
  5
55
330
1F
100
AcDbEntity
  8
GR1_16
100
AcDbBlockReference
  2
BLOCK_5
 10
0.0
 20
0.0
 30
0.0
  0
INSERT
  5
5E
330
1F
100
AcDbEntity
  8
GR2_01
100
AcDbBlockReference
  2
BLOCK_6
 10
0.0
 20
0.0
 30
0.0
  0
INSERT
  5
66
330
1F
100
AcDbEntity
  8
GR2_01
100
AcDbBlockReference
  2
BLOCK_7
 10
0.0
 20
0.0
 30
0.0
  0
INSERT
  5
6B
330
1F
100
AcDbEntity
  8
GR2_01
100
AcDbBlockReference
  2
BLOCK_8
 10
0.0
 20
0.0
 30
0.0
  0
INSERT
  5
74
330
1F
100
AcDbEntity
  8
GR2_01
100
AcDbBlockReference
  2
BLOCK_9
 10
0.0
 20
0.0
 30
0.0
  0
INSERT
  5
7D
330
1F
100
AcDbEntity
  8
GR2_01
100
AcDbBlockReference
  2
BLOCK_10
 10
0.0
 20
0.0
 30
0.0
  0
INSERT
  5
82
330
1F
100
AcDbEntity
  8
GR2_01
100
AcDbBlockReference
  2
BLOCK_11
 10
0.0
 20
0.0
 30
0.0
  0
INSERT
  5
8A
330
1F
100
AcDbEntity
  8
GR2_01
100
AcDbBlockReference
  2
BLOCK_12
 10
0.0
 20
0.0
 30
0.0
  0
INSERT
  5
8F
330
1F
100
AcDbEntity
  8
GR2_01
100
AcDbBlockReference
  2
BLOCK_13
 10
0.0
 20
0.0
 30
0.0
  0
INSERT
  5
97
330
1F
100
AcDbEntity
  8
GR2_01
100
AcDbBlockReference
  2
BLOCK_14
 10
0.0
 20
0.0
 30
0.0
  0
INSERT
  5
9F
330
1F
100
AcDbEntity
  8
GR2_01
100
AcDbBlockReference
  2
BLOCK_15
 10
0.0
 20
0.0
 30
0.0
  0
INSERT
  5
A7
330
1F
100
AcDbEntity
  8
GR2_01
100
AcDbBlockReference
  2
BLOCK_16
 10
0.0
 20
0.0
 30
0.0
  0
INSERT
  5
AF
330
1F
100
AcDbEntity
  8
GR2_01
100
AcDbBlockReference
  2
BLOCK_17
 10
0.0
 20
0.0
 30
0.0
  0
INSERT
  5
B7
330
1F
100
AcDbEntity
  8
GR2_01
100
AcDbBlockReference
  2
BLOCK_18
 10
0.0
 20
0.0
 30
0.0
  0
INSERT
  5
BF
330
1F
100
AcDbEntity
  8
GR2_01
100
AcDbBlockReference
  2
BLOCK_19
 10
0.0
 20
0.0
 30
0.0
  0
INSERT
  5
C7
330
1F
100
AcDbEntity
  8
GR2_01
100
AcDbBlockReference
  2
BLOCK_20
 10
0.0
 20
0.0
 30
0.0
  0
INSERT
  5
CF
330
1F
100
AcDbEntity
  8
GR2_01
100
AcDbBlockReference
  2
BLOCK_21
 10
0.0
 20
0.0
 30
0.0
  0
INSERT
  5
D7
330
1F
100
AcDbEntity
  8
GR2_01
100
AcDbBlockReference
  2
BLOCK_22
 10
0.0
 20
0.0
 30
0.0
  0
INSERT
  5
DF
330
1F
100
AcDbEntity
  8
GR2_01
100
AcDbBlockReference
  2
BLOCK_23
 10
0.0
 20
0.0
 30
0.0
  0
INSERT
  5
E7
330
1F
100
AcDbEntity
  8
GR2_01
100
AcDbBlockReference
  2
BLOCK_24
 10
0.0
 20
0.0
 30
0.0
  0
INSERT
  5
EF
330
1F
100
AcDbEntity
  8
GR2_01
100
AcDbBlockReference
  2
BLOCK_25
 10
0.0
 20
0.0
 30
0.0
  0
INSERT
  5
F7
330
1F
100
AcDbEntity
  8
GR2_01
100
AcDbBlockReference
  2
BLOCK_26
 10
0.0
 20
0.0
 30
0.0
  0
INSERT
  5
FF
330
1F
100
AcDbEntity
  8
GR2_01
100
AcDbBlockReference
  2
BLOCK_27
 10
0.0
 20
0.0
 30
0.0
  0
INSERT
  5
107
330
1F
100
AcDbEntity
  8
GR2_01
100
AcDbBlockReference
  2
BLOCK_28
 10
0.0
 20
0.0
 30
0.0
  0
INSERT
  5
10F
330
1F
100
AcDbEntity
  8
GR2_01
100
AcDbBlockReference
  2
BLOCK_29
 10
0.0
 20
0.0
 30
0.0
  0
INSERT
  5
117
330
1F
100
AcDbEntity
  8
GR2_01
100
AcDbBlockReference
  2
BLOCK_30
 10
0.0
 20
0.0
 30
0.0
  0
INSERT
  5
11F
330
1F
100
AcDbEntity
  8
GR2_01
100
AcDbBlockReference
  2
BLOCK_31
 10
0.0
 20
0.0
 30
0.0
  0
INSERT
  5
127
330
1F
100
AcDbEntity
  8
GR2_01
100
AcDbBlockReference
  2
BLOCK_32
 10
0.0
 20
0.0
 30
0.0
  0
INSERT
  5
12F
330
1F
100
AcDbEntity
  8
GR2_01
100
AcDbBlockReference
  2
BLOCK_33
 10
0.0
 20
0.0
 30
0.0
  0
INSERT
  5
137
330
1F
100
AcDbEntity
  8
GR2_01
100
AcDbBlockReference
  2
BLOCK_34
 10
0.0
 20
0.0
 30
0.0
  0
INSERT
  5
13F
330
1F
100
AcDbEntity
  8
GR2_01
100
AcDbBlockReference
  2
BLOCK_35
 10
0.0
 20
0.0
 30
0.0
  0
INSERT
  5
147
330
1F
100
AcDbEntity
  8
GR2_01
100
AcDbBlockReference
  2
BLOCK_36
 10
0.0
 20
0.0
 30
0.0
  0
INSERT
  5
14F
330
1F
100
AcDbEntity
  8
GR2_01
100
AcDbBlockReference
  2
BLOCK_37
 10
0.0
 20
0.0
 30
0.0
  0
INSERT
  5
157
330
1F
100
AcDbEntity
  8
GR2_01
100
AcDbBlockReference
  2
BLOCK_38
 10
0.0
 20
0.0
 30
0.0
  0
INSERT
  5
15F
330
1F
100
AcDbEntity
  8
GR2_01
100
AcDbBlockReference
  2
BLOCK_39
 10
0.0
 20
0.0
 30
0.0
  0
INSERT
  5
167
330
1F
100
AcDbEntity
  8
GR2_01
100
AcDbBlockReference
  2
BLOCK_40
 10
0.0
 20
0.0
 30
0.0
  0
INSERT
  5
16F
330
1F
100
AcDbEntity
  8
GR2_01
100
AcDbBlockReference
  2
BLOCK_41
 10
0.0
 20
0.0
 30
0.0
  0
INSERT
  5
177
330
1F
100
AcDbEntity
  8
GR2_01
100
AcDbBlockReference
  2
BLOCK_42
 10
0.0
 20
0.0
 30
0.0
  0
INSERT
  5
17F
330
1F
100
AcDbEntity
  8
GR2_01
100
AcDbBlockReference
  2
BLOCK_43
 10
0.0
 20
0.0
 30
0.0
  0
INSERT
  5
187
330
1F
100
AcDbEntity
  8
GR2_01
100
AcDbBlockReference
  2
BLOCK_44
 10
0.0
 20
0.0
 30
0.0
  0
INSERT
  5
18F
330
1F
100
AcDbEntity
  8
GR2_01
100
AcDbBlockReference
  2
BLOCK_45
 10
0.0
 20
0.0
 30
0.0
  0
INSERT
  5
197
330
1F
100
AcDbEntity
  8
GR2_01
100
AcDbBlockReference
  2
BLOCK_46
 10
0.0
 20
0.0
 30
0.0
  0
INSERT
  5
19F
330
1F
100
AcDbEntity
  8
GR2_01
100
AcDbBlockReference
  2
BLOCK_47
 10
0.0
 20
0.0
 30
0.0
  0
INSERT
  5
1A7
330
1F
100
AcDbEntity
  8
GR2_01
100
AcDbBlockReference
  2
BLOCK_48
 10
0.0
 20
0.0
 30
0.0
  0
INSERT
  5
1AF
330
1F
100
AcDbEntity
  8
GR2_01
100
AcDbBlockReference
  2
BLOCK_49
 10
0.0
 20
0.0
 30
0.0
  0
INSERT
  5
1B7
330
1F
100
AcDbEntity
  8
GR2_01
100
AcDbBlockReference
  2
BLOCK_50
 10
0.0
 20
0.0
 30
0.0
  0
INSERT
  5
1BF
330
1F
100
AcDbEntity
  8
GR2_01
100
AcDbBlockReference
  2
BLOCK_51
 10
0.0
 20
0.0
 30
0.0
  0
INSERT
  5
1C7
330
1F
100
AcDbEntity
  8
GR2_01
100
AcDbBlockReference
  2
BLOCK_52
 10
0.0
 20
0.0
 30
0.0
  0
INSERT
  5
1CF
330
1F
100
AcDbEntity
  8
GR2_01
100
AcDbBlockReference
  2
BLOCK_53
 10
0.0
 20
0.0
 30
0.0
  0
INSERT
  5
1D7
330
1F
100
AcDbEntity
  8
GR2_01
100
AcDbBlockReference
  2
BLOCK_54
 10
0.0
 20
0.0
 30
0.0
  0
INSERT
  5
1DF
330
1F
100
AcDbEntity
  8
GR2_01
100
AcDbBlockReference
  2
BLOCK_55
 10
0.0
 20
0.0
 30
0.0
  0
INSERT
  5
1E7
330
1F
100
AcDbEntity
  8
GR2_01
100
AcDbBlockReference
  2
BLOCK_56
 10
0.0
 20
0.0
 30
0.0
  0
INSERT
  5
1EF
330
1F
100
AcDbEntity
  8
GR2_01
100
AcDbBlockReference
  2
BLOCK_57
 10
0.0
 20
0.0
 30
0.0
  0
INSERT
  5
1F7
330
1F
100
AcDbEntity
  8
GR2_01
100
AcDbBlockReference
  2
BLOCK_58
 10
0.0
 20
0.0
 30
0.0
  0
INSERT
  5
1FF
330
1F
100
AcDbEntity
  8
GR2_01
100
AcDbBlockReference
  2
BLOCK_59
 10
0.0
 20
0.0
 30
0.0
  0
INSERT
  5
207
330
1F
100
AcDbEntity
  8
GR2_01
100
AcDbBlockReference
  2
BLOCK_60
 10
0.0
 20
0.0
 30
0.0
  0
INSERT
  5
20F
330
1F
100
AcDbEntity
  8
GR2_01
100
AcDbBlockReference
  2
BLOCK_61
 10
0.0
 20
0.0
 30
0.0
  0
INSERT
  5
217
330
1F
100
AcDbEntity
  8
GR2_01
100
AcDbBlockReference
  2
BLOCK_62
 10
0.0
 20
0.0
 30
0.0
  0
INSERT
  5
21F
330
1F
100
AcDbEntity
  8
GR2_01
100
AcDbBlockReference
  2
BLOCK_63
 10
0.0
 20
0.0
 30
0.0
  0
INSERT
  5
227
330
1F
100
AcDbEntity
  8
GR2_01
100
AcDbBlockReference
  2
BLOCK_64
 10
0.0
 20
0.0
 30
0.0
  0
INSERT
  5
22F
330
1F
100
AcDbEntity
  8
GR2_01
100
AcDbBlockReference
  2
BLOCK_65
 10
0.0
 20
0.0
 30
0.0
  0
INSERT
  5
237
330
1F
100
AcDbEntity
  8
GR2_01
100
AcDbBlockReference
  2
BLOCK_66
 10
0.0
 20
0.0
 30
0.0
  0
INSERT
  5
23F
330
1F
100
AcDbEntity
  8
GR2_01
100
AcDbBlockReference
  2
BLOCK_67
 10
0.0
 20
0.0
 30
0.0
  0
INSERT
  5
247
330
1F
100
AcDbEntity
  8
GR2_01
100
AcDbBlockReference
  2
BLOCK_68
 10
0.0
 20
0.0
 30
0.0
  0
INSERT
  5
24F
330
1F
100
AcDbEntity
  8
GR2_01
100
AcDbBlockReference
  2
BLOCK_69
 10
0.0
 20
0.0
 30
0.0
  0
INSERT
  5
257
330
1F
100
AcDbEntity
  8
GR2_01
100
AcDbBlockReference
  2
BLOCK_70
 10
0.0
 20
0.0
 30
0.0
  0
INSERT
  5
25F
330
1F
100
AcDbEntity
  8
GR2_01
100
AcDbBlockReference
  2
BLOCK_71
 10
0.0
 20
0.0
 30
0.0
  0
INSERT
  5
267
330
1F
100
AcDbEntity
  8
GR2_01
100
AcDbBlockReference
  2
BLOCK_72
 10
0.0
 20
0.0
 30
0.0
  0
INSERT
  5
26F
330
1F
100
AcDbEntity
  8
GR2_01
100
AcDbBlockReference
  2
BLOCK_73
 10
0.0
 20
0.0
 30
0.0
  0
INSERT
  5
277
330
1F
100
AcDbEntity
  8
GR2_01
100
AcDbBlockReference
  2
BLOCK_74
 10
0.0
 20
0.0
 30
0.0
  0
INSERT
  5
27F
330
1F
100
AcDbEntity
  8
GR2_01
100
AcDbBlockReference
  2
BLOCK_75
 10
0.0
 20
0.0
 30
0.0
  0
INSERT
  5
287
330
1F
100
AcDbEntity
  8
GR2_01
100
AcDbBlockReference
  2
BLOCK_76
 10
0.0
 20
0.0
 30
0.0
  0
INSERT
  5
28F
330
1F
100
AcDbEntity
  8
GR2_01
100
AcDbBlockReference
  2
BLOCK_77
 10
0.0
 20
0.0
 30
0.0
  0
INSERT
  5
297
330
1F
100
AcDbEntity
  8
GR2_01
100
AcDbBlockReference
  2
BLOCK_78
 10
0.0
 20
0.0
 30
0.0
  0
INSERT
  5
29F
330
1F
100
AcDbEntity
  8
GR2_01
100
AcDbBlockReference
  2
BLOCK_79
 10
0.0
 20
0.0
 30
0.0
  0
INSERT
  5
2A7
330
1F
100
AcDbEntity
  8
GR2_01
100
AcDbBlockReference
  2
BLOCK_80
 10
0.0
 20
0.0
 30
0.0
  0
INSERT
  5
2AF
330
1F
100
AcDbEntity
  8
GR2_01
100
AcDbBlockReference
  2
BLOCK_81
 10
0.0
 20
0.0
 30
0.0
  0
INSERT
  5
2B7
330
1F
100
AcDbEntity
  8
GR2_01
100
AcDbBlockReference
  2
BLOCK_82
 10
0.0
 20
0.0
 30
0.0
  0
INSERT
  5
2BF
330
1F
100
AcDbEntity
  8
GR2_01
100
AcDbBlockReference
  2
BLOCK_83
 10
0.0
 20
0.0
 30
0.0
  0
INSERT
  5
2C7
330
1F
100
AcDbEntity
  8
GR2_01
100
AcDbBlockReference
  2
BLOCK_84
 10
0.0
 20
0.0
 30
0.0
  0
INSERT
  5
2CF
330
1F
100
AcDbEntity
  8
GR2_01
100
AcDbBlockReference
  2
BLOCK_85
 10
0.0
 20
0.0
 30
0.0
  0
INSERT
  5
2D7
330
1F
100
AcDbEntity
  8
GR2_01
100
AcDbBlockReference
  2
BLOCK_86
 10
0.0
 20
0.0
 30
0.0
  0
INSERT
  5
2DF
330
1F
100
AcDbEntity
  8
GR2_01
100
AcDbBlockReference
  2
BLOCK_87
 10
0.0
 20
0.0
 30
0.0
  0
INSERT
  5
2E7
330
1F
100
AcDbEntity
  8
GR2_01
100
AcDbBlockReference
  2
BLOCK_88
 10
0.0
 20
0.0
 30
0.0
  0
INSERT
  5
2EF
330
1F
100
AcDbEntity
  8
GR2_01
100
AcDbBlockReference
  2
BLOCK_89
 10
0.0
 20
0.0
 30
0.0
  0
INSERT
  5
2F7
330
1F
100
AcDbEntity
  8
GR2_01
100
AcDbBlockReference
  2
BLOCK_90
 10
0.0
 20
0.0
 30
0.0
  0
INSERT
  5
2FF
330
1F
100
AcDbEntity
  8
GR2_01
100
AcDbBlockReference
  2
BLOCK_91
 10
0.0
 20
0.0
 30
0.0
  0
INSERT
  5
304
330
1F
100
AcDbEntity
  8
GR2_01
100
AcDbBlockReference
  2
BLOCK_92
 10
0.0
 20
0.0
 30
0.0
  0
INSERT
  5
309
330
1F
100
AcDbEntity
  8
GR2_01
100
AcDbBlockReference
  2
BLOCK_93
 10
0.0
 20
0.0
 30
0.0
  0
INSERT
  5
30E
330
1F
100
AcDbEntity
  8
GR2_01
100
AcDbBlockReference
  2
BLOCK_94
 10
0.0
 20
0.0
 30
0.0
  0
INSERT
  5
313
330
1F
100
AcDbEntity
  8
GR2_01
100
AcDbBlockReference
  2
BLOCK_95
 10
0.0
 20
0.0
 30
0.0
  0
INSERT
  5
318
330
1F
100
AcDbEntity
  8
GR2_01
100
AcDbBlockReference
  2
BLOCK_96
 10
0.0
 20
0.0
 30
0.0
  0
INSERT
  5
31D
330
1F
100
AcDbEntity
  8
GR2_01
100
AcDbBlockReference
  2
BLOCK_97
 10
0.0
 20
0.0
 30
0.0
  0
INSERT
  5
322
330
1F
100
AcDbEntity
  8
GR2_01
100
AcDbBlockReference
  2
BLOCK_98
 10
0.0
 20
0.0
 30
0.0
  0
INSERT
  5
327
330
1F
100
AcDbEntity
  8
GR2_01
100
AcDbBlockReference
  2
BLOCK_99
 10
0.0
 20
0.0
 30
0.0
  0
INSERT
  5
32C
330
1F
100
AcDbEntity
  8
GR2_01
100
AcDbBlockReference
  2
BLOCK_100
 10
0.0
 20
0.0
 30
0.0
  0
INSERT
  5
331
330
1F
100
AcDbEntity
  8
GR2_01
100
AcDbBlockReference
  2
BLOCK_101
 10
0.0
 20
0.0
 30
0.0
  0
INSERT
  5
336
330
1F
100
AcDbEntity
  8
GR2_01
100
AcDbBlockReference
  2
BLOCK_102
 10
0.0
 20
0.0
 30
0.0
  0
INSERT
  5
33B
330
1F
100
AcDbEntity
  8
GR2_01
100
AcDbBlockReference
  2
BLOCK_103
 10
0.0
 20
0.0
 30
0.0
  0
INSERT
  5
340
330
1F
100
AcDbEntity
  8
GR2_01
100
AcDbBlockReference
  2
BLOCK_104
 10
0.0
 20
0.0
 30
0.0
  0
INSERT
  5
345
330
1F
100
AcDbEntity
  8
GR2_01
100
AcDbBlockReference
  2
BLOCK_105
 10
0.0
 20
0.0
 30
0.0
  0
INSERT
  5
34A
330
1F
100
AcDbEntity
  8
GR2_01
100
AcDbBlockReference
  2
BLOCK_106
 10
0.0
 20
0.0
 30
0.0
  0
INSERT
  5
34F
330
1F
100
AcDbEntity
  8
GR2_01
100
AcDbBlockReference
  2
BLOCK_107
 10
0.0
 20
0.0
 30
0.0
  0
INSERT
  5
354
330
1F
100
AcDbEntity
  8
GR2_01
100
AcDbBlockReference
  2
BLOCK_108
 10
0.0
 20
0.0
 30
0.0
  0
INSERT
  5
359
330
1F
100
AcDbEntity
  8
GR2_01
100
AcDbBlockReference
  2
BLOCK_109
 10
0.0
 20
0.0
 30
0.0
  0
INSERT
  5
35E
330
1F
100
AcDbEntity
  8
GR2_01
100
AcDbBlockReference
  2
BLOCK_110
 10
0.0
 20
0.0
 30
0.0
  0
INSERT
  5
363
330
1F
100
AcDbEntity
  8
GR2_01
100
AcDbBlockReference
  2
BLOCK_111
 10
0.0
 20
0.0
 30
0.0
  0
INSERT
  5
368
330
1F
100
AcDbEntity
  8
GR2_01
100
AcDbBlockReference
  2
BLOCK_112
 10
0.0
 20
0.0
 30
0.0
  0
INSERT
  5
36D
330
1F
100
AcDbEntity
  8
GR2_01
100
AcDbBlockReference
  2
BLOCK_113
 10
0.0
 20
0.0
 30
0.0
  0
INSERT
  5
372
330
1F
100
AcDbEntity
  8
GR2_01
100
AcDbBlockReference
  2
BLOCK_114
 10
0.0
 20
0.0
 30
0.0
  0
INSERT
  5
377
330
1F
100
AcDbEntity
  8
GR2_01
100
AcDbBlockReference
  2
BLOCK_115
 10
0.0
 20
0.0
 30
0.0
  0
INSERT
  5
37C
330
1F
100
AcDbEntity
  8
GR2_01
100
AcDbBlockReference
  2
BLOCK_116
 10
0.0
 20
0.0
 30
0.0
  0
INSERT
  5
381
330
1F
100
AcDbEntity
  8
GR2_01
100
AcDbBlockReference
  2
BLOCK_117
 10
0.0
 20
0.0
 30
0.0
  0
INSERT
  5
386
330
1F
100
AcDbEntity
  8
GR2_01
100
AcDbBlockReference
  2
BLOCK_118
 10
0.0
 20
0.0
 30
0.0
  0
INSERT
  5
38B
330
1F
100
AcDbEntity
  8
GR2_01
100
AcDbBlockReference
  2
BLOCK_119
 10
0.0
 20
0.0
 30
0.0
  0
INSERT
  5
390
330
1F
100
AcDbEntity
  8
GR2_01
100
AcDbBlockReference
  2
BLOCK_120
 10
0.0
 20
0.0
 30
0.0
  0
INSERT
  5
395
330
1F
100
AcDbEntity
  8
GR2_01
100
AcDbBlockReference
  2
BLOCK_121
 10
0.0
 20
0.0
 30
0.0
  0
INSERT
  5
39A
330
1F
100
AcDbEntity
  8
GR2_01
100
AcDbBlockReference
  2
BLOCK_122
 10
0.0
 20
0.0
 30
0.0
  0
INSERT
  5
39F
330
1F
100
AcDbEntity
  8
GR2_01
100
AcDbBlockReference
  2
BLOCK_123
 10
0.0
 20
0.0
 30
0.0
  0
INSERT
  5
3A4
330
1F
100
AcDbEntity
  8
GR2_01
100
AcDbBlockReference
  2
BLOCK_124
 10
0.0
 20
0.0
 30
0.0
  0
INSERT
  5
3A9
330
1F
100
AcDbEntity
  8
GR2_01
100
AcDbBlockReference
  2
BLOCK_125
 10
0.0
 20
0.0
 30
0.0
  0
INSERT
  5
3AE
330
1F
100
AcDbEntity
  8
GR2_01
100
AcDbBlockReference
  2
BLOCK_126
 10
0.0
 20
0.0
 30
0.0
  0
INSERT
  5
3B3
330
1F
100
AcDbEntity
  8
GR2_01
100
AcDbBlockReference
  2
BLOCK_127
 10
0.0
 20
0.0
 30
0.0
  0
INSERT
  5
3B8
330
1F
100
AcDbEntity
  8
GR2_01
100
AcDbBlockReference
  2
BLOCK_128
 10
0.0
 20
0.0
 30
0.0
  0
INSERT
  5
3BD
330
1F
100
AcDbEntity
  8
GR2_01
100
AcDbBlockReference
  2
BLOCK_129
 10
0.0
 20
0.0
 30
0.0
  0
INSERT
  5
3C2
330
1F
100
AcDbEntity
  8
GR2_01
100
AcDbBlockReference
  2
BLOCK_130
 10
0.0
 20
0.0
 30
0.0
  0
INSERT
  5
3C7
330
1F
100
AcDbEntity
  8
GR2_01
100
AcDbBlockReference
  2
BLOCK_131
 10
0.0
 20
0.0
 30
0.0
  0
INSERT
  5
3CC
330
1F
100
AcDbEntity
  8
GR2_01
100
AcDbBlockReference
  2
BLOCK_132
 10
0.0
 20
0.0
 30
0.0
  0
INSERT
  5
3D1
330
1F
100
AcDbEntity
  8
GR2_01
100
AcDbBlockReference
  2
BLOCK_133
 10
0.0
 20
0.0
 30
0.0
  0
INSERT
  5
3D6
330
1F
100
AcDbEntity
  8
GR2_01
100
AcDbBlockReference
  2
BLOCK_134
 10
0.0
 20
0.0
 30
0.0
  0
INSERT
  5
3DB
330
1F
100
AcDbEntity
  8
GR2_01
100
AcDbBlockReference
  2
BLOCK_135
 10
0.0
 20
0.0
 30
0.0
  0
INSERT
  5
3E0
330
1F
100
AcDbEntity
  8
GR2_01
100
AcDbBlockReference
  2
BLOCK_136
 10
0.0
 20
0.0
 30
0.0
  0
INSERT
  5
3E5
330
1F
100
AcDbEntity
  8
GR2_01
100
AcDbBlockReference
  2
BLOCK_137
 10
0.0
 20
0.0
 30
0.0
  0
INSERT
  5
3EA
330
1F
100
AcDbEntity
  8
GR2_01
100
AcDbBlockReference
  2
BLOCK_138
 10
0.0
 20
0.0
 30
0.0
  0
INSERT
  5
3EF
330
1F
100
AcDbEntity
  8
GR2_01
100
AcDbBlockReference
  2
BLOCK_139
 10
0.0
 20
0.0
 30
0.0
  0
INSERT
  5
3F4
330
1F
100
AcDbEntity
  8
GR2_01
100
AcDbBlockReference
  2
BLOCK_140
 10
0.0
 20
0.0
 30
0.0
  0
INSERT
  5
3F9
330
1F
100
AcDbEntity
  8
GR2_01
100
AcDbBlockReference
  2
BLOCK_141
 10
0.0
 20
0.0
 30
0.0
  0
INSERT
  5
3FE
330
1F
100
AcDbEntity
  8
GR2_01
100
AcDbBlockReference
  2
BLOCK_142
 10
0.0
 20
0.0
 30
0.0
  0
INSERT
  5
403
330
1F
100
AcDbEntity
  8
GR2_01
100
AcDbBlockReference
  2
BLOCK_143
 10
0.0
 20
0.0
 30
0.0
  0
INSERT
  5
408
330
1F
100
AcDbEntity
  8
GR2_01
100
AcDbBlockReference
  2
BLOCK_144
 10
0.0
 20
0.0
 30
0.0
  0
INSERT
  5
40D
330
1F
100
AcDbEntity
  8
GR2_01
100
AcDbBlockReference
  2
BLOCK_145
 10
0.0
 20
0.0
 30
0.0
  0
INSERT
  5
412
330
1F
100
AcDbEntity
  8
GR2_01
100
AcDbBlockReference
  2
BLOCK_146
 10
0.0
 20
0.0
 30
0.0
  0
INSERT
  5
417
330
1F
100
AcDbEntity
  8
GR2_01
100
AcDbBlockReference
  2
BLOCK_147
 10
0.0
 20
0.0
 30
0.0
  0
INSERT
  5
41C
330
1F
100
AcDbEntity
  8
GR2_01
100
AcDbBlockReference
  2
BLOCK_148
 10
0.0
 20
0.0
 30
0.0
  0
INSERT
  5
421
330
1F
100
AcDbEntity
  8
GR2_01
100
AcDbBlockReference
  2
BLOCK_149
 10
0.0
 20
0.0
 30
0.0
  0
INSERT
  5
426
330
1F
100
AcDbEntity
  8
GR2_01
100
AcDbBlockReference
  2
BLOCK_150
 10
0.0
 20
0.0
 30
0.0
  0
INSERT
  5
42B
330
1F
100
AcDbEntity
  8
GR2_01
100
AcDbBlockReference
  2
BLOCK_151
 10
0.0
 20
0.0
 30
0.0
  0
INSERT
  5
430
330
1F
100
AcDbEntity
  8
GR2_01
100
AcDbBlockReference
  2
BLOCK_152
 10
0.0
 20
0.0
 30
0.0
  0
INSERT
  5
435
330
1F
100
AcDbEntity
  8
GR2_01
100
AcDbBlockReference
  2
BLOCK_153
 10
0.0
 20
0.0
 30
0.0
  0
INSERT
  5
43A
330
1F
100
AcDbEntity
  8
GR2_01
100
AcDbBlockReference
  2
BLOCK_154
 10
0.0
 20
0.0
 30
0.0
  0
INSERT
  5
43F
330
1F
100
AcDbEntity
  8
GR2_01
100
AcDbBlockReference
  2
BLOCK_155
 10
0.0
 20
0.0
 30
0.0
  0
INSERT
  5
444
330
1F
100
AcDbEntity
  8
GR2_01
100
AcDbBlockReference
  2
BLOCK_156
 10
0.0
 20
0.0
 30
0.0
  0
INSERT
  5
449
330
1F
100
AcDbEntity
  8
GR2_01
100
AcDbBlockReference
  2
BLOCK_157
 10
0.0
 20
0.0
 30
0.0
  0
INSERT
  5
44E
330
1F
100
AcDbEntity
  8
GR2_01
100
AcDbBlockReference
  2
BLOCK_158
 10
0.0
 20
0.0
 30
0.0
  0
INSERT
  5
453
330
1F
100
AcDbEntity
  8
GR2_01
100
AcDbBlockReference
  2
BLOCK_159
 10
0.0
 20
0.0
 30
0.0
  0
INSERT
  5
458
330
1F
100
AcDbEntity
  8
GR2_01
100
AcDbBlockReference
  2
BLOCK_160
 10
0.0
 20
0.0
 30
0.0
  0
INSERT
  5
45D
330
1F
100
AcDbEntity
  8
GR2_01
100
AcDbBlockReference
  2
BLOCK_161
 10
0.0
 20
0.0
 30
0.0
  0
INSERT
  5
462
330
1F
100
AcDbEntity
  8
GR2_01
100
AcDbBlockReference
  2
BLOCK_162
 10
0.0
 20
0.0
 30
0.0
  0
INSERT
  5
467
330
1F
100
AcDbEntity
  8
GR2_01
100
AcDbBlockReference
  2
BLOCK_163
 10
0.0
 20
0.0
 30
0.0
  0
INSERT
  5
46C
330
1F
100
AcDbEntity
  8
GR2_01
100
AcDbBlockReference
  2
BLOCK_164
 10
0.0
 20
0.0
 30
0.0
  0
INSERT
  5
471
330
1F
100
AcDbEntity
  8
GR2_01
100
AcDbBlockReference
  2
BLOCK_165
 10
0.0
 20
0.0
 30
0.0
  0
INSERT
  5
476
330
1F
100
AcDbEntity
  8
GR2_01
100
AcDbBlockReference
  2
BLOCK_166
 10
0.0
 20
0.0
 30
0.0
  0
INSERT
  5
47B
330
1F
100
AcDbEntity
  8
GR2_01
100
AcDbBlockReference
  2
BLOCK_167
 10
0.0
 20
0.0
 30
0.0
  0
INSERT
  5
480
330
1F
100
AcDbEntity
  8
GR2_01
100
AcDbBlockReference
  2
BLOCK_168
 10
0.0
 20
0.0
 30
0.0
  0
INSERT
  5
485
330
1F
100
AcDbEntity
  8
GR2_01
100
AcDbBlockReference
  2
BLOCK_169
 10
0.0
 20
0.0
 30
0.0
  0
INSERT
  5
48A
330
1F
100
AcDbEntity
  8
GR2_01
100
AcDbBlockReference
  2
BLOCK_170
 10
0.0
 20
0.0
 30
0.0
  0
INSERT
  5
48F
330
1F
100
AcDbEntity
  8
GR2_01
100
AcDbBlockReference
  2
BLOCK_171
 10
0.0
 20
0.0
 30
0.0
  0
INSERT
  5
494
330
1F
100
AcDbEntity
  8
GR2_01
100
AcDbBlockReference
  2
BLOCK_172
 10
0.0
 20
0.0
 30
0.0
  0
INSERT
  5
499
330
1F
100
AcDbEntity
  8
GR2_01
100
AcDbBlockReference
  2
BLOCK_173
 10
0.0
 20
0.0
 30
0.0
  0
INSERT
  5
49E
330
1F
100
AcDbEntity
  8
GR2_01
100
AcDbBlockReference
  2
BLOCK_174
 10
0.0
 20
0.0
 30
0.0
  0
INSERT
  5
4A3
330
1F
100
AcDbEntity
  8
GR2_01
100
AcDbBlockReference
  2
BLOCK_175
 10
0.0
 20
0.0
 30
0.0
  0
INSERT
  5
4A8
330
1F
100
AcDbEntity
  8
GR2_01
100
AcDbBlockReference
  2
BLOCK_176
 10
0.0
 20
0.0
 30
0.0
  0
INSERT
  5
4AD
330
1F
100
AcDbEntity
  8
GR2_01
100
AcDbBlockReference
  2
BLOCK_177
 10
0.0
 20
0.0
 30
0.0
  0
INSERT
  5
4B2
330
1F
100
AcDbEntity
  8
GR2_01
100
AcDbBlockReference
  2
BLOCK_178
 10
0.0
 20
0.0
 30
0.0
  0
INSERT
  5
4B7
330
1F
100
AcDbEntity
  8
GR2_01
100
AcDbBlockReference
  2
BLOCK_179
 10
0.0
 20
0.0
 30
0.0
  0
INSERT
  5
4BC
330
1F
100
AcDbEntity
  8
GR2_01
100
AcDbBlockReference
  2
BLOCK_180
 10
0.0
 20
0.0
 30
0.0
  0
INSERT
  5
4C1
330
1F
100
AcDbEntity
  8
GR2_01
100
AcDbBlockReference
  2
BLOCK_181
 10
0.0
 20
0.0
 30
0.0
  0
INSERT
  5
4C6
330
1F
100
AcDbEntity
  8
GR2_01
100
AcDbBlockReference
  2
BLOCK_182
 10
0.0
 20
0.0
 30
0.0
  0
INSERT
  5
4CB
330
1F
100
AcDbEntity
  8
GR2_01
100
AcDbBlockReference
  2
BLOCK_183
 10
0.0
 20
0.0
 30
0.0
  0
INSERT
  5
4D0
330
1F
100
AcDbEntity
  8
GR2_01
100
AcDbBlockReference
  2
BLOCK_184
 10
0.0
 20
0.0
 30
0.0
  0
INSERT
  5
4D5
330
1F
100
AcDbEntity
  8
GR2_01
100
AcDbBlockReference
  2
BLOCK_185
 10
0.0
 20
0.0
 30
0.0
  0
INSERT
  5
4DA
330
1F
100
AcDbEntity
  8
GR2_01
100
AcDbBlockReference
  2
BLOCK_186
 10
0.0
 20
0.0
 30
0.0
  0
INSERT
  5
4DF
330
1F
100
AcDbEntity
  8
GR2_01
100
AcDbBlockReference
  2
BLOCK_187
 10
0.0
 20
0.0
 30
0.0
  0
INSERT
  5
4E4
330
1F
100
AcDbEntity
  8
GR2_01
100
AcDbBlockReference
  2
BLOCK_188
 10
0.0
 20
0.0
 30
0.0
  0
INSERT
  5
4E9
330
1F
100
AcDbEntity
  8
GR2_01
100
AcDbBlockReference
  2
BLOCK_189
 10
0.0
 20
0.0
 30
0.0
  0
INSERT
  5
4EE
330
1F
100
AcDbEntity
  8
GR2_01
100
AcDbBlockReference
  2
BLOCK_190
 10
0.0
 20
0.0
 30
0.0
  0
INSERT
  5
4F3
330
1F
100
AcDbEntity
  8
GR2_01
100
AcDbBlockReference
  2
BLOCK_191
 10
0.0
 20
0.0
 30
0.0
  0
INSERT
  5
4F8
330
1F
100
AcDbEntity
  8
GR2_01
100
AcDbBlockReference
  2
BLOCK_192
 10
0.0
 20
0.0
 30
0.0
  0
INSERT
  5
4FD
330
1F
100
AcDbEntity
  8
GR2_01
100
AcDbBlockReference
  2
BLOCK_193
 10
0.0
 20
0.0
 30
0.0
  0
INSERT
  5
502
330
1F
100
AcDbEntity
  8
GR2_01
100
AcDbBlockReference
  2
BLOCK_194
 10
0.0
 20
0.0
 30
0.0
  0
INSERT
  5
507
330
1F
100
AcDbEntity
  8
GR2_01
100
AcDbBlockReference
  2
BLOCK_195
 10
0.0
 20
0.0
 30
0.0
  0
INSERT
  5
50C
330
1F
100
AcDbEntity
  8
GR2_01
100
AcDbBlockReference
  2
BLOCK_196
 10
0.0
 20
0.0
 30
0.0
  0
INSERT
  5
511
330
1F
100
AcDbEntity
  8
GR2_01
100
AcDbBlockReference
  2
BLOCK_197
 10
0.0
 20
0.0
 30
0.0
  0
INSERT
  5
516
330
1F
100
AcDbEntity
  8
GR2_01
100
AcDbBlockReference
  2
BLOCK_198
 10
0.0
 20
0.0
 30
0.0
  0
INSERT
  5
51E
330
1F
100
AcDbEntity
  8
GR2_01
100
AcDbBlockReference
  2
BLOCK_199
 10
0.0
 20
0.0
 30
0.0
  0
INSERT
  5
52B
330
1F
100
AcDbEntity
  8
GR2_01
100
AcDbBlockReference
  2
BLOCK_200
 10
0.0
 20
0.0
 30
0.0
  0
INSERT
  5
533
330
1F
100
AcDbEntity
  8
GR2_01
100
AcDbBlockReference
  2
BLOCK_201
 10
0.0
 20
0.0
 30
0.0
  0
INSERT
  5
53B
330
1F
100
AcDbEntity
  8
GR2_01
100
AcDbBlockReference
  2
BLOCK_202
 10
0.0
 20
0.0
 30
0.0
  0
INSERT
  5
543
330
1F
100
AcDbEntity
  8
GR2_01
100
AcDbBlockReference
  2
BLOCK_203
 10
0.0
 20
0.0
 30
0.0
  0
INSERT
  5
54B
330
1F
100
AcDbEntity
  8
GR2_01
100
AcDbBlockReference
  2
BLOCK_204
 10
0.0
 20
0.0
 30
0.0
  0
INSERT
  5
553
330
1F
100
AcDbEntity
  8
GR2_01
100
AcDbBlockReference
  2
BLOCK_205
 10
0.0
 20
0.0
 30
0.0
  0
INSERT
  5
55B
330
1F
100
AcDbEntity
  8
GR2_01
100
AcDbBlockReference
  2
BLOCK_206
 10
0.0
 20
0.0
 30
0.0
  0
INSERT
  5
563
330
1F
100
AcDbEntity
  8
GR2_01
100
AcDbBlockReference
  2
BLOCK_207
 10
0.0
 20
0.0
 30
0.0
  0
INSERT
  5
56B
330
1F
100
AcDbEntity
  8
GR2_01
100
AcDbBlockReference
  2
BLOCK_208
 10
0.0
 20
0.0
 30
0.0
  0
INSERT
  5
573
330
1F
100
AcDbEntity
  8
GR2_01
100
AcDbBlockReference
  2
BLOCK_209
 10
0.0
 20
0.0
 30
0.0
  0
INSERT
  5
57B
330
1F
100
AcDbEntity
  8
GR2_01
100
AcDbBlockReference
  2
BLOCK_210
 10
0.0
 20
0.0
 30
0.0
  0
INSERT
  5
583
330
1F
100
AcDbEntity
  8
GR2_01
100
AcDbBlockReference
  2
BLOCK_211
 10
0.0
 20
0.0
 30
0.0
  0
INSERT
  5
58B
330
1F
100
AcDbEntity
  8
GR2_01
100
AcDbBlockReference
  2
BLOCK_212
 10
0.0
 20
0.0
 30
0.0
  0
INSERT
  5
593
330
1F
100
AcDbEntity
  8
GR2_01
100
AcDbBlockReference
  2
BLOCK_213
 10
0.0
 20
0.0
 30
0.0
  0
INSERT
  5
59B
330
1F
100
AcDbEntity
  8
GR2_01
100
AcDbBlockReference
  2
BLOCK_214
 10
0.0
 20
0.0
 30
0.0
  0
INSERT
  5
5A3
330
1F
100
AcDbEntity
  8
GR2_01
100
AcDbBlockReference
  2
BLOCK_215
 10
0.0
 20
0.0
 30
0.0
  0
INSERT
  5
5AB
330
1F
100
AcDbEntity
  8
GR2_01
100
AcDbBlockReference
  2
BLOCK_216
 10
0.0
 20
0.0
 30
0.0
  0
INSERT
  5
5B3
330
1F
100
AcDbEntity
  8
GR2_01
100
AcDbBlockReference
  2
BLOCK_217
 10
0.0
 20
0.0
 30
0.0
  0
INSERT
  5
5BB
330
1F
100
AcDbEntity
  8
GR2_01
100
AcDbBlockReference
  2
BLOCK_218
 10
0.0
 20
0.0
 30
0.0
  0
INSERT
  5
5C3
330
1F
100
AcDbEntity
  8
GR2_01
100
AcDbBlockReference
  2
BLOCK_219
 10
0.0
 20
0.0
 30
0.0
  0
INSERT
  5
5CB
330
1F
100
AcDbEntity
  8
GR2_01
100
AcDbBlockReference
  2
BLOCK_220
 10
0.0
 20
0.0
 30
0.0
  0
INSERT
  5
5D3
330
1F
100
AcDbEntity
  8
GR2_01
100
AcDbBlockReference
  2
BLOCK_221
 10
0.0
 20
0.0
 30
0.0
  0
INSERT
  5
5DB
330
1F
100
AcDbEntity
  8
GR2_01
100
AcDbBlockReference
  2
BLOCK_222
 10
0.0
 20
0.0
 30
0.0
  0
INSERT
  5
5E3
330
1F
100
AcDbEntity
  8
GR2_01
100
AcDbBlockReference
  2
BLOCK_223
 10
0.0
 20
0.0
 30
0.0
  0
INSERT
  5
5EB
330
1F
100
AcDbEntity
  8
GR2_01
100
AcDbBlockReference
  2
BLOCK_224
 10
0.0
 20
0.0
 30
0.0
  0
INSERT
  5
5F3
330
1F
100
AcDbEntity
  8
GR2_01
100
AcDbBlockReference
  2
BLOCK_225
 10
0.0
 20
0.0
 30
0.0
  0
INSERT
  5
5FB
330
1F
100
AcDbEntity
  8
GR2_01
100
AcDbBlockReference
  2
BLOCK_226
 10
0.0
 20
0.0
 30
0.0
  0
INSERT
  5
603
330
1F
100
AcDbEntity
  8
GR2_01
100
AcDbBlockReference
  2
BLOCK_227
 10
0.0
 20
0.0
 30
0.0
  0
INSERT
  5
60B
330
1F
100
AcDbEntity
  8
GR2_01
100
AcDbBlockReference
  2
BLOCK_228
 10
0.0
 20
0.0
 30
0.0
  0
INSERT
  5
613
330
1F
100
AcDbEntity
  8
GR2_01
100
AcDbBlockReference
  2
BLOCK_229
 10
0.0
 20
0.0
 30
0.0
  0
INSERT
  5
61B
330
1F
100
AcDbEntity
  8
GR2_01
100
AcDbBlockReference
  2
BLOCK_230
 10
0.0
 20
0.0
 30
0.0
  0
INSERT
  5
623
330
1F
100
AcDbEntity
  8
GR2_01
100
AcDbBlockReference
  2
BLOCK_231
 10
0.0
 20
0.0
 30
0.0
  0
INSERT
  5
62B
330
1F
100
AcDbEntity
  8
GR2_01
100
AcDbBlockReference
  2
BLOCK_232
 10
0.0
 20
0.0
 30
0.0
  0
INSERT
  5
633
330
1F
100
AcDbEntity
  8
GR2_01
100
AcDbBlockReference
  2
BLOCK_233
 10
0.0
 20
0.0
 30
0.0
  0
INSERT
  5
63B
330
1F
100
AcDbEntity
  8
GR2_01
100
AcDbBlockReference
  2
BLOCK_234
 10
0.0
 20
0.0
 30
0.0
  0
INSERT
  5
643
330
1F
100
AcDbEntity
  8
GR2_01
100
AcDbBlockReference
  2
BLOCK_235
 10
0.0
 20
0.0
 30
0.0
  0
INSERT
  5
64B
330
1F
100
AcDbEntity
  8
GR2_01
100
AcDbBlockReference
  2
BLOCK_236
 10
0.0
 20
0.0
 30
0.0
  0
INSERT
  5
653
330
1F
100
AcDbEntity
  8
GR2_01
100
AcDbBlockReference
  2
BLOCK_237
 10
0.0
 20
0.0
 30
0.0
  0
INSERT
  5
65B
330
1F
100
AcDbEntity
  8
GR2_01
100
AcDbBlockReference
  2
BLOCK_238
 10
0.0
 20
0.0
 30
0.0
  0
INSERT
  5
660
330
1F
100
AcDbEntity
  8
GR2_01
100
AcDbBlockReference
  2
BLOCK_239
 10
0.0
 20
0.0
 30
0.0
  0
INSERT
  5
665
330
1F
100
AcDbEntity
  8
GR2_01
100
AcDbBlockReference
  2
BLOCK_240
 10
0.0
 20
0.0
 30
0.0
  0
INSERT
  5
66A
330
1F
100
AcDbEntity
  8
GR2_01
100
AcDbBlockReference
  2
BLOCK_241
 10
0.0
 20
0.0
 30
0.0
  0
INSERT
  5
66F
330
1F
100
AcDbEntity
  8
GR2_01
100
AcDbBlockReference
  2
BLOCK_242
 10
0.0
 20
0.0
 30
0.0
  0
INSERT
  5
674
330
1F
100
AcDbEntity
  8
GR2_01
100
AcDbBlockReference
  2
BLOCK_243
 10
0.0
 20
0.0
 30
0.0
  0
INSERT
  5
679
330
1F
100
AcDbEntity
  8
GR2_01
100
AcDbBlockReference
  2
BLOCK_244
 10
0.0
 20
0.0
 30
0.0
  0
INSERT
  5
67E
330
1F
100
AcDbEntity
  8
GR2_01
100
AcDbBlockReference
  2
BLOCK_245
 10
0.0
 20
0.0
 30
0.0
  0
INSERT
  5
683
330
1F
100
AcDbEntity
  8
GR2_01
100
AcDbBlockReference
  2
BLOCK_246
 10
0.0
 20
0.0
 30
0.0
  0
INSERT
  5
688
330
1F
100
AcDbEntity
  8
GR2_01
100
AcDbBlockReference
  2
BLOCK_247
 10
0.0
 20
0.0
 30
0.0
  0
INSERT
  5
68D
330
1F
100
AcDbEntity
  8
GR2_01
100
AcDbBlockReference
  2
BLOCK_248
 10
0.0
 20
0.0
 30
0.0
  0
INSERT
  5
692
330
1F
100
AcDbEntity
  8
GR2_01
100
AcDbBlockReference
  2
BLOCK_249
 10
0.0
 20
0.0
 30
0.0
  0
INSERT
  5
697
330
1F
100
AcDbEntity
  8
GR2_01
100
AcDbBlockReference
  2
BLOCK_250
 10
0.0
 20
0.0
 30
0.0
  0
INSERT
  5
69C
330
1F
100
AcDbEntity
  8
GR2_01
100
AcDbBlockReference
  2
BLOCK_251
 10
0.0
 20
0.0
 30
0.0
  0
INSERT
  5
6A1
330
1F
100
AcDbEntity
  8
GR2_01
100
AcDbBlockReference
  2
BLOCK_252
 10
0.0
 20
0.0
 30
0.0
  0
INSERT
  5
6A6
330
1F
100
AcDbEntity
  8
GR2_01
100
AcDbBlockReference
  2
BLOCK_253
 10
0.0
 20
0.0
 30
0.0
  0
INSERT
  5
6AB
330
1F
100
AcDbEntity
  8
GR2_01
100
AcDbBlockReference
  2
BLOCK_254
 10
0.0
 20
0.0
 30
0.0
  0
INSERT
  5
6B0
330
1F
100
AcDbEntity
  8
GR2_01
100
AcDbBlockReference
  2
BLOCK_255
 10
0.0
 20
0.0
 30
0.0
  0
INSERT
  5
6B5
330
1F
100
AcDbEntity
  8
GR2_01
100
AcDbBlockReference
  2
BLOCK_256
 10
0.0
 20
0.0
 30
0.0
  0
INSERT
  5
6BA
330
1F
100
AcDbEntity
  8
GR2_01
100
AcDbBlockReference
  2
BLOCK_257
 10
0.0
 20
0.0
 30
0.0
  0
INSERT
  5
6BF
330
1F
100
AcDbEntity
  8
GR2_01
100
AcDbBlockReference
  2
BLOCK_258
 10
0.0
 20
0.0
 30
0.0
  0
INSERT
  5
6C4
330
1F
100
AcDbEntity
  8
GR2_01
100
AcDbBlockReference
  2
BLOCK_259
 10
0.0
 20
0.0
 30
0.0
  0
INSERT
  5
6C9
330
1F
100
AcDbEntity
  8
GR2_01
100
AcDbBlockReference
  2
BLOCK_260
 10
0.0
 20
0.0
 30
0.0
  0
INSERT
  5
6CE
330
1F
100
AcDbEntity
  8
GR2_01
100
AcDbBlockReference
  2
BLOCK_261
 10
0.0
 20
0.0
 30
0.0
  0
INSERT
  5
6D3
330
1F
100
AcDbEntity
  8
GR2_01
100
AcDbBlockReference
  2
BLOCK_262
 10
0.0
 20
0.0
 30
0.0
  0
INSERT
  5
6D8
330
1F
100
AcDbEntity
  8
GR2_01
100
AcDbBlockReference
  2
BLOCK_263
 10
0.0
 20
0.0
 30
0.0
  0
INSERT
  5
6DD
330
1F
100
AcDbEntity
  8
GR2_01
100
AcDbBlockReference
  2
BLOCK_264
 10
0.0
 20
0.0
 30
0.0
  0
INSERT
  5
6E2
330
1F
100
AcDbEntity
  8
GR2_01
100
AcDbBlockReference
  2
BLOCK_265
 10
0.0
 20
0.0
 30
0.0
  0
INSERT
  5
6E7
330
1F
100
AcDbEntity
  8
GR2_01
100
AcDbBlockReference
  2
BLOCK_266
 10
0.0
 20
0.0
 30
0.0
  0
INSERT
  5
6EC
330
1F
100
AcDbEntity
  8
GR2_01
100
AcDbBlockReference
  2
BLOCK_267
 10
0.0
 20
0.0
 30
0.0
  0
INSERT
  5
6F1
330
1F
100
AcDbEntity
  8
GR2_01
100
AcDbBlockReference
  2
BLOCK_268
 10
0.0
 20
0.0
 30
0.0
  0
INSERT
  5
6F6
330
1F
100
AcDbEntity
  8
GR2_01
100
AcDbBlockReference
  2
BLOCK_269
 10
0.0
 20
0.0
 30
0.0
  0
INSERT
  5
6FB
330
1F
100
AcDbEntity
  8
GR2_01
100
AcDbBlockReference
  2
BLOCK_270
 10
0.0
 20
0.0
 30
0.0
  0
INSERT
  5
700
330
1F
100
AcDbEntity
  8
GR2_01
100
AcDbBlockReference
  2
BLOCK_271
 10
0.0
 20
0.0
 30
0.0
  0
INSERT
  5
705
330
1F
100
AcDbEntity
  8
GR2_01
100
AcDbBlockReference
  2
BLOCK_272
 10
0.0
 20
0.0
 30
0.0
  0
INSERT
  5
70A
330
1F
100
AcDbEntity
  8
GR2_01
100
AcDbBlockReference
  2
BLOCK_273
 10
0.0
 20
0.0
 30
0.0
  0
INSERT
  5
70F
330
1F
100
AcDbEntity
  8
GR2_01
100
AcDbBlockReference
  2
BLOCK_274
 10
0.0
 20
0.0
 30
0.0
  0
INSERT
  5
714
330
1F
100
AcDbEntity
  8
GR2_01
100
AcDbBlockReference
  2
BLOCK_275
 10
0.0
 20
0.0
 30
0.0
  0
INSERT
  5
719
330
1F
100
AcDbEntity
  8
GR2_01
100
AcDbBlockReference
  2
BLOCK_276
 10
0.0
 20
0.0
 30
0.0
  0
INSERT
  5
71E
330
1F
100
AcDbEntity
  8
GR2_01
100
AcDbBlockReference
  2
BLOCK_277
 10
0.0
 20
0.0
 30
0.0
  0
INSERT
  5
723
330
1F
100
AcDbEntity
  8
GR2_01
100
AcDbBlockReference
  2
BLOCK_278
 10
0.0
 20
0.0
 30
0.0
  0
INSERT
  5
728
330
1F
100
AcDbEntity
  8
GR2_01
100
AcDbBlockReference
  2
BLOCK_279
 10
0.0
 20
0.0
 30
0.0
  0
INSERT
  5
72D
330
1F
100
AcDbEntity
  8
GR2_01
100
AcDbBlockReference
  2
BLOCK_280
 10
0.0
 20
0.0
 30
0.0
  0
INSERT
  5
732
330
1F
100
AcDbEntity
  8
GR2_01
100
AcDbBlockReference
  2
BLOCK_281
 10
0.0
 20
0.0
 30
0.0
  0
INSERT
  5
737
330
1F
100
AcDbEntity
  8
GR2_01
100
AcDbBlockReference
  2
BLOCK_282
 10
0.0
 20
0.0
 30
0.0
  0
INSERT
  5
73C
330
1F
100
AcDbEntity
  8
GR2_01
100
AcDbBlockReference
  2
BLOCK_283
 10
0.0
 20
0.0
 30
0.0
  0
INSERT
  5
741
330
1F
100
AcDbEntity
  8
GR2_01
100
AcDbBlockReference
  2
BLOCK_284
 10
0.0
 20
0.0
 30
0.0
  0
INSERT
  5
746
330
1F
100
AcDbEntity
  8
GR2_01
100
AcDbBlockReference
  2
BLOCK_285
 10
0.0
 20
0.0
 30
0.0
  0
INSERT
  5
74B
330
1F
100
AcDbEntity
  8
GR2_01
100
AcDbBlockReference
  2
BLOCK_286
 10
0.0
 20
0.0
 30
0.0
  0
INSERT
  5
750
330
1F
100
AcDbEntity
  8
GR2_01
100
AcDbBlockReference
  2
BLOCK_287
 10
0.0
 20
0.0
 30
0.0
  0
INSERT
  5
755
330
1F
100
AcDbEntity
  8
GR2_01
100
AcDbBlockReference
  2
BLOCK_288
 10
0.0
 20
0.0
 30
0.0
  0
INSERT
  5
75A
330
1F
100
AcDbEntity
  8
GR2_01
100
AcDbBlockReference
  2
BLOCK_289
 10
0.0
 20
0.0
 30
0.0
  0
INSERT
  5
75F
330
1F
100
AcDbEntity
  8
GR2_01
100
AcDbBlockReference
  2
BLOCK_290
 10
0.0
 20
0.0
 30
0.0
  0
INSERT
  5
764
330
1F
100
AcDbEntity
  8
GR2_01
100
AcDbBlockReference
  2
BLOCK_291
 10
0.0
 20
0.0
 30
0.0
  0
INSERT
  5
769
330
1F
100
AcDbEntity
  8
GR2_01
100
AcDbBlockReference
  2
BLOCK_292
 10
0.0
 20
0.0
 30
0.0
  0
INSERT
  5
76E
330
1F
100
AcDbEntity
  8
GR2_01
100
AcDbBlockReference
  2
BLOCK_293
 10
0.0
 20
0.0
 30
0.0
  0
INSERT
  5
776
330
1F
100
AcDbEntity
  8
GR2_01
100
AcDbBlockReference
  2
BLOCK_294
 10
0.0
 20
0.0
 30
0.0
  0
INSERT
  5
77E
330
1F
100
AcDbEntity
  8
GR2_01
100
AcDbBlockReference
  2
BLOCK_295
 10
0.0
 20
0.0
 30
0.0
  0
INSERT
  5
786
330
1F
100
AcDbEntity
  8
GR2_01
100
AcDbBlockReference
  2
BLOCK_296
 10
0.0
 20
0.0
 30
0.0
  0
INSERT
  5
78E
330
1F
100
AcDbEntity
  8
GR2_01
100
AcDbBlockReference
  2
BLOCK_297
 10
0.0
 20
0.0
 30
0.0
  0
INSERT
  5
796
330
1F
100
AcDbEntity
  8
GR2_01
100
AcDbBlockReference
  2
BLOCK_298
 10
0.0
 20
0.0
 30
0.0
  0
INSERT
  5
79E
330
1F
100
AcDbEntity
  8
GR2_01
100
AcDbBlockReference
  2
BLOCK_299
 10
0.0
 20
0.0
 30
0.0
  0
INSERT
  5
7A6
330
1F
100
AcDbEntity
  8
GR2_01
100
AcDbBlockReference
  2
BLOCK_300
 10
0.0
 20
0.0
 30
0.0
  0
INSERT
  5
7AE
330
1F
100
AcDbEntity
  8
GR2_01
100
AcDbBlockReference
  2
BLOCK_301
 10
0.0
 20
0.0
 30
0.0
  0
INSERT
  5
7B6
330
1F
100
AcDbEntity
  8
GR2_01
100
AcDbBlockReference
  2
BLOCK_302
 10
0.0
 20
0.0
 30
0.0
  0
INSERT
  5
7BE
330
1F
100
AcDbEntity
  8
GR2_01
100
AcDbBlockReference
  2
BLOCK_303
 10
0.0
 20
0.0
 30
0.0
  0
INSERT
  5
7C6
330
1F
100
AcDbEntity
  8
GR2_01
100
AcDbBlockReference
  2
BLOCK_304
 10
0.0
 20
0.0
 30
0.0
  0
INSERT
  5
7CE
330
1F
100
AcDbEntity
  8
GR2_01
100
AcDbBlockReference
  2
BLOCK_305
 10
0.0
 20
0.0
 30
0.0
  0
INSERT
  5
7D6
330
1F
100
AcDbEntity
  8
GR2_01
100
AcDbBlockReference
  2
BLOCK_306
 10
0.0
 20
0.0
 30
0.0
  0
INSERT
  5
7DE
330
1F
100
AcDbEntity
  8
GR2_01
100
AcDbBlockReference
  2
BLOCK_307
 10
0.0
 20
0.0
 30
0.0
  0
INSERT
  5
7E6
330
1F
100
AcDbEntity
  8
GR2_01
100
AcDbBlockReference
  2
BLOCK_308
 10
0.0
 20
0.0
 30
0.0
  0
INSERT
  5
7EE
330
1F
100
AcDbEntity
  8
GR2_01
100
AcDbBlockReference
  2
BLOCK_309
 10
0.0
 20
0.0
 30
0.0
  0
INSERT
  5
7F6
330
1F
100
AcDbEntity
  8
GR2_01
100
AcDbBlockReference
  2
BLOCK_310
 10
0.0
 20
0.0
 30
0.0
  0
INSERT
  5
7FE
330
1F
100
AcDbEntity
  8
GR2_01
100
AcDbBlockReference
  2
BLOCK_311
 10
0.0
 20
0.0
 30
0.0
  0
INSERT
  5
806
330
1F
100
AcDbEntity
  8
GR2_01
100
AcDbBlockReference
  2
BLOCK_312
 10
0.0
 20
0.0
 30
0.0
  0
INSERT
  5
80E
330
1F
100
AcDbEntity
  8
GR2_01
100
AcDbBlockReference
  2
BLOCK_313
 10
0.0
 20
0.0
 30
0.0
  0
INSERT
  5
816
330
1F
100
AcDbEntity
  8
GR2_01
100
AcDbBlockReference
  2
BLOCK_314
 10
0.0
 20
0.0
 30
0.0
  0
INSERT
  5
81E
330
1F
100
AcDbEntity
  8
GR2_01
100
AcDbBlockReference
  2
BLOCK_315
 10
0.0
 20
0.0
 30
0.0
  0
INSERT
  5
826
330
1F
100
AcDbEntity
  8
GR2_01
100
AcDbBlockReference
  2
BLOCK_316
 10
0.0
 20
0.0
 30
0.0
  0
INSERT
  5
82E
330
1F
100
AcDbEntity
  8
GR2_01
100
AcDbBlockReference
  2
BLOCK_317
 10
0.0
 20
0.0
 30
0.0
  0
INSERT
  5
836
330
1F
100
AcDbEntity
  8
GR2_01
100
AcDbBlockReference
  2
BLOCK_318
 10
0.0
 20
0.0
 30
0.0
  0
INSERT
  5
83E
330
1F
100
AcDbEntity
  8
GR2_01
100
AcDbBlockReference
  2
BLOCK_319
 10
0.0
 20
0.0
 30
0.0
  0
INSERT
  5
846
330
1F
100
AcDbEntity
  8
GR2_01
100
AcDbBlockReference
  2
BLOCK_320
 10
0.0
 20
0.0
 30
0.0
  0
INSERT
  5
84E
330
1F
100
AcDbEntity
  8
GR2_01
100
AcDbBlockReference
  2
BLOCK_321
 10
0.0
 20
0.0
 30
0.0
  0
INSERT
  5
856
330
1F
100
AcDbEntity
  8
GR2_01
100
AcDbBlockReference
  2
BLOCK_322
 10
0.0
 20
0.0
 30
0.0
  0
INSERT
  5
85E
330
1F
100
AcDbEntity
  8
GR2_01
100
AcDbBlockReference
  2
BLOCK_323
 10
0.0
 20
0.0
 30
0.0
  0
INSERT
  5
866
330
1F
100
AcDbEntity
  8
GR2_01
100
AcDbBlockReference
  2
BLOCK_324
 10
0.0
 20
0.0
 30
0.0
  0
INSERT
  5
86E
330
1F
100
AcDbEntity
  8
GR2_01
100
AcDbBlockReference
  2
BLOCK_325
 10
0.0
 20
0.0
 30
0.0
  0
INSERT
  5
876
330
1F
100
AcDbEntity
  8
GR2_01
100
AcDbBlockReference
  2
BLOCK_326
 10
0.0
 20
0.0
 30
0.0
  0
INSERT
  5
87E
330
1F
100
AcDbEntity
  8
GR2_01
100
AcDbBlockReference
  2
BLOCK_327
 10
0.0
 20
0.0
 30
0.0
  0
INSERT
  5
886
330
1F
100
AcDbEntity
  8
GR2_01
100
AcDbBlockReference
  2
BLOCK_328
 10
0.0
 20
0.0
 30
0.0
  0
INSERT
  5
88E
330
1F
100
AcDbEntity
  8
GR2_01
100
AcDbBlockReference
  2
BLOCK_329
 10
0.0
 20
0.0
 30
0.0
  0
INSERT
  5
896
330
1F
100
AcDbEntity
  8
GR2_01
100
AcDbBlockReference
  2
BLOCK_330
 10
0.0
 20
0.0
 30
0.0
  0
INSERT
  5
89E
330
1F
100
AcDbEntity
  8
GR2_01
100
AcDbBlockReference
  2
BLOCK_331
 10
0.0
 20
0.0
 30
0.0
  0
INSERT
  5
8A6
330
1F
100
AcDbEntity
  8
GR2_01
100
AcDbBlockReference
  2
BLOCK_332
 10
0.0
 20
0.0
 30
0.0
  0
INSERT
  5
8AE
330
1F
100
AcDbEntity
  8
GR2_01
100
AcDbBlockReference
  2
BLOCK_333
 10
0.0
 20
0.0
 30
0.0
  0
INSERT
  5
8B6
330
1F
100
AcDbEntity
  8
GR2_01
100
AcDbBlockReference
  2
BLOCK_334
 10
0.0
 20
0.0
 30
0.0
  0
INSERT
  5
8BB
330
1F
100
AcDbEntity
  8
GR2_01
100
AcDbBlockReference
  2
BLOCK_335
 10
0.0
 20
0.0
 30
0.0
  0
INSERT
  5
8C0
330
1F
100
AcDbEntity
  8
GR2_01
100
AcDbBlockReference
  2
BLOCK_336
 10
0.0
 20
0.0
 30
0.0
  0
INSERT
  5
8C5
330
1F
100
AcDbEntity
  8
GR2_01
100
AcDbBlockReference
  2
BLOCK_337
 10
0.0
 20
0.0
 30
0.0
  0
INSERT
  5
8CA
330
1F
100
AcDbEntity
  8
GR2_01
100
AcDbBlockReference
  2
BLOCK_338
 10
0.0
 20
0.0
 30
0.0
  0
INSERT
  5
8CF
330
1F
100
AcDbEntity
  8
GR2_01
100
AcDbBlockReference
  2
BLOCK_339
 10
0.0
 20
0.0
 30
0.0
  0
INSERT
  5
8D4
330
1F
100
AcDbEntity
  8
GR2_01
100
AcDbBlockReference
  2
BLOCK_340
 10
0.0
 20
0.0
 30
0.0
  0
INSERT
  5
8D9
330
1F
100
AcDbEntity
  8
GR2_01
100
AcDbBlockReference
  2
BLOCK_341
 10
0.0
 20
0.0
 30
0.0
  0
INSERT
  5
8DE
330
1F
100
AcDbEntity
  8
GR2_01
100
AcDbBlockReference
  2
BLOCK_342
 10
0.0
 20
0.0
 30
0.0
  0
INSERT
  5
8E3
330
1F
100
AcDbEntity
  8
GR2_01
100
AcDbBlockReference
  2
BLOCK_343
 10
0.0
 20
0.0
 30
0.0
  0
INSERT
  5
8E8
330
1F
100
AcDbEntity
  8
GR2_01
100
AcDbBlockReference
  2
BLOCK_344
 10
0.0
 20
0.0
 30
0.0
  0
INSERT
  5
8ED
330
1F
100
AcDbEntity
  8
GR2_01
100
AcDbBlockReference
  2
BLOCK_345
 10
0.0
 20
0.0
 30
0.0
  0
INSERT
  5
8F2
330
1F
100
AcDbEntity
  8
GR2_01
100
AcDbBlockReference
  2
BLOCK_346
 10
0.0
 20
0.0
 30
0.0
  0
INSERT
  5
8F7
330
1F
100
AcDbEntity
  8
GR2_01
100
AcDbBlockReference
  2
BLOCK_347
 10
0.0
 20
0.0
 30
0.0
  0
INSERT
  5
8FC
330
1F
100
AcDbEntity
  8
GR2_01
100
AcDbBlockReference
  2
BLOCK_348
 10
0.0
 20
0.0
 30
0.0
  0
INSERT
  5
901
330
1F
100
AcDbEntity
  8
GR2_01
100
AcDbBlockReference
  2
BLOCK_349
 10
0.0
 20
0.0
 30
0.0
  0
INSERT
  5
906
330
1F
100
AcDbEntity
  8
GR2_01
100
AcDbBlockReference
  2
BLOCK_350
 10
0.0
 20
0.0
 30
0.0
  0
INSERT
  5
90B
330
1F
100
AcDbEntity
  8
GR2_01
100
AcDbBlockReference
  2
BLOCK_351
 10
0.0
 20
0.0
 30
0.0
  0
INSERT
  5
910
330
1F
100
AcDbEntity
  8
GR2_01
100
AcDbBlockReference
  2
BLOCK_352
 10
0.0
 20
0.0
 30
0.0
  0
INSERT
  5
915
330
1F
100
AcDbEntity
  8
GR2_01
100
AcDbBlockReference
  2
BLOCK_353
 10
0.0
 20
0.0
 30
0.0
  0
INSERT
  5
91A
330
1F
100
AcDbEntity
  8
GR2_01
100
AcDbBlockReference
  2
BLOCK_354
 10
0.0
 20
0.0
 30
0.0
  0
INSERT
  5
91F
330
1F
100
AcDbEntity
  8
GR2_01
100
AcDbBlockReference
  2
BLOCK_355
 10
0.0
 20
0.0
 30
0.0
  0
INSERT
  5
924
330
1F
100
AcDbEntity
  8
GR2_01
100
AcDbBlockReference
  2
BLOCK_356
 10
0.0
 20
0.0
 30
0.0
  0
INSERT
  5
929
330
1F
100
AcDbEntity
  8
GR2_01
100
AcDbBlockReference
  2
BLOCK_357
 10
0.0
 20
0.0
 30
0.0
  0
INSERT
  5
92E
330
1F
100
AcDbEntity
  8
GR2_01
100
AcDbBlockReference
  2
BLOCK_358
 10
0.0
 20
0.0
 30
0.0
  0
INSERT
  5
933
330
1F
100
AcDbEntity
  8
GR2_01
100
AcDbBlockReference
  2
BLOCK_359
 10
0.0
 20
0.0
 30
0.0
  0
INSERT
  5
938
330
1F
100
AcDbEntity
  8
GR2_01
100
AcDbBlockReference
  2
BLOCK_360
 10
0.0
 20
0.0
 30
0.0
  0
INSERT
  5
93D
330
1F
100
AcDbEntity
  8
GR2_01
100
AcDbBlockReference
  2
BLOCK_361
 10
0.0
 20
0.0
 30
0.0
  0
INSERT
  5
942
330
1F
100
AcDbEntity
  8
GR2_01
100
AcDbBlockReference
  2
BLOCK_362
 10
0.0
 20
0.0
 30
0.0
  0
INSERT
  5
947
330
1F
100
AcDbEntity
  8
GR2_01
100
AcDbBlockReference
  2
BLOCK_363
 10
0.0
 20
0.0
 30
0.0
  0
INSERT
  5
94C
330
1F
100
AcDbEntity
  8
GR2_01
100
AcDbBlockReference
  2
BLOCK_364
 10
0.0
 20
0.0
 30
0.0
  0
INSERT
  5
951
330
1F
100
AcDbEntity
  8
GR2_01
100
AcDbBlockReference
  2
BLOCK_365
 10
0.0
 20
0.0
 30
0.0
  0
INSERT
  5
956
330
1F
100
AcDbEntity
  8
GR2_01
100
AcDbBlockReference
  2
BLOCK_366
 10
0.0
 20
0.0
 30
0.0
  0
INSERT
  5
95B
330
1F
100
AcDbEntity
  8
GR2_01
100
AcDbBlockReference
  2
BLOCK_367
 10
0.0
 20
0.0
 30
0.0
  0
INSERT
  5
960
330
1F
100
AcDbEntity
  8
GR2_01
100
AcDbBlockReference
  2
BLOCK_368
 10
0.0
 20
0.0
 30
0.0
  0
INSERT
  5
965
330
1F
100
AcDbEntity
  8
GR2_01
100
AcDbBlockReference
  2
BLOCK_369
 10
0.0
 20
0.0
 30
0.0
  0
INSERT
  5
96A
330
1F
100
AcDbEntity
  8
GR2_01
100
AcDbBlockReference
  2
BLOCK_370
 10
0.0
 20
0.0
 30
0.0
  0
INSERT
  5
96F
330
1F
100
AcDbEntity
  8
GR2_01
100
AcDbBlockReference
  2
BLOCK_371
 10
0.0
 20
0.0
 30
0.0
  0
INSERT
  5
974
330
1F
100
AcDbEntity
  8
GR2_01
100
AcDbBlockReference
  2
BLOCK_372
 10
0.0
 20
0.0
 30
0.0
  0
INSERT
  5
979
330
1F
100
AcDbEntity
  8
GR2_01
100
AcDbBlockReference
  2
BLOCK_373
 10
0.0
 20
0.0
 30
0.0
  0
INSERT
  5
97E
330
1F
100
AcDbEntity
  8
GR2_01
100
AcDbBlockReference
  2
BLOCK_374
 10
0.0
 20
0.0
 30
0.0
  0
INSERT
  5
983
330
1F
100
AcDbEntity
  8
GR2_01
100
AcDbBlockReference
  2
BLOCK_375
 10
0.0
 20
0.0
 30
0.0
  0
INSERT
  5
988
330
1F
100
AcDbEntity
  8
GR2_01
100
AcDbBlockReference
  2
BLOCK_376
 10
0.0
 20
0.0
 30
0.0
  0
INSERT
  5
98D
330
1F
100
AcDbEntity
  8
GR2_01
100
AcDbBlockReference
  2
BLOCK_377
 10
0.0
 20
0.0
 30
0.0
  0
INSERT
  5
992
330
1F
100
AcDbEntity
  8
GR2_01
100
AcDbBlockReference
  2
BLOCK_378
 10
0.0
 20
0.0
 30
0.0
  0
INSERT
  5
997
330
1F
100
AcDbEntity
  8
GR2_01
100
AcDbBlockReference
  2
BLOCK_379
 10
0.0
 20
0.0
 30
0.0
  0
INSERT
  5
99C
330
1F
100
AcDbEntity
  8
GR2_01
100
AcDbBlockReference
  2
BLOCK_380
 10
0.0
 20
0.0
 30
0.0
  0
INSERT
  5
9A1
330
1F
100
AcDbEntity
  8
GR2_01
100
AcDbBlockReference
  2
BLOCK_381
 10
0.0
 20
0.0
 30
0.0
  0
INSERT
  5
9A6
330
1F
100
AcDbEntity
  8
GR2_01
100
AcDbBlockReference
  2
BLOCK_382
 10
0.0
 20
0.0
 30
0.0
  0
INSERT
  5
9AB
330
1F
100
AcDbEntity
  8
GR2_01
100
AcDbBlockReference
  2
BLOCK_383
 10
0.0
 20
0.0
 30
0.0
  0
INSERT
  5
9B0
330
1F
100
AcDbEntity
  8
GR2_01
100
AcDbBlockReference
  2
BLOCK_384
 10
0.0
 20
0.0
 30
0.0
  0
INSERT
  5
9B5
330
1F
100
AcDbEntity
  8
GR2_01
100
AcDbBlockReference
  2
BLOCK_385
 10
0.0
 20
0.0
 30
0.0
  0
INSERT
  5
9BA
330
1F
100
AcDbEntity
  8
GR2_01
100
AcDbBlockReference
  2
BLOCK_386
 10
0.0
 20
0.0
 30
0.0
  0
INSERT
  5
9BF
330
1F
100
AcDbEntity
  8
GR2_01
100
AcDbBlockReference
  2
BLOCK_387
 10
0.0
 20
0.0
 30
0.0
  0
INSERT
  5
9CC
330
1F
100
AcDbEntity
  8
GR2_01
100
AcDbBlockReference
  2
BLOCK_388
 10
0.0
 20
0.0
 30
0.0
  0
ENDSEC
  0
SECTION
  2
OBJECTS
  0
DICTIONARY
  5
C
330
0
100
AcDbDictionary
  3
ACAD_GROUP
350
D
  3
ACAD_LAYOUT
350
1A
  3
ACAD_MLINESTYLE
350
17
  3
ACAD_PLOTSETTINGS
350
19
  3
ACAD_TABLESTYLE
350
9F0
  3
ACAD_VISUALSTYLE
350
2A
  3
ACDBHEADERROUNDTRIPXREC
350
9D0
  0
DICTIONARY
  5
D
102
{ACAD_REACTORS
330
C
102
}
330
C
100
AcDbDictionary
  0
DICTIONARY
  5
1A
102
{ACAD_REACTORS
330
C
102
}
330
C
100
AcDbDictionary
  0
DICTIONARY
  5
17
102
{ACAD_REACTORS
330
C
102
}
330
C
100
AcDbDictionary
  3
STANDARD
350
18
  0
DICTIONARY
  5
19
102
{ACAD_REACTORS
330
C
102
}
330
C
100
AcDbDictionary
  0
DICTIONARY
  5
9F0
102
{ACAD_REACTORS
330
C
102
}
330
C
100
AcDbDictionary
  0
DICTIONARY
  5
2A
102
{ACAD_REACTORS
330
C
102
}
330
C
100
AcDbDictionary
  3
2DWIREFRAME
350
2F
  3
3D_HIDDEN
350
31
  3
3DWIREFRAME
350
30
  3
BASIC
350
32
  3
BRIGHTEN
350
36
  3
COLORCHANGE
350
3A
  3
CONCEPTUAL
350
34
  3
DIM
350
35
  3
FACEPATTERN
350
39
  3
FLAT
350
2B
  3
FLATWITHEDGES
350
2C
  3
GOURAUD
350
2D
  3
GOURAUDWITHEDGES
350
2E
  3
LINEPATTERN
350
38
  3
REALISTIC
350
33
  3
THICKEN
350
37
  0
DICTIONARY
  5
9D0
102
{ACAD_REACTORS
330
C
102
}
330
C
100
AcDbDictionary
  3
CEPSNTYPE
350
9D9
  3
DIMSTYLEDATA
350
9EF
  3
FINGERPRINTGUID
350
9DA
  3
HYPERLINKBASE
350
9D3
  3
INSUNITS
350
9D8
  3
LAYOUTDICT
350
9D5
  3
LWETCUNION
350
9D7
  3
PLOTSETDICT
350
9D6
  3
PSVPSCALE
350
9DC
  3
PUCSBASE
350
9DF
  3
PUCSORGBACK
350
9E5
  3
PUCSORGBOTTOM
350
9E1
  3
PUCSORGFRONT
350
9E4
  3
PUCSORGLEFT
350
9E2
  3
PUCSORGRIGHT
350
9E3
  3
PUCSORGTOP
350
9E0
  3
PUCSORTHOREF
350
9DD
  3
PUCSORTHOVIEW
350
9DE
  3
STYLESHEET
350
9D4
  3
TSTACKALIGN
350
9D1
  3
TSTACKSIZE
350
9D2
  3
UCSBASE
350
9E8
  3
UCSORGBACK
350
9EE
  3
UCSORGBOTTOM
350
9EA
  3
UCSORGFRONT
350
9ED
  3
UCSORGLEFT
350
9EB
  3
UCSORGRIGHT
350
9EC
  3
UCSORGTOP
350
9E9
  3
UCSORTHOREF
350
9E6
  3
UCSORTHOVIEW
350
9E7
  3
VERSIONGUID
350
9DB
  0
MLINESTYLE
  5
18
102
{ACAD_REACTORS
330
17
102
}
330
17
100
AcDbMlineStyle
  2
Standard
 70
     0
  3

 62
   256
 51
90.0
 52
90.0
 71
     2
 49
0.5
 62
   256
  6
BYLAYER
 49
-0.5
 62
   256
  6
BYLAYER
  0
VISUALSTYLE
  5
2F
102
{ACAD_REACTORS
330
2A
102
}
330
2A
100
AcDbVisualStyle
  2
2dWireframe
 70
     4
 71
     0
 72
     2
 73
     0
 90
        0
 40
-0.6
 41
-30.0
 62
     5
 63
     7
 74
     1
 91
        4
 64
     7
 65
   257
 75
     1
175
     1
 42
1.0
 92
        0
 66
   257
 43
1.0
 76
     1
 77
     6
 78
     2
 67
     7
 79
     5
170
     0
171
     0
290
     0
174
     0
 93
        1
 44
0.0
173
     0
291
     0
 45
0.0
1001
ACAD
1000
AcDbSavedByObjectVersion
1070
     0
  0
VISUALSTYLE
  5
31
102
{ACAD_REACTORS
330
2A
102
}
330
2A
100
AcDbVisualStyle
  2
3D Hidden
 70
     6
 71
     1
 72
     2
 73
     2
 90
        0
 40
-0.6
 41
-30.0
 62
     5
 63
     7
 74
     2
 91
        2
 64
     7
 65
   257
 75
     2
175
     1
 42
40.0
 92
        0
 66
   257
 43
1.0
 76
     1
 77
     6
 78
     2
 67
     7
 79
     3
170
     0
171
     0
290
     0
174
     0
 93
        1
 44
0.0
173
     0
291
     0
 45
0.0
1001
ACAD
1000
AcDbSavedByObjectVersion
1070
     0
  0
VISUALSTYLE
  5
30
102
{ACAD_REACTORS
330
2A
102
}
330
2A
100
AcDbVisualStyle
  2
3dWireframe
 70
     5
 71
     0
 72
     2
 73
     0
 90
        0
 40
-0.6
 41
-30.0
 62
     5
 63
     7
 74
     1
 91
        4
 64
     7
 65
   257
 75
     1
175
     1
 42
1.0
 92
        0
 66
   257
 43
1.0
 76
     1
 77
     6
 78
     2
 67
     7
 79
     5
170
     0
171
     0
290
     0
174
     0
 93
        1
 44
0.0
173
     0
291
     0
 45
0.0
1001
ACAD
1000
AcDbSavedByObjectVersion
1070
     0
  0
VISUALSTYLE
  5
32
102
{ACAD_REACTORS
330
2A
102
}
330
2A
100
AcDbVisualStyle
  2
Basic
 70
     7
 71
     1
 72
     0
 73
     1
 90
        0
 40
-0.6
 41
-30.0
 62
     5
 63
     7
 74
     0
 91
        4
 64
     7
 65
   257
 75
     1
175
     1
 42
1.0
 92
        8
 66
     7
 43
1.0
 76
     1
 77
     6
 78
     2
 67
     7
 79
     5
170
     0
171
     0
290
     0
174
     0
 93
        1
 44
0.0
173
     0
291
     1
 45
0.0
1001
ACAD
1000
AcDbSavedByObjectVersion
1070
     0
  0
VISUALSTYLE
  5
36
102
{ACAD_REACTORS
330
2A
102
}
330
2A
100
AcDbVisualStyle
  2
Brighten
 70
    12
 71
     2
 72
     2
 73
     0
 90
        0
 40
-0.6
 41
-30.0
 62
     5
 63
     7
 74
     1
 91
        4
 64
     7
 65
   257
 75
     1
175
     1
 42
1.0
 92
        8
 66
     7
 43
1.0
 76
     1
 77
     6
 78
     2
 67
     7
 79
     5
170
     0
171
     0
290
     0
174
     0
 93
        1
 44
50.0
173
     0
291
     1
 45
0.0
1001
ACAD
1000
AcDbSavedByObjectVersion
1070
     0
  0
VISUALSTYLE
  5
3A
102
{ACAD_REACTORS
330
2A
102
}
330
2A
100
AcDbVisualStyle
  2
ColorChange
 70
    16
 71
     2
 72
     2
 73
     3
 90
        0
 40
-0.6
 41
-30.0
 62
     5
 63
     8
 74
     1
 91
        4
 64
     7
 65
   257
 75
     1
175
     1
 42
1.0
 92
        8
 66
     8
 43
1.0
 76
     1
 77
     6
 78
     2
 67
     7
 79
     5
170
     0
171
     0
290
     0
174
     0
 93
        1
 44
0.0
173
     0
291
     1
 45
0.0
1001
ACAD
1000
AcDbSavedByObjectVersion
1070
     0
  0
VISUALSTYLE
  5
34
102
{ACAD_REACTORS
330
2A
102
}
330
2A
100
AcDbVisualStyle
  2
Conceptual
 70
     9
 71
     3
 72
     2
 73
     0
 90
        0
 40
-0.6
 41
-30.0
 62
     5
 63
     7
 74
     2
 91
        2
 64
     7
 65
   257
 75
     1
175
     1
 42
40.0
 92
        8
 66
     7
 43
1.0
 76
     1
 77
     6
 78
     2
 67
     7
 79
     3
170
     0
171
     0
290
     0
174
     0
 93
        1
 44
0.0
173
     0
291
     0
 45
0.0
1001
ACAD
1000
AcDbSavedByObjectVersion
1070
     0
  0
VISUALSTYLE
  5
35
102
{ACAD_REACTORS
330
2A
102
}
330
2A
100
AcDbVisualStyle
  2
Dim
 70
    11
 71
     2
 72
     2
 73
     0
 90
        0
 40
-0.6
 41
-30.0
 62
     5
 63
     7
 74
     1
 91
        4
 64
     7
 65
   257
 75
     1
175
     1
 42
1.0
 92
        8
 66
     7
 43
1.0
 76
     1
 77
     6
 78
     2
 67
     7
 79
     5
170
     0
171
     0
290
     0
174
     0
 93
        1
 44
-50.0
173
     0
291
     1
 45
0.0
1001
ACAD
1000
AcDbSavedByObjectVersion
1070
     0
  0
VISUALSTYLE
  5
39
102
{ACAD_REACTORS
330
2A
102
}
330
2A
100
AcDbVisualStyle
  2
Facepattern
 70
    15
 71
     2
 72
     2
 73
     0
 90
        0
 40
-0.6
 41
-30.0
 62
     5
 63
     7
 74
     1
 91
        4
 64
     7
 65
   257
 75
     1
175
     1
 42
1.0
 92
        8
 66
     7
 43
1.0
 76
     1
 77
     6
 78
     2
 67
     7
 79
     5
170
     0
171
     0
290
     0
174
     0
 93
        1
 44
0.0
173
     0
291
     1
 45
0.0
1001
ACAD
1000
AcDbSavedByObjectVersion
1070
     0
  0
VISUALSTYLE
  5
2B
102
{ACAD_REACTORS
330
2A
102
}
330
2A
100
AcDbVisualStyle
  2
Flat
 70
     0
 71
     2
 72
     1
 73
     1
 90
        2
 40
-0.6
 41
30.0
 62
     5
 63
     7
 74
     0
 91
        4
 64
     7
 65
   257
 75
     1
175
     1
 42
1.0
 92
        8
 66
     7
 43
1.0
 76
     1
 77
     6
 78
     2
 67
     7
 79
     5
170
     0
171
     0
290
     0
174
     0
 93
       13
 44
0.0
173
     0
291
     1
 45
0.0
1001
ACAD
1000
AcDbSavedByObjectVersion
1070
     0
  0
VISUALSTYLE
  5
2C
102
{ACAD_REACTORS
330
2A
102
}
330
2A
100
AcDbVisualStyle
  2
FlatWithEdges
 70
     1
 71
     2
 72
     1
 73
     1
 90
        2
 40
-0.6
 41
30.0
 62
     5
 63
     7
 74
     1
 91
        4
 64
     7
 65
   257
 75
     1
175
     1
 42
1.0
 92
        0
 66
   257
 43
1.0
 76
     1
 77
     6
 78
     2
 67
     7
 79
     5
170
     0
171
     0
290
     0
174
     0
 93
       13
 44
0.0
173
     0
291
     1
 45
0.0
1001
ACAD
1000
AcDbSavedByObjectVersion
1070
     0
  0
VISUALSTYLE
  5
2D
102
{ACAD_REACTORS
330
2A
102
}
330
2A
100
AcDbVisualStyle
  2
Gouraud
 70
     2
 71
     2
 72
     2
 73
     1
 90
        2
 40
-0.6
 41
30.0
 62
     5
 63
     7
 74
     0
 91
        4
 64
     7
 65
   257
 75
     1
175
     1
 42
1.0
 92
        0
 66
     7
 43
1.0
 76
     1
 77
     6
 78
     2
 67
     7
 79
     5
170
     0
171
     0
290
     0
174
     0
 93
       13
 44
0.0
173
     0
291
     1
 45
0.0
1001
ACAD
1000
AcDbSavedByObjectVersion
1070
     0
  0
VISUALSTYLE
  5
2E
102
{ACAD_REACTORS
330
2A
102
}
330
2A
100
AcDbVisualStyle
  2
GouraudWithEdges
 70
     3
 71
     2
 72
     2
 73
     1
 90
        2
 40
-0.6
 41
30.0
 62
     5
 63
     7
 74
     1
 91
        4
 64
     7
 65
   257
 75
     1
175
     1
 42
1.0
 92
        0
 66
   257
 43
1.0
 76
     1
 77
     6
 78
     2
 67
     7
 79
     5
170
     0
171
     0
290
     0
174
     0
 93
       13
 44
0.0
173
     0
291
     1
 45
0.0
1001
ACAD
1000
AcDbSavedByObjectVersion
1070
     0
  0
VISUALSTYLE
  5
38
102
{ACAD_REACTORS
330
2A
102
}
330
2A
100
AcDbVisualStyle
  2
Linepattern
 70
    14
 71
     2
 72
     2
 73
     0
 90
        0
 40
-0.6
 41
-30.0
 62
     5
 63
     7
 74
     1
 91
        4
 64
     7
 65
   257
 75
     7
175
     7
 42
1.0
 92
        8
 66
     7
 43
1.0
 76
     1
 77
     6
 78
     2
 67
     7
 79
     5
170
     0
171
     0
290
     0
174
     0
 93
        1
 44
0.0
173
     0
291
     1
 45
0.0
1001
ACAD
1000
AcDbSavedByObjectVersion
1070
     0
  0
VISUALSTYLE
  5
33
102
{ACAD_REACTORS
330
2A
102
}
330
2A
100
AcDbVisualStyle
  2
Realistic
 70
     8
 71
     2
 72
     2
 73
     0
 90
        0
 40
-0.6
 41
-30.0
 62
     5
 63
     7
 74
     1
 91
        0
 64
     7
 65
   257
 75
     1
175
     1
 42
1.0
 92
        8
 66
     8
 43
1.0
 76
     1
 77
     6
 78
     2
 67
     7
 79
     5
170
     0
171
     0
290
     0
174
     0
 93
       13
 44
0.0
173
     0
291
     0
 45
0.0
1001
ACAD
1000
AcDbSavedByObjectVersion
1070
     0
  0
VISUALSTYLE
  5
37
102
{ACAD_REACTORS
330
2A
102
}
330
2A
100
AcDbVisualStyle
  2
Thicken
 70
    13
 71
     2
 72
     2
 73
     0
 90
        0
 40
-0.6
 41
-30.0
 62
     5
 63
     7
 74
     1
 91
        4
 64
     7
 65
   257
 75
     1
175
     1
 42
1.0
 92
       12
 66
     7
 43
1.0
 76
     1
 77
     6
 78
     2
 67
     7
 79
     5
170
     0
171
     0
290
     0
174
     0
 93
        1
 44
0.0
173
     0
291
     1
 45
0.0
1001
ACAD
1000
AcDbSavedByObjectVersion
1070
     0
  0
XRECORD
  5
9D9
102
{ACAD_REACTORS
330
9D0
102
}
330
9D0
100
AcDbXrecord
 90
        0
  0
XRECORD
  5
9EF
102
{ACAD_REACTORS
330
9D0
102
}
330
9D0
100
AcDbXrecord
1000
DSTYLE
1002
{
1070
   340
340
11
1002
}
  0
XRECORD
  5
9DA
102
{ACAD_REACTORS
330
9D0
102
}
330
9D0
100
AcDbXrecord
  1
{2CA5AE39-69B0-4590-BA03-C49678D0F96F}
  0
XRECORD
  5
9D3
102
{ACAD_REACTORS
330
9D0
102
}
330
9D0
100
AcDbXrecord
  1

  0
XRECORD
  5
9D8
102
{ACAD_REACTORS
330
9D0
102
}
330
9D0
100
AcDbXrecord
 90
        1
  0
XRECORD
  5
9D5
102
{ACAD_REACTORS
330
9D0
102
}
330
9D0
100
AcDbXrecord
340
1A
  0
XRECORD
  5
9D7
102
{ACAD_REACTORS
330
9D0
102
}
330
9D0
100
AcDbXrecord
 90
    10269
  0
XRECORD
  5
9D6
102
{ACAD_REACTORS
330
9D0
102
}
330
9D0
100
AcDbXrecord
340
19
  0
XRECORD
  5
9DC
102
{ACAD_REACTORS
330
9D0
102
}
330
9D0
100
AcDbXrecord
 40
0.0
  0
XRECORD
  5
9DF
102
{ACAD_REACTORS
330
9D0
102
}
330
9D0
100
AcDbXrecord
340
0
  0
XRECORD
  5
9E5
102
{ACAD_REACTORS
330
9D0
102
}
330
9D0
100
AcDbXrecord
 10
0.0
 20
0.0
 30
0.0
  0
XRECORD
  5
9E1
102
{ACAD_REACTORS
330
9D0
102
}
330
9D0
100
AcDbXrecord
 10
0.0
 20
0.0
 30
0.0
  0
XRECORD
  5
9E4
102
{ACAD_REACTORS
330
9D0
102
}
330
9D0
100
AcDbXrecord
 10
0.0
 20
0.0
 30
0.0
  0
XRECORD
  5
9E2
102
{ACAD_REACTORS
330
9D0
102
}
330
9D0
100
AcDbXrecord
 10
0.0
 20
0.0
 30
0.0
  0
XRECORD
  5
9E3
102
{ACAD_REACTORS
330
9D0
102
}
330
9D0
100
AcDbXrecord
 10
0.0
 20
0.0
 30
0.0
  0
XRECORD
  5
9E0
102
{ACAD_REACTORS
330
9D0
102
}
330
9D0
100
AcDbXrecord
 10
0.0
 20
0.0
 30
0.0
  0
XRECORD
  5
9DD
102
{ACAD_REACTORS
330
9D0
102
}
330
9D0
100
AcDbXrecord
340
0
  0
XRECORD
  5
9DE
102
{ACAD_REACTORS
330
9D0
102
}
330
9D0
100
AcDbXrecord
 70
     0
  0
XRECORD
  5
9D4
102
{ACAD_REACTORS
330
9D0
102
}
330
9D0
100
AcDbXrecord
  1

  0
XRECORD
  5
9D1
102
{ACAD_REACTORS
330
9D0
102
}
330
9D0
100
AcDbXrecord
 90
        1
  0
XRECORD
  5
9D2
102
{ACAD_REACTORS
330
9D0
102
}
330
9D0
100
AcDbXrecord
 90
       70
  0
XRECORD
  5
9E8
102
{ACAD_REACTORS
330
9D0
102
}
330
9D0
100
AcDbXrecord
340
0
  0
XRECORD
  5
9EE
102
{ACAD_REACTORS
330
9D0
102
}
330
9D0
100
AcDbXrecord
 10
0.0
 20
0.0
 30
0.0
  0
XRECORD
  5
9EA
102
{ACAD_REACTORS
330
9D0
102
}
330
9D0
100
AcDbXrecord
 10
0.0
 20
0.0
 30
0.0
  0
XRECORD
  5
9ED
102
{ACAD_REACTORS
330
9D0
102
}
330
9D0
100
AcDbXrecord
 10
0.0
 20
0.0
 30
0.0
  0
XRECORD
  5
9EB
102
{ACAD_REACTORS
330
9D0
102
}
330
9D0
100
AcDbXrecord
 10
0.0
 20
0.0
 30
0.0
  0
XRECORD
  5
9EC
102
{ACAD_REACTORS
330
9D0
102
}
330
9D0
100
AcDbXrecord
 10
0.0
 20
0.0
 30
0.0
  0
XRECORD
  5
9E9
102
{ACAD_REACTORS
330
9D0
102
}
330
9D0
100
AcDbXrecord
 10
0.0
 20
0.0
 30
0.0
  0
XRECORD
  5
9E6
102
{ACAD_REACTORS
330
9D0
102
}
330
9D0
100
AcDbXrecord
340
0
  0
XRECORD
  5
9E7
102
{ACAD_REACTORS
330
9D0
102
}
330
9D0
100
AcDbXrecord
 70
     0
  0
XRECORD
  5
9DB
102
{ACAD_REACTORS
330
9D0
102
}
330
9D0
100
AcDbXrecord
  1
{FAEB1C32-E019-11D5-929B-00C0DF256EC4}
  0
ENDSEC
  0
EOF
