  0
SECTION
  2
HEADER
  9
$ACADVER
  1
AC1014
  9
$ACADMAINTVER
 70
     9
  9
$DWGCODEPAGE
  3
ANSI_932
  9
$INSBASE
 10
0.0
 20
0.0
 30
0.0
  9
$EXTMIN
 10
0.0
 20
0.0
 30
0.0
  9
$EXTMAX
 10
210.0
 20
297.0
 30
0.0
  9
$LIMMIN
 10
0.0
 20
0.0
  9
$LIMMAX
 10
210.0
 20
297.0
  9
$ORTHOMODE
 70
     0
  9
$REGENMODE
 70
     1
  9
$FILLMODE
 70
     1
  9
$QTEXTMODE
 70
     0
  9
$MIRRTEXT
 70
     1
  9
$DRAGMODE
 70
     2
  9
$LTSCALE
 40
1.0
  9
$OSMODE
 70
    37
  9
$ATTMODE
 70
     1
  9
$TEXTSIZE
 40
2.5
  9
$TRACEWID
 40
1.0
  9
$TEXTSTYLE
  7
ＭＳ_ゴシック
  9
$CLAYER
  8
0
  9
$CELTYPE
  6
BYLAYER
  9
$CECOLOR
 62
   256
  9
$CELTSCALE
 40
1.0
  9
$DELOBJ
 70
     1
  9
$DISPSILH
 70
     0
  9
$DIMSCALE
 40
1.0
  9
$DIMASZ
 40
2.5
  9
$DIMEXO
 40
1.0
  9
$DIMDLI
 40
6.0
  9
$DIMRND
 40
0.0
  9
$DIMDLE
 40
4.0
  9
$DIMEXE
 40
1.0
  9
$DIMTP
 40
0.0
  9
$DIMTM
 40
0.0
  9
$DIMTXT
 40
3.0
  9
$DIMCEN
 40
2.5
  9
$DIMTSZ
 40
0.0
  9
$DIMTOL
 70
     0
  9
$DIMLIM
 70
     0
  9
$DIMTIH
 70
     0
  9
$DIMTOH
 70
     0
  9
$DIMSE1
 70
     0
  9
$DIMSE2
 70
     0
  9
$DIMTAD
 70
     1
  9
$DIMZIN
 70
     8
  9
$DIMBLK
  1

  9
$DIMASO
 70
     1
  9
$DIMSHO
 70
     1
  9
$DIMPOST
  1

  9
$DIMAPOST
  1

  9
$DIMALT
 70
     0
  9
$DIMALTD
 70
     3
  9
$DIMALTF
 40
0.03937
  9
$DIMLFAC
 40
1.0
  9
$DIMTOFL
 70
     1
  9
$DIMTVP
 40
0.0
  9
$DIMTIX
 70
     0
  9
$DIMSOXD
 70
     0
  9
$DIMSAH
 70
     1
  9
$DIMBLK1
  1
FXTIP_ARROW_S
  9
$DIMBLK2
  1
FXTIP_ARROW_E
  9
$DIMSTYLE
  2
FX_DIMINFO
  9
$DIMCLRD
 70
     0
  9
$DIMCLRE
 70
     0
  9
$DIMCLRT
 70
     0
  9
$DIMTFAC
 40
1.0
  9
$DIMGAP
 40
1.0
  9
$DIMJUST
 70
     0
  9
$DIMSD1
 70
     0
  9
$DIMSD2
 70
     0
  9
$DIMTOLJ
 70
     1
  9
$DIMTZIN
 70
     8
  9
$DIMALTZ
 70
     0
  9
$DIMALTTZ
 70
     0
  9
$DIMFIT
 70
     3
  9
$DIMUPT
 70
     0
  9
$DIMUNIT
 70
     2
  9
$DIMDEC
 70
     2
  9
$DIMTDEC
 70
     2
  9
$DIMALTU
 70
     2
  9
$DIMALTTD
 70
     3
  9
$DIMTXSTY
  7
ＭＳ_ゴシック
  9
$DIMAUNIT
 70
     0
  9
$LUNITS
 70
     2
  9
$LUPREC
 70
     4
  9
$SKETCHINC
 40
1.0
  9
$FILLETRAD
 40
10.0
  9
$AUNITS
 70
     0
  9
$AUPREC
 70
     0
  9
$MENU
  1
.
  9
$ELEVATION
 40
0.0
  9
$PELEVATION
 40
0.0
  9
$THICKNESS
 40
0.0
  9
$LIMCHECK
 70
     0
  9
$CHAMFERA
 40
0.0
  9
$CHAMFERB
 40
0.0
  9
$CHAMFERC
 40
0.0
  9
$CHAMFERD
 40
0.0
  9
$SKPOLY
 70
     0
  9
$TDCREATE
 40
2457744.450273426
  9
$TDUPDATE
 40
2457744.450274688
  9
$TDINDWG
 40
0.0000000116
  9
$TDUSRTIMER
 40
0.0000000116
  9
$USRTIMER
 70
     1
  9
$ANGBASE
 50
0.0
  9
$ANGDIR
 70
     0
  9
$PDMODE
 70
     0
  9
$PDSIZE
 40
0.0
  9
$PLINEWID
 40
0.0
  9
$COORDS
 70
     1
  9
$SPLFRAME
 70
     0
  9
$SPLINETYPE
 70
     6
  9
$SPLINESEGS
 70
     8
  9
$ATTDIA
 70
     0
  9
$ATTREQ
 70
     1
  9
$HANDLING
 70
     1
  9
$HANDSEED
  5
2D7
  9
$SURFTAB1
 70
     6
  9
$SURFTAB2
 70
     6
  9
$SURFTYPE
 70
     6
  9
$SURFU
 70
     6
  9
$SURFV
 70
     6
  9
$UCSNAME
  2

  9
$UCSORG
 10
0.0
 20
0.0
 30
0.0
  9
$UCSXDIR
 10
1.0
 20
0.0
 30
0.0
  9
$UCSYDIR
 10
0.0
 20
1.0
 30
0.0
  9
$PUCSNAME
  2

  9
$PUCSORG
 10
0.0
 20
0.0
 30
0.0
  9
$PUCSXDIR
 10
1.0
 20
0.0
 30
0.0
  9
$PUCSYDIR
 10
0.0
 20
1.0
 30
0.0
  9
$USERI1
 70
     0
  9
$USERI2
 70
     0
  9
$USERI3
 70
     0
  9
$USERI4
 70
     0
  9
$USERI5
 70
     0
  9
$USERR1
 40
0.0
  9
$USERR2
 40
0.0
  9
$USERR3
 40
0.0
  9
$USERR4
 40
0.0
  9
$USERR5
 40
0.0
  9
$WORLDVIEW
 70
     1
  9
$SHADEDGE
 70
     3
  9
$SHADEDIF
 70
    70
  9
$TILEMODE
 70
     1
  9
$MAXACTVP
 70
    64
  9
$PINSBASE
 10
0.0
 20
0.0
 30
0.0
  9
$PLIMCHECK
 70
     0
  9
$PEXTMIN
 10
1.000000000000000E+20
 20
1.000000000000000E+20
 30
1.000000000000000E+20
  9
$PEXTMAX
 10
-1.000000000000000E+20
 20
-1.000000000000000E+20
 30
-1.000000000000000E+20
  9
$PLIMMIN
 10
0.0
 20
0.0
  9
$PLIMMAX
 10
420.0
 20
297.0
  9
$UNITMODE
 70
     0
  9
$VISRETAIN
 70
     1
  9
$PLINEGEN
 70
     0
  9
$PSLTSCALE
 70
     1
  9
$TREEDEPTH
 70
  3020
  9
$PICKSTYLE
 70
     1
  9
$CMLSTYLE
  2
STANDARD
  9
$CMLJUST
 70
     0
  9
$CMLSCALE
 40
20.0
  9
$PROXYGRAPHICS
 70
     1
  9
$MEASUREMENT
 70
     1
  0
ENDSEC
  0
SECTION
  2
CLASSES
  0
CLASS
  1
ACDBDICTIONARYWDFLT
  2
AcDbDictionaryWithDefault
  3
ObjectDBX Classes
 90
        0
280
     0
281
     0
  0
CLASS
  1
VISUALSTYLE
  2
AcDbVisualStyle
  3
ObjectDBX Classes
 90
     4095
280
     0
281
     0
  0
CLASS
  1
MATERIAL
  2
AcDbMaterial
  3
ObjectDBX Classes
 90
     1153
280
     0
281
     0
  0
CLASS
  1
SCALE
  2
AcDbScale
  3
ObjectDBX Classes
 90
     1153
280
     0
281
     0
  0
CLASS
  1
TABLESTYLE
  2
AcDbTableStyle
  3
ObjectDBX Classes
 90
     4095
280
     0
281
     0
  0
CLASS
  1
MLEADERSTYLE
  2
AcDbMLeaderStyle
  3
ACDB_MLEADERSTYLE_CLASS
 90
     4095
280
     0
281
     0
  0
CLASS
  1
SUN
  2
AcDbSun
  3
SCENEOE
 90
     1153
280
     0
281
     0
  0
CLASS
  1
DICTIONARYVAR
  2
AcDbDictionaryVar
  3
ObjectDBX Classes
 90
        0
280
     0
281
     0
  0
CLASS
  1
XRECORD
  2
AcDbXrecord
  3
ObjectDBX Classes
 90
        0
280
     0
281
     0
  0
CLASS
  1
LWPOLYLINE
  2
AcDbPolyline
  3
ObjectDBX Classes
 90
        0
280
     0
281
     1
  0
CLASS
  1
HATCH
  2
AcDbHatch
  3
ObjectDBX Classes
 90
        0
280
     0
281
     1
  0
CLASS
  1
ACDBPLACEHOLDER
  2
AcDbPlaceHolder
  3
ObjectDBX Classes
 90
        0
280
     0
281
     0
  0
CLASS
  1
LAYOUT
  2
AcDbLayout
  3
ObjectDBX Classes
 90
        0
280
     0
281
     0
  0
ENDSEC
  0
SECTION
  2
TABLES
  0
TABLE
  2
VPORT
  5
8
102
{ACAD_XDICTIONARY
360
2CC
102
}
330
0
100
AcDbSymbolTable
 70
     1
  0
VPORT
  5
29
330
8
100
AcDbSymbolTableRecord
100
AcDbViewportTableRecord
  2
*ACTIVE
 70
     0
 10
0.0
 20
0.0
 11
1.0
 21
1.0
 12
105.0
 22
148.5
 13
0.0
 23
0.0
 14
10.0
 24
10.0
 15
10.0
 25
10.0
 16
0.0
 26
0.0
 36
1.0
 17
0.0
 27
0.0
 37
0.0
 40
297.0
 41
0.7070707070707071
 42
50.0
 43
0.0
 44
0.0
 50
0.0
 51
0.0
 71
     0
 72
   100
 73
     1
 74
     3
 75
     0
 76
     0
 77
     0
 78
     0
  0
ENDTAB
  0
TABLE
  2
LTYPE
  5
5
330
0
100
AcDbSymbolTable
 70
     3
  0
LTYPE
  5
14
330
5
100
AcDbSymbolTableRecord
100
AcDbLinetypeTableRecord
  2
BYBLOCK
 70
     0
  3

 72
    65
 73
     0
 40
0.0
  0
LTYPE
  5
15
330
5
100
AcDbSymbolTableRecord
100
AcDbLinetypeTableRecord
  2
BYLAYER
 70
     0
  3

 72
    65
 73
     0
 40
0.0
  0
LTYPE
  5
16
330
5
100
AcDbSymbolTableRecord
100
AcDbLinetypeTableRecord
  2
CONTINUOUS
 70
     0
  3
Solid line
 72
    65
 73
     0
 40
0.0
  0
LTYPE
  5
DC
330
5
100
AcDbSymbolTableRecord
100
AcDbLinetypeTableRecord
  2
0_5実線
 70
     0
  3

 72
    65
 73
     0
 40
0.0
  0
LTYPE
  5
E4
330
5
100
AcDbSymbolTableRecord
100
AcDbLinetypeTableRecord
  2
0_35点線
 70
     0
  3

 72
    65
 73
     2
 40
2.0
 49
1.0
 74
     0
 49
-1.0
 74
     0
  0
ENDTAB
  0
TABLE
  2
LAYER
  5
2
330
0
100
AcDbSymbolTable
 70
     4
  0
LAYER
  5
10
330
2
100
AcDbSymbolTableRecord
100
AcDbLayerTableRecord
  2
0
 70
     0
 62
     7
  6
CONTINUOUS
  0
LAYER
  5
DB
330
2
100
AcDbSymbolTableRecord
100
AcDbLayerTableRecord
  2
GR1_16
 70
     0
 62
     1
  6
0_5実線
  0
LAYER
  5
E1
330
2
100
AcDbSymbolTableRecord
100
AcDbLayerTableRecord
  2
GR2_01
 70
     0
 62
     1
  6
0_5実線
  0
LAYER
  5
EC
330
2
100
AcDbSymbolTableRecord
100
AcDbLayerTableRecord
  2
GR1_01
 70
     0
 62
     1
  6
0_5実線
  0
ENDTAB
  0
TABLE
  2
STYLE
  5
3
330
0
100
AcDbSymbolTable
 70
     4
  0
STYLE
  5
11
330
3
100
AcDbSymbolTableRecord
100
AcDbTextStyleTableRecord
  2
STANDARD
 70
     0
 40
0.0
 41
1.0
 50
0.0
 71
     0
 42
2.5
  3
txt
  4

  0
STYLE
  5
6E
330
3
100
AcDbSymbolTableRecord
100
AcDbTextStyleTableRecord
  2
FX_VECTOR
 70
     0
 40
0.0
 41
1.0
 50
0.0
 71
     0
 42
2.5
  3
MONOTXT.SHX
  4
BigFont.shx
  0
STYLE
  5
D9
330
3
100
AcDbSymbolTableRecord
100
AcDbTextStyleTableRecord
  2
ＭＳ_ゴシック
 70
     0
 40
0.0
 41
1.0
 50
0.0
 71
     0
 42
2.5
  3

  4

1001
ACAD
1000
ＭＳ ゴシック
1071
    32817
  0
STYLE
  5
DA
330
3
100
AcDbSymbolTableRecord
100
AcDbTextStyleTableRecord
  2
DEFAULT
 70
     0
 40
0.0
 41
1.0
 50
0.0
 71
     0
 42
2.5
  3

  4

1001
ACAD
1000
ＭＳ ゴシック
1071
    32817
  0
ENDTAB
  0
TABLE
  2
VIEW
  5
6
330
0
100
AcDbSymbolTable
 70
     0
  0
ENDTAB
  0
TABLE
  2
UCS
  5
7
330
0
100
AcDbSymbolTable
 70
     0
  0
ENDTAB
  0
TABLE
  2
APPID
  5
9
330
0
100
AcDbSymbolTable
 70
     2
  0
APPID
  5
12
330
9
100
AcDbSymbolTableRecord
100
AcDbRegAppTableRecord
  2
ACAD
 70
     0
  0
APPID
  5
2D6
330
9
100
AcDbSymbolTableRecord
100
AcDbRegAppTableRecord
  2
ACAD_MLEADERVER
 70
     0
  0
ENDTAB
  0
TABLE
  2
DIMSTYLE
  5
A
330
0
100
AcDbSymbolTable
 70
     2
  0
DIMSTYLE
105
27
330
A
100
AcDbSymbolTableRecord
100
AcDbDimStyleTableRecord
  2
ISO-25
 70
     0
  3

  4

  5

  6

  7

 40
1.0
 41
2.5
 42
0.625
 43
3.75
 44
1.25
 45
0.0
 46
0.0
 47
0.0
 48
0.0
140
2.5
141
2.5
142
0.0
143
0.03937007874016
144
1.0
145
0.0
146
1.0
147
0.625
 71
     0
 72
     0
 73
     0
 74
     0
 75
     0
 76
     0
 77
     1
 78
     8
170
     0
171
     3
172
     1
173
     0
174
     0
175
     0
176
     0
177
     0
178
     0
270
     2
271
     2
272
     2
273
     2
274
     3
340
11
275
     0
280
     0
281
     0
282
     0
283
     0
284
     8
285
     0
286
     0
287
     3
288
     0
  0
DIMSTYLE
105
D8
330
A
100
AcDbSymbolTableRecord
100
AcDbDimStyleTableRecord
  2
FX_DIMINFO
 70
     0
  3

  4

  5

  6
FXTIP_ARROW_S
  7
FXTIP_ARROW_E
 40
1.0
 41
2.5
 42
1.0
 43
6.0
 44
1.0
 45
0.0
 46
4.0
 47
0.0
 48
0.0
140
3.0
141
2.5
142
0.0
143
0.03937
144
1.0
145
0.0
146
1.0
147
1.0
 71
     0
 72
     0
 73
     0
 74
     0
 75
     0
 76
     0
 77
     1
 78
     8
170
     0
171
     3
172
     1
173
     1
174
     0
175
     0
176
     0
177
     0
178
     0
179
     2
270
     2
271
     2
272
     2
273
     2
274
     3
340
D9
275
     0
280
     0
281
     0
282
     0
283
     1
284
     8
285
     0
286
     0
287
     3
288
     0
  0
ENDTAB
  0
TABLE
  2
BLOCK_RECORD
  5
1
330
0
100
AcDbSymbolTable
 70
    20
  0
BLOCK_RECORD
  5
1F
330
1
100
AcDbSymbolTableRecord
100
AcDbBlockTableRecord
  2
*MODEL_SPACE
  0
BLOCK_RECORD
  5
1B
330
1
100
AcDbSymbolTableRecord
100
AcDbBlockTableRecord
  2
*PAPER_SPACE
  0
BLOCK_RECORD
  5
6F
330
1
100
AcDbSymbolTableRecord
100
AcDbBlockTableRecord
  2
FXTIP_NONE
  0
BLOCK_RECORD
  5
72
330
1
100
AcDbSymbolTableRecord
100
AcDbBlockTableRecord
  2
FXTIP_ARROW_S
  0
BLOCK_RECORD
  5
78
330
1
100
AcDbSymbolTableRecord
100
AcDbBlockTableRecord
  2
FXTIP_ARROW_E
  0
BLOCK_RECORD
  5
7E
330
1
100
AcDbSymbolTableRecord
100
AcDbBlockTableRecord
  2
FXTIP_BLACKDOT_S
  0
BLOCK_RECORD
  5
84
330
1
100
AcDbSymbolTableRecord
100
AcDbBlockTableRecord
  2
FXTIP_BLACKDOT_E
  0
BLOCK_RECORD
  5
8A
330
1
100
AcDbSymbolTableRecord
100
AcDbBlockTableRecord
  2
FXTIP_TRIANGLE_S
  0
BLOCK_RECORD
  5
91
330
1
100
AcDbSymbolTableRecord
100
AcDbBlockTableRecord
  2
FXTIP_TRIANGLE_E
  0
BLOCK_RECORD
  5
98
330
1
100
AcDbSymbolTableRecord
100
AcDbBlockTableRecord
  2
FXTIP_ARCHITECT_S
  0
BLOCK_RECORD
  5
9E
330
1
100
AcDbSymbolTableRecord
100
AcDbBlockTableRecord
  2
FXTIP_ARCHITECT_E
  0
BLOCK_RECORD
  5
A4
330
1
100
AcDbSymbolTableRecord
100
AcDbBlockTableRecord
  2
FXTIP_CIVIL_S
  0
BLOCK_RECORD
  5
AA
330
1
100
AcDbSymbolTableRecord
100
AcDbBlockTableRecord
  2
FXTIP_CIVIL_E
  0
BLOCK_RECORD
  5
B0
330
1
100
AcDbSymbolTableRecord
100
AcDbBlockTableRecord
  2
FXTIP_WHITEDOT_S
  0
BLOCK_RECORD
  5
B5
330
1
100
AcDbSymbolTableRecord
100
AcDbBlockTableRecord
  2
FXTIP_WHITEDOT_E
  0
BLOCK_RECORD
  5
BA
330
1
100
AcDbSymbolTableRecord
100
AcDbBlockTableRecord
  2
FXTIP_UPARROW_S
  0
BLOCK_RECORD
  5
BF
330
1
100
AcDbSymbolTableRecord
100
AcDbBlockTableRecord
  2
FXTIP_UPARROW_E
  0
BLOCK_RECORD
  5
C4
330
1
100
AcDbSymbolTableRecord
100
AcDbBlockTableRecord
  2
FXTIP_DOWNARROW_S
  0
BLOCK_RECORD
  5
C9
330
1
100
AcDbSymbolTableRecord
100
AcDbBlockTableRecord
  2
FXTIP_DOWNARROW_E
  0
BLOCK_RECORD
  5
CE
330
1
100
AcDbSymbolTableRecord
100
AcDbBlockTableRecord
  2
FXTIP_BLACKTRIANGLE_S
  0
BLOCK_RECORD
  5
D3
330
1
100
AcDbSymbolTableRecord
100
AcDbBlockTableRecord
  2
FXTIP_BLACKTRIANGLE_E
  0
ENDTAB
  0
ENDSEC
  0
SECTION
  2
BLOCKS
  0
BLOCK
  5
20
330
1F
100
AcDbEntity
  8
0
100
AcDbBlockBegin
  2
*MODEL_SPACE
 70
     0
 10
0.0
 20
0.0
 30
0.0
  3
*MODEL_SPACE
  1

  0
ENDBLK
  5
21
330
1F
100
AcDbEntity
  8
0
100
AcDbBlockEnd
  0
BLOCK
  5
1C
330
1B
100
AcDbEntity
 67
     1
  8
0
100
AcDbBlockBegin
  2
*PAPER_SPACE
 70
     0
 10
0.0
 20
0.0
 30
0.0
  3
*PAPER_SPACE
  1

  0
ENDBLK
  5
1D
330
1B
100
AcDbEntity
 67
     1
  8
0
100
AcDbBlockEnd
  0
BLOCK
  5
70
330
6F
100
AcDbEntity
  8
0
100
AcDbBlockBegin
  2
FXTIP_NONE
 70
     0
 10
0.0
 20
0.0
 30
0.0
  3
FXTIP_NONE
  1
FXTIP_NONE
  0
ENDBLK
  5
71
330
6F
100
AcDbEntity
  8
0
100
AcDbBlockEnd
  0
BLOCK
  5
73
330
72
100
AcDbEntity
  8
0
100
AcDbBlockBegin
  2
FXTIP_ARROW_S
 70
     0
 10
0.0
 20
0.0
 30
0.0
  3
FXTIP_ARROW_S
  1
FXTIP_ARROW_S
  0
LINE
  5
75
330
72
100
AcDbEntity
  8
0
  6
CONTINUOUS
 62
     0
100
AcDbLine
 10
0.0
 20
0.0
 30
0.0
 11
-1.0
 21
0.0000000000000001
 31
0.0
  0
LINE
  5
76
330
72
100
AcDbEntity
  8
0
  6
CONTINUOUS
 62
     0
100
AcDbLine
 10
0.0
 20
0.0
 30
0.0
 11
-0.9659258262890683
 21
-0.2588190451025206
 31
0.0
  0
LINE
  5
77
330
72
100
AcDbEntity
  8
0
  6
CONTINUOUS
 62
     0
100
AcDbLine
 10
0.0
 20
0.0
 30
0.0
 11
-0.9659258262890683
 21
0.2588190451025209
 31
0.0
  0
ENDBLK
  5
74
330
72
100
AcDbEntity
  8
0
100
AcDbBlockEnd
  0
BLOCK
  5
79
330
78
100
AcDbEntity
  8
0
100
AcDbBlockBegin
  2
FXTIP_ARROW_E
 70
     0
 10
0.0
 20
0.0
 30
0.0
  3
FXTIP_ARROW_E
  1
FXTIP_ARROW_E
  0
LINE
  5
7B
330
78
100
AcDbEntity
  8
0
  6
CONTINUOUS
 62
     0
100
AcDbLine
 10
0.0
 20
0.0
 30
0.0
 11
-1.0
 21
0.0
 31
0.0
  0
LINE
  5
7C
330
78
100
AcDbEntity
  8
0
  6
CONTINUOUS
 62
     0
100
AcDbLine
 10
0.0
 20
0.0
 30
0.0
 11
-0.9659258262890683
 21
0.2588190451025207
 31
0.0
  0
LINE
  5
7D
330
78
100
AcDbEntity
  8
0
  6
CONTINUOUS
 62
     0
100
AcDbLine
 10
0.0
 20
0.0
 30
0.0
 11
-0.9659258262890683
 21
-0.2588190451025207
 31
0.0
  0
ENDBLK
  5
7A
330
78
100
AcDbEntity
  8
0
100
AcDbBlockEnd
  0
BLOCK
  5
7F
330
7E
100
AcDbEntity
  8
0
100
AcDbBlockBegin
  2
FXTIP_BLACKDOT_S
 70
     0
 10
0.0
 20
0.0
 30
0.0
  3
FXTIP_BLACKDOT_S
  1
FXTIP_BLACKDOT_S
  0
LINE
  5
81
330
7E
100
AcDbEntity
  8
0
  6
CONTINUOUS
 62
     0
100
AcDbLine
 10
0.0
 20
0.0
 30
0.0
 11
-1.0
 21
0.0000000000000001
 31
0.0
  0
LWPOLYLINE
  5
82
330
7E
100
AcDbEntity
  8
0
  6
CONTINUOUS
 62
     0
100
AcDbPolyline
 90
        2
 70
     1
 43
0.2
 10
-0.1
 20
0.0
 42
1.0
 10
0.1
 20
0.0
 42
1.0
  0
CIRCLE
  5
83
330
7E
100
AcDbEntity
  8
0
  6
CONTINUOUS
 62
     0
100
AcDbCircle
 10
0.0
 20
0.0
 30
0.0
 40
0.2
  0
ENDBLK
  5
80
330
7E
100
AcDbEntity
  8
0
100
AcDbBlockEnd
  0
BLOCK
  5
85
330
84
100
AcDbEntity
  8
0
100
AcDbBlockBegin
  2
FXTIP_BLACKDOT_E
 70
     0
 10
0.0
 20
0.0
 30
0.0
  3
FXTIP_BLACKDOT_E
  1
FXTIP_BLACKDOT_E
  0
LINE
  5
87
330
84
100
AcDbEntity
  8
0
  6
CONTINUOUS
 62
     0
100
AcDbLine
 10
0.0
 20
0.0
 30
0.0
 11
-1.0
 21
0.0
 31
0.0
  0
LWPOLYLINE
  5
88
330
84
100
AcDbEntity
  8
0
  6
CONTINUOUS
 62
     0
100
AcDbPolyline
 90
        2
 70
     1
 43
0.2
 10
-0.1
 20
0.0
 42
1.0
 10
0.1
 20
0.0
 42
1.0
  0
CIRCLE
  5
89
330
84
100
AcDbEntity
  8
0
  6
CONTINUOUS
 62
     0
100
AcDbCircle
 10
0.0
 20
0.0
 30
0.0
 40
0.2
  0
ENDBLK
  5
86
330
84
100
AcDbEntity
  8
0
100
AcDbBlockEnd
  0
BLOCK
  5
8B
330
8A
100
AcDbEntity
  8
0
100
AcDbBlockBegin
  2
FXTIP_TRIANGLE_S
 70
     0
 10
0.0
 20
0.0
 30
0.0
  3
FXTIP_TRIANGLE_S
  1
FXTIP_TRIANGLE_S
  0
LINE
  5
8D
330
8A
100
AcDbEntity
  8
0
  6
CONTINUOUS
 62
     0
100
AcDbLine
 10
0.0
 20
0.0
 30
0.0
 11
-1.0
 21
0.0000000000000001
 31
0.0
  0
LINE
  5
8E
330
8A
100
AcDbEntity
  8
0
  6
CONTINUOUS
 62
     0
100
AcDbLine
 10
0.0
 20
0.0
 30
0.0
 11
-0.9659258262890683
 21
-0.2588190451025206
 31
0.0
  0
LINE
  5
8F
330
8A
100
AcDbEntity
  8
0
  6
CONTINUOUS
 62
     0
100
AcDbLine
 10
0.0
 20
0.0
 30
0.0
 11
-0.9659258262890683
 21
0.2588190451025209
 31
0.0
  0
LINE
  5
90
330
8A
100
AcDbEntity
  8
0
  6
CONTINUOUS
 62
     0
100
AcDbLine
 10
-0.9659258262890683
 20
-0.2588190451025206
 30
0.0
 11
-0.9659258262890683
 21
0.2588190451025209
 31
0.0
  0
ENDBLK
  5
8C
330
8A
100
AcDbEntity
  8
0
100
AcDbBlockEnd
  0
BLOCK
  5
92
330
91
100
AcDbEntity
  8
0
100
AcDbBlockBegin
  2
FXTIP_TRIANGLE_E
 70
     0
 10
0.0
 20
0.0
 30
0.0
  3
FXTIP_TRIANGLE_E
  1
FXTIP_TRIANGLE_E
  0
LINE
  5
94
330
91
100
AcDbEntity
  8
0
  6
CONTINUOUS
 62
     0
100
AcDbLine
 10
0.0
 20
0.0
 30
0.0
 11
-1.0
 21
0.0
 31
0.0
  0
LINE
  5
95
330
91
100
AcDbEntity
  8
0
  6
CONTINUOUS
 62
     0
100
AcDbLine
 10
0.0
 20
0.0
 30
0.0
 11
-0.9659258262890683
 21
0.2588190451025207
 31
0.0
  0
LINE
  5
96
330
91
100
AcDbEntity
  8
0
  6
CONTINUOUS
 62
     0
100
AcDbLine
 10
0.0
 20
0.0
 30
0.0
 11
-0.9659258262890683
 21
-0.2588190451025207
 31
0.0
  0
LINE
  5
97
330
91
100
AcDbEntity
  8
0
  6
CONTINUOUS
 62
     0
100
AcDbLine
 10
-0.9659258262890683
 20
0.2588190451025207
 30
0.0
 11
-0.9659258262890683
 21
-0.2588190451025207
 31
0.0
  0
ENDBLK
  5
93
330
91
100
AcDbEntity
  8
0
100
AcDbBlockEnd
  0
BLOCK
  5
99
330
98
100
AcDbEntity
  8
0
100
AcDbBlockBegin
  2
FXTIP_ARCHITECT_S
 70
     0
 10
0.0
 20
0.0
 30
0.0
  3
FXTIP_ARCHITECT_S
  1
FXTIP_ARCHITECT_S
  0
LINE
  5
9B
330
98
100
AcDbEntity
  8
0
  6
CONTINUOUS
 62
     0
100
AcDbLine
 10
0.0
 20
0.0
 30
0.0
 11
-1.0
 21
0.0000000000000001
 31
0.0
  0
LINE
  5
9C
330
98
100
AcDbEntity
  8
0
  6
CONTINUOUS
 62
     0
100
AcDbLine
 10
0.0
 20
0.0
 30
0.0
 11
-0.7071067811865476
 21
-0.7071067811865474
 31
0.0
  0
LINE
  5
9D
330
98
100
AcDbEntity
  8
0
  6
CONTINUOUS
 62
     0
100
AcDbLine
 10
0.0
 20
0.0
 30
0.0
 11
0.7071067811865476
 21
0.7071067811865474
 31
0.0
  0
ENDBLK
  5
9A
330
98
100
AcDbEntity
  8
0
100
AcDbBlockEnd
  0
BLOCK
  5
9F
330
9E
100
AcDbEntity
  8
0
100
AcDbBlockBegin
  2
FXTIP_ARCHITECT_E
 70
     0
 10
0.0
 20
0.0
 30
0.0
  3
FXTIP_ARCHITECT_E
  1
FXTIP_ARCHITECT_E
  0
LINE
  5
A1
330
9E
100
AcDbEntity
  8
0
  6
CONTINUOUS
 62
     0
100
AcDbLine
 10
0.0
 20
0.0
 30
0.0
 11
-1.0
 21
0.0
 31
0.0
  0
LINE
  5
A2
330
9E
100
AcDbEntity
  8
0
  6
CONTINUOUS
 62
     0
100
AcDbLine
 10
0.0
 20
0.0
 30
0.0
 11
0.7071067811865475
 21
0.7071067811865475
 31
0.0
  0
LINE
  5
A3
330
9E
100
AcDbEntity
  8
0
  6
CONTINUOUS
 62
     0
100
AcDbLine
 10
0.0
 20
0.0
 30
0.0
 11
-0.7071067811865475
 21
-0.7071067811865475
 31
0.0
  0
ENDBLK
  5
A0
330
9E
100
AcDbEntity
  8
0
100
AcDbBlockEnd
  0
BLOCK
  5
A5
330
A4
100
AcDbEntity
  8
0
100
AcDbBlockBegin
  2
FXTIP_CIVIL_S
 70
     0
 10
0.0
 20
0.0
 30
0.0
  3
FXTIP_CIVIL_S
  1
FXTIP_CIVIL_S
  0
LINE
  5
A7
330
A4
100
AcDbEntity
  8
0
  6
CONTINUOUS
 62
     0
100
AcDbLine
 10
0.0
 20
0.0
 30
0.0
 11
-1.0
 21
0.0000000000000001
 31
0.0
  0
LINE
  5
A8
330
A4
100
AcDbEntity
  8
0
  6
CONTINUOUS
 62
     0
100
AcDbLine
 10
0.0
 20
-0.1
 30
0.0
 11
-1.0
 21
-0.0999999999999999
 31
0.0
  0
LINE
  5
A9
330
A4
100
AcDbEntity
  8
0
  6
CONTINUOUS
 62
     0
100
AcDbLine
 10
0.0
 20
-0.2
 30
0.0
 11
-1.0
 21
-0.1999999999999999
 31
0.0
  0
ENDBLK
  5
A6
330
A4
100
AcDbEntity
  8
0
100
AcDbBlockEnd
  0
BLOCK
  5
AB
330
AA
100
AcDbEntity
  8
0
100
AcDbBlockBegin
  2
FXTIP_CIVIL_E
 70
     0
 10
0.0
 20
0.0
 30
0.0
  3
FXTIP_CIVIL_E
  1
FXTIP_CIVIL_E
  0
LINE
  5
AD
330
AA
100
AcDbEntity
  8
0
  6
CONTINUOUS
 62
     0
100
AcDbLine
 10
0.0
 20
0.0
 30
0.0
 11
-1.0
 21
0.0
 31
0.0
  0
LINE
  5
AE
330
AA
100
AcDbEntity
  8
0
  6
CONTINUOUS
 62
     0
100
AcDbLine
 10
0.0
 20
0.1
 30
0.0
 11
-1.0
 21
0.1
 31
0.0
  0
LINE
  5
AF
330
AA
100
AcDbEntity
  8
0
  6
CONTINUOUS
 62
     0
100
AcDbLine
 10
0.0
 20
0.2
 30
0.0
 11
-1.0
 21
0.2
 31
0.0
  0
ENDBLK
  5
AC
330
AA
100
AcDbEntity
  8
0
100
AcDbBlockEnd
  0
BLOCK
  5
B1
330
B0
100
AcDbEntity
  8
0
100
AcDbBlockBegin
  2
FXTIP_WHITEDOT_S
 70
     0
 10
0.0
 20
0.0
 30
0.0
  3
FXTIP_WHITEDOT_S
  1
FXTIP_WHITEDOT_S
  0
LINE
  5
B3
330
B0
100
AcDbEntity
  8
0
  6
CONTINUOUS
 62
     0
100
AcDbLine
 10
0.0
 20
0.0
 30
0.0
 11
-1.0
 21
0.0000000000000001
 31
0.0
  0
CIRCLE
  5
B4
330
B0
100
AcDbEntity
  8
0
  6
CONTINUOUS
 62
     0
100
AcDbCircle
 10
0.0
 20
0.0
 30
0.0
 40
0.2
  0
ENDBLK
  5
B2
330
B0
100
AcDbEntity
  8
0
100
AcDbBlockEnd
  0
BLOCK
  5
B6
330
B5
100
AcDbEntity
  8
0
100
AcDbBlockBegin
  2
FXTIP_WHITEDOT_E
 70
     0
 10
0.0
 20
0.0
 30
0.0
  3
FXTIP_WHITEDOT_E
  1
FXTIP_WHITEDOT_E
  0
LINE
  5
B8
330
B5
100
AcDbEntity
  8
0
  6
CONTINUOUS
 62
     0
100
AcDbLine
 10
0.0
 20
0.0
 30
0.0
 11
-1.0
 21
0.0
 31
0.0
  0
CIRCLE
  5
B9
330
B5
100
AcDbEntity
  8
0
  6
CONTINUOUS
 62
     0
100
AcDbCircle
 10
0.0
 20
0.0
 30
0.0
 40
0.2
  0
ENDBLK
  5
B7
330
B5
100
AcDbEntity
  8
0
100
AcDbBlockEnd
  0
BLOCK
  5
BB
330
BA
100
AcDbEntity
  8
0
100
AcDbBlockBegin
  2
FXTIP_UPARROW_S
 70
     0
 10
0.0
 20
0.0
 30
0.0
  3
FXTIP_UPARROW_S
  1
FXTIP_UPARROW_S
  0
LINE
  5
BD
330
BA
100
AcDbEntity
  8
0
  6
CONTINUOUS
 62
     0
100
AcDbLine
 10
0.0
 20
0.0
 30
0.0
 11
-1.0
 21
0.0000000000000001
 31
0.0
  0
LINE
  5
BE
330
BA
100
AcDbEntity
  8
0
  6
CONTINUOUS
 62
     0
100
AcDbLine
 10
0.0
 20
0.0
 30
0.0
 11
-0.9659258262890683
 21
-0.2588190451025206
 31
0.0
  0
ENDBLK
  5
BC
330
BA
100
AcDbEntity
  8
0
100
AcDbBlockEnd
  0
BLOCK
  5
C0
330
BF
100
AcDbEntity
  8
0
100
AcDbBlockBegin
  2
FXTIP_UPARROW_E
 70
     0
 10
0.0
 20
0.0
 30
0.0
  3
FXTIP_UPARROW_E
  1
FXTIP_UPARROW_E
  0
LINE
  5
C2
330
BF
100
AcDbEntity
  8
0
  6
CONTINUOUS
 62
     0
100
AcDbLine
 10
0.0
 20
0.0
 30
0.0
 11
-1.0
 21
0.0
 31
0.0
  0
LINE
  5
C3
330
BF
100
AcDbEntity
  8
0
  6
CONTINUOUS
 62
     0
100
AcDbLine
 10
0.0
 20
0.0
 30
0.0
 11
-0.9659258262890683
 21
0.2588190451025207
 31
0.0
  0
ENDBLK
  5
C1
330
BF
100
AcDbEntity
  8
0
100
AcDbBlockEnd
  0
BLOCK
  5
C5
330
C4
100
AcDbEntity
  8
0
100
AcDbBlockBegin
  2
FXTIP_DOWNARROW_S
 70
     0
 10
0.0
 20
0.0
 30
0.0
  3
FXTIP_DOWNARROW_S
  1
FXTIP_DOWNARROW_S
  0
LINE
  5
C7
330
C4
100
AcDbEntity
  8
0
  6
CONTINUOUS
 62
     0
100
AcDbLine
 10
0.0
 20
0.0
 30
0.0
 11
-1.0
 21
0.0000000000000001
 31
0.0
  0
LINE
  5
C8
330
C4
100
AcDbEntity
  8
0
  6
CONTINUOUS
 62
     0
100
AcDbLine
 10
0.0
 20
0.0
 30
0.0
 11
-0.9659258262890683
 21
0.2588190451025209
 31
0.0
  0
ENDBLK
  5
C6
330
C4
100
AcDbEntity
  8
0
100
AcDbBlockEnd
  0
BLOCK
  5
CA
330
C9
100
AcDbEntity
  8
0
100
AcDbBlockBegin
  2
FXTIP_DOWNARROW_E
 70
     0
 10
0.0
 20
0.0
 30
0.0
  3
FXTIP_DOWNARROW_E
  1
FXTIP_DOWNARROW_E
  0
LINE
  5
CC
330
C9
100
AcDbEntity
  8
0
  6
CONTINUOUS
 62
     0
100
AcDbLine
 10
0.0
 20
0.0
 30
0.0
 11
-1.0
 21
0.0
 31
0.0
  0
LINE
  5
CD
330
C9
100
AcDbEntity
  8
0
  6
CONTINUOUS
 62
     0
100
AcDbLine
 10
0.0
 20
0.0
 30
0.0
 11
-0.9659258262890683
 21
-0.2588190451025207
 31
0.0
  0
ENDBLK
  5
CB
330
C9
100
AcDbEntity
  8
0
100
AcDbBlockEnd
  0
BLOCK
  5
CF
330
CE
100
AcDbEntity
  8
0
100
AcDbBlockBegin
  2
FXTIP_BLACKTRIANGLE_S
 70
     0
 10
0.0
 20
0.0
 30
0.0
  3
FXTIP_BLACKTRIANGLE_S
  1
FXTIP_BLACKTRIANGLE_S
  0
LINE
  5
D1
330
CE
100
AcDbEntity
  8
0
  6
CONTINUOUS
 62
     0
100
AcDbLine
 10
0.0
 20
0.0
 30
0.0
 11
-1.0
 21
0.0000000000000001
 31
0.0
  0
SOLID
  5
D2
330
CE
100
AcDbEntity
  8
0
  6
CONTINUOUS
 62
     0
100
AcDbTrace
 10
0.0
 20
0.0
 30
0.0
 11
-0.9659258262890683
 21
-0.2588190451025206
 31
0.0
 12
-0.9659258262890683
 22
0.2588190451025209
 32
0.0
 13
-0.9659258262890683
 23
0.2588190451025209
 33
0.0
  0
ENDBLK
  5
D0
330
CE
100
AcDbEntity
  8
0
100
AcDbBlockEnd
  0
BLOCK
  5
D4
330
D3
100
AcDbEntity
  8
0
100
AcDbBlockBegin
  2
FXTIP_BLACKTRIANGLE_E
 70
     0
 10
0.0
 20
0.0
 30
0.0
  3
FXTIP_BLACKTRIANGLE_E
  1
FXTIP_BLACKTRIANGLE_E
  0
LINE
  5
D6
330
D3
100
AcDbEntity
  8
0
  6
CONTINUOUS
 62
     0
100
AcDbLine
 10
0.0
 20
0.0
 30
0.0
 11
-1.0
 21
0.0
 31
0.0
  0
SOLID
  5
D7
330
D3
100
AcDbEntity
  8
0
  6
CONTINUOUS
 62
     0
100
AcDbTrace
 10
0.0
 20
0.0
 30
0.0
 11
-0.9659258262890683
 21
0.2588190451025207
 31
0.0
 12
-0.9659258262890683
 22
-0.2588190451025207
 32
0.0
 13
-0.9659258262890683
 23
-0.2588190451025207
 33
0.0
  0
ENDBLK
  5
D5
330
D3
100
AcDbEntity
  8
0
100
AcDbBlockEnd
  0
ENDSEC
  0
SECTION
  2
ENTITIES
  0
LINE
  5
DD
330
1F
100
AcDbEntity
  8
GR1_16
 62
     7
100
AcDbLine
 10
25.0
 20
12.0
 30
0.0
 11
25.0
 21
285.0
 31
0.0
  0
LINE
  5
DE
330
1F
100
AcDbEntity
  8
GR1_16
 62
     7
100
AcDbLine
 10
198.0
 20
285.0
 30
0.0
 11
25.0
 21
285.0
 31
0.0
  0
LINE
  5
DF
330
1F
100
AcDbEntity
  8
GR1_16
 62
     7
100
AcDbLine
 10
198.0
 20
285.0
 30
0.0
 11
198.0
 21
12.0
 31
0.0
  0
LINE
  5
E0
330
1F
100
AcDbEntity
  8
GR1_16
 62
     7
100
AcDbLine
 10
198.0
 20
12.0
 30
0.0
 11
25.0
 21
12.0
 31
0.0
  0
LINE
  5
E2
330
1F
100
AcDbEntity
  8
GR2_01
 62
     7
100
AcDbLine
 10
44.15522636782842
 20
250.0
 30
0.0
 11
61.65522636782842
 21
250.0
 31
0.0
  0
TEXT
  5
E3
330
1F
100
AcDbEntity
  8
GR2_01
 62
     7
100
AcDbText
 10
48.58107757568359
 20
251.0535816539418
 30
0.0
 40
3.03030303030303
  1
表面
 41
1.269230769230769
  7
ＭＳ_ゴシック
 72
     1
 11
53.58107757568359
 21
250.5000305175781
 31
0.0
100
AcDbText
 73
     1
  0
LINE
  5
E5
330
1F
100
AcDbEntity
  8
GR2_01
  6
0_35点線
 62
     7
100
AcDbLine
 10
45.0
 20
104.0
 30
0.0
 11
25.0
 21
104.0
 31
0.0
  0
LINE
  5
E6
330
1F
100
AcDbEntity
  8
GR2_01
  6
0_35点線
 62
     7
100
AcDbLine
 10
186.2
 20
104.0
 30
0.0
 11
198.0
 21
104.0
 31
0.0
  0
LINE
  5
E7
330
1F
100
AcDbEntity
  8
GR2_01
 62
     7
100
AcDbLine
 10
44.15522636782842
 20
190.0
 30
0.0
 11
61.65522636782842
 21
190.0
 31
0.0
  0
TEXT
  5
E8
330
1F
100
AcDbEntity
  8
GR2_01
 62
     7
100
AcDbText
 10
48.58107757568359
 20
191.0535816539418
 30
0.0
 40
3.03030303030303
  1
裏面
 41
1.269230769230769
  7
ＭＳ_ゴシック
 72
     1
 11
53.58107757568359
 21
190.5000305175781
 31
0.0
100
AcDbText
 73
     1
  0
LINE
  5
E9
330
1F
100
AcDbEntity
  8
GR2_01
 62
     7
100
AcDbLine
 10
44.99999999999999
 20
244.9749203698381
 30
0.0
 11
45.02507963016193
 21
245.0
 31
0.0
  0
TEXT
  5
EA
330
1F
100
AcDbEntity
  8
GR2_01
 62
     7
100
AcDbText
 10
160.1927032470703
 20
13.55355113636364
 30
0.0
 40
3.03030303030303
  1
（ｉＱ－Ｒ用）
 41
0.8884615384615386
  7
ＭＳ_ゴシック
 72
     1
 11
172.4427032470703
 21
13.0
 31
0.0
100
AcDbText
 73
     1
  0
TEXT
  5
EB
330
1F
100
AcDbEntity
  8
GR2_01
 62
     7
100
AcDbText
 10
151.4427032470703
 20
18.05355113636364
 30
0.0
 40
3.03030303030303
  1
ＦＡ１－ＴＢＳ４０ＤＡＧ
 41
0.8884615384615387
  7
ＭＳ_ゴシック
 72
     1
 11
172.4427032470703
 21
17.5
 31
0.0
100
AcDbText
 73
     1
  0
LINE
  5
ED
330
1F
100
AcDbEntity
  8
GR1_01
 62
     7
100
AcDbLine
 10
45.02507963016194
 20
244.9999999999999
 30
0.0
 11
45.025079630162
 21
228.6999999999999
 31
0.0
  0
LINE
  5
EE
330
1F
100
AcDbEntity
  8
GR1_01
 62
     7
100
AcDbLine
 10
45.02507963016194
 20
244.9999999999999
 30
0.0
 11
186.2250796301619
 21
244.9999999999999
 31
0.0
  0
LINE
  5
EF
330
1F
100
AcDbEntity
  8
GR1_01
 62
     7
100
AcDbLine
 10
45.02507963016194
 20
236.8499999999999
 30
0.0
 11
186.2250796301619
 21
236.8499999999999
 31
0.0
  0
LINE
  5
F0
330
1F
100
AcDbEntity
  8
GR1_01
 62
     7
100
AcDbLine
 10
51.3550796301619
 20
244.9999999999999
 30
0.0
 11
51.35507963016192
 21
236.8499999999999
 31
0.0
  0
TEXT
  5
F1
330
1F
100
AcDbEntity
  8
GR1_01
 62
     7
100
AcDbText
 10
47.69006729125977
 20
242.7712366277521
 30
0.0
 40
1.515151515151515
  1
１
 41
0.5076923076923077
  7
ＭＳ_ゴシック
 72
     1
 11
48.19006729125977
 21
242.4944610595703
 31
0.0
100
AcDbText
 73
     1
  0
TEXT
  5
F2
330
1F
100
AcDbEntity
  8
GR1_01
 62
     7
100
AcDbText
 10
54.35507583618164
 20
242.7712366277521
 30
0.0
 40
1.515151515151515
  1
３
 41
0.5076923076923077
  7
ＭＳ_ゴシック
 72
     1
 11
54.85507583618164
 21
242.4944610595703
 31
0.0
100
AcDbText
 73
     1
  0
TEXT
  5
F3
330
1F
100
AcDbEntity
  8
GR1_01
 62
     7
100
AcDbText
 10
61.35507583618164
 20
242.7712366277521
 30
0.0
 40
1.515151515151515
  1
５
 41
0.5076923076923077
  7
ＭＳ_ゴシック
 72
     1
 11
61.85507583618164
 21
242.4944610595703
 31
0.0
100
AcDbText
 73
     1
  0
TEXT
  5
F4
330
1F
100
AcDbEntity
  8
GR1_01
 62
     7
100
AcDbText
 10
68.3550796508789
 20
242.7712366277521
 30
0.0
 40
1.515151515151515
  1
７
 41
0.5076923076923077
  7
ＭＳ_ゴシック
 72
     1
 11
68.8550796508789
 21
242.4944610595703
 31
0.0
100
AcDbText
 73
     1
  0
TEXT
  5
F5
330
1F
100
AcDbEntity
  8
GR1_01
 62
     7
100
AcDbText
 10
75.3550796508789
 20
242.7712366277521
 30
0.0
 40
1.515151515151515
  1
９
 41
0.5076923076923077
  7
ＭＳ_ゴシック
 72
     1
 11
75.8550796508789
 21
242.4944610595703
 31
0.0
100
AcDbText
 73
     1
  0
TEXT
  5
F6
330
1F
100
AcDbEntity
  8
GR1_01
 62
     7
100
AcDbText
 10
81.8550796508789
 20
242.7712366277521
 30
0.0
 40
1.515151515151515
  1
１１
 41
0.5076923076923077
  7
ＭＳ_ゴシック
 72
     1
 11
82.8550796508789
 21
242.4944610595703
 31
0.0
100
AcDbText
 73
     1
  0
TEXT
  5
F7
330
1F
100
AcDbEntity
  8
GR1_01
 62
     7
100
AcDbText
 10
88.85506439208984
 20
242.7712366277521
 30
0.0
 40
1.515151515151515
  1
１３
 41
0.5076923076923077
  7
ＭＳ_ゴシック
 72
     1
 11
89.85506439208984
 21
242.4944610595703
 31
0.0
100
AcDbText
 73
     1
  0
TEXT
  5
F8
330
1F
100
AcDbEntity
  8
GR1_01
 62
     7
100
AcDbText
 10
95.85506439208984
 20
242.7712366277521
 30
0.0
 40
1.515151515151515
  1
１５
 41
0.5076923076923077
  7
ＭＳ_ゴシック
 72
     1
 11
96.85506439208984
 21
242.4944610595703
 31
0.0
100
AcDbText
 73
     1
  0
TEXT
  5
F9
330
1F
100
AcDbEntity
  8
GR1_01
 62
     7
100
AcDbText
 10
102.855094909668
 20
242.7712366277521
 30
0.0
 40
1.515151515151515
  1
１７
 41
0.5076923076923077
  7
ＭＳ_ゴシック
 72
     1
 11
103.855094909668
 21
242.4944610595703
 31
0.0
100
AcDbText
 73
     1
  0
TEXT
  5
FA
330
1F
100
AcDbEntity
  8
GR1_01
 62
     7
100
AcDbText
 10
109.855094909668
 20
242.7712366277521
 30
0.0
 40
1.515151515151515
  1
１９
 41
0.5076923076923077
  7
ＭＳ_ゴシック
 72
     1
 11
110.855094909668
 21
242.4944610595703
 31
0.0
100
AcDbText
 73
     1
  0
TEXT
  5
FB
330
1F
100
AcDbEntity
  8
GR1_01
 62
     7
100
AcDbText
 10
116.855094909668
 20
242.7712366277521
 30
0.0
 40
1.515151515151515
  1
２１
 41
0.5076923076923077
  7
ＭＳ_ゴシック
 72
     1
 11
117.855094909668
 21
242.4944610595703
 31
0.0
100
AcDbText
 73
     1
  0
TEXT
  5
FC
330
1F
100
AcDbEntity
  8
GR1_01
 62
     7
100
AcDbText
 10
123.855094909668
 20
242.7712366277521
 30
0.0
 40
1.515151515151515
  1
２３
 41
0.5076923076923077
  7
ＭＳ_ゴシック
 72
     1
 11
124.855094909668
 21
242.4944610595703
 31
0.0
100
AcDbText
 73
     1
  0
TEXT
  5
FD
330
1F
100
AcDbEntity
  8
GR1_01
 62
     7
100
AcDbText
 10
130.8550872802734
 20
242.7712366277521
 30
0.0
 40
1.515151515151515
  1
２５
 41
0.5076923076923077
  7
ＭＳ_ゴシック
 72
     1
 11
131.8550872802734
 21
242.4944610595703
 31
0.0
100
AcDbText
 73
     1
  0
TEXT
  5
FE
330
1F
100
AcDbEntity
  8
GR1_01
 62
     7
100
AcDbText
 10
137.8550872802734
 20
242.7712366277521
 30
0.0
 40
1.515151515151515
  1
２７
 41
0.5076923076923077
  7
ＭＳ_ゴシック
 72
     1
 11
138.8550872802734
 21
242.4944610595703
 31
0.0
100
AcDbText
 73
     1
  0
TEXT
  5
FF
330
1F
100
AcDbEntity
  8
GR1_01
 62
     7
100
AcDbText
 10
144.8550872802734
 20
242.7712366277521
 30
0.0
 40
1.515151515151515
  1
２９
 41
0.5076923076923077
  7
ＭＳ_ゴシック
 72
     1
 11
145.8550872802734
 21
242.4944610595703
 31
0.0
100
AcDbText
 73
     1
  0
TEXT
  5
100
330
1F
100
AcDbEntity
  8
GR1_01
 62
     7
100
AcDbText
 10
151.8550872802734
 20
242.7712366277521
 30
0.0
 40
1.515151515151515
  1
３１
 41
0.5076923076923077
  7
ＭＳ_ゴシック
 72
     1
 11
152.8550872802734
 21
242.4944610595703
 31
0.0
100
AcDbText
 73
     1
  0
TEXT
  5
101
330
1F
100
AcDbEntity
  8
GR1_01
 62
     7
100
AcDbText
 10
158.8550872802734
 20
242.7712366277521
 30
0.0
 40
1.515151515151515
  1
３３
 41
0.5076923076923077
  7
ＭＳ_ゴシック
 72
     1
 11
159.8550872802734
 21
242.4944610595703
 31
0.0
100
AcDbText
 73
     1
  0
TEXT
  5
102
330
1F
100
AcDbEntity
  8
GR1_01
 62
     7
100
AcDbText
 10
165.8550872802734
 20
242.7712366277521
 30
0.0
 40
1.515151515151515
  1
３５
 41
0.5076923076923077
  7
ＭＳ_ゴシック
 72
     1
 11
166.8550872802734
 21
242.4944610595703
 31
0.0
100
AcDbText
 73
     1
  0
TEXT
  5
103
330
1F
100
AcDbEntity
  8
GR1_01
 62
     7
100
AcDbText
 10
172.8550872802734
 20
242.7712366277521
 30
0.0
 40
1.515151515151515
  1
３７
 41
0.5076923076923077
  7
ＭＳ_ゴシック
 72
     1
 11
173.8550872802734
 21
242.4944610595703
 31
0.0
100
AcDbText
 73
     1
  0
TEXT
  5
104
330
1F
100
AcDbEntity
  8
GR1_01
 62
     7
100
AcDbText
 10
179.3150787353516
 20
242.7712366277521
 30
0.0
 40
1.515151515151515
  1
３９
 41
0.5076923076923077
  7
ＭＳ_ゴシック
 72
     1
 11
180.3150787353516
 21
242.4944610595703
 31
0.0
100
AcDbText
 73
     1
  0
TEXT
  5
105
330
1F
100
AcDbEntity
  8
GR1_01
 62
     7
100
AcDbText
 10
50.97507095336914
 20
234.6271936590021
 30
0.0
 40
1.515151515151515
  1
２
 41
0.5076923076923077
  7
ＭＳ_ゴシック
 72
     1
 11
51.47507095336914
 21
234.3504180908203
 31
0.0
100
AcDbText
 73
     1
  0
TEXT
  5
106
330
1F
100
AcDbEntity
  8
GR1_01
 62
     7
100
AcDbText
 10
57.97507095336914
 20
234.6271936590021
 30
0.0
 40
1.515151515151515
  1
４
 41
0.5076923076923077
  7
ＭＳ_ゴシック
 72
     1
 11
58.47507095336914
 21
234.3504180908203
 31
0.0
100
AcDbText
 73
     1
  0
TEXT
  5
107
330
1F
100
AcDbEntity
  8
GR1_01
 62
     7
100
AcDbText
 10
64.9750747680664
 20
234.6271936590021
 30
0.0
 40
1.515151515151515
  1
６
 41
0.5076923076923077
  7
ＭＳ_ゴシック
 72
     1
 11
65.4750747680664
 21
234.3504180908203
 31
0.0
100
AcDbText
 73
     1
  0
TEXT
  5
108
330
1F
100
AcDbEntity
  8
GR1_01
 62
     7
100
AcDbText
 10
71.9750747680664
 20
234.6271936590021
 30
0.0
 40
1.515151515151515
  1
８
 41
0.5076923076923077
  7
ＭＳ_ゴシック
 72
     1
 11
72.4750747680664
 21
234.3504180908203
 31
0.0
100
AcDbText
 73
     1
  0
TEXT
  5
109
330
1F
100
AcDbEntity
  8
GR1_01
 62
     7
100
AcDbText
 10
78.4750747680664
 20
234.6271936590021
 30
0.0
 40
1.515151515151515
  1
１０
 41
0.5076923076923077
  7
ＭＳ_ゴシック
 72
     1
 11
79.4750747680664
 21
234.3504180908203
 31
0.0
100
AcDbText
 73
     1
  0
TEXT
  5
10A
330
1F
100
AcDbEntity
  8
GR1_01
 62
     7
100
AcDbText
 10
85.4750747680664
 20
234.6271936590021
 30
0.0
 40
1.515151515151515
  1
１２
 41
0.5076923076923077
  7
ＭＳ_ゴシック
 72
     1
 11
86.4750747680664
 21
234.3504180908203
 31
0.0
100
AcDbText
 73
     1
  0
TEXT
  5
10B
330
1F
100
AcDbEntity
  8
GR1_01
 62
     7
100
AcDbText
 10
92.47509002685547
 20
234.6271936590021
 30
0.0
 40
1.515151515151515
  1
１４
 41
0.5076923076923077
  7
ＭＳ_ゴシック
 72
     1
 11
93.47509002685547
 21
234.3504180908203
 31
0.0
100
AcDbText
 73
     1
  0
TEXT
  5
10C
330
1F
100
AcDbEntity
  8
GR1_01
 62
     7
100
AcDbText
 10
99.47509002685547
 20
234.6271936590021
 30
0.0
 40
1.515151515151515
  1
１６
 41
0.5076923076923077
  7
ＭＳ_ゴシック
 72
     1
 11
100.4750900268555
 21
234.3504180908203
 31
0.0
100
AcDbText
 73
     1
  0
TEXT
  5
10D
330
1F
100
AcDbEntity
  8
GR1_01
 62
     7
100
AcDbText
 10
106.4750900268555
 20
234.6271936590021
 30
0.0
 40
1.515151515151515
  1
１８
 41
0.5076923076923077
  7
ＭＳ_ゴシック
 72
     1
 11
107.4750900268555
 21
234.3504180908203
 31
0.0
100
AcDbText
 73
     1
  0
TEXT
  5
10E
330
1F
100
AcDbEntity
  8
GR1_01
 62
     7
100
AcDbText
 10
113.4750900268555
 20
234.6271936590021
 30
0.0
 40
1.515151515151515
  1
２０
 41
0.5076923076923077
  7
ＭＳ_ゴシック
 72
     1
 11
114.4750900268555
 21
234.3504180908203
 31
0.0
100
AcDbText
 73
     1
  0
TEXT
  5
10F
330
1F
100
AcDbEntity
  8
GR1_01
 62
     7
100
AcDbText
 10
120.4750900268555
 20
234.6271936590021
 30
0.0
 40
1.515151515151515
  1
２２
 41
0.5076923076923077
  7
ＭＳ_ゴシック
 72
     1
 11
121.4750900268555
 21
234.3504180908203
 31
0.0
100
AcDbText
 73
     1
  0
TEXT
  5
110
330
1F
100
AcDbEntity
  8
GR1_01
 62
     7
100
AcDbText
 10
127.4750823974609
 20
234.6271936590021
 30
0.0
 40
1.515151515151515
  1
２４
 41
0.5076923076923077
  7
ＭＳ_ゴシック
 72
     1
 11
128.4750823974609
 21
234.3504180908203
 31
0.0
100
AcDbText
 73
     1
  0
TEXT
  5
111
330
1F
100
AcDbEntity
  8
GR1_01
 62
     7
100
AcDbText
 10
134.4750823974609
 20
234.6271936590021
 30
0.0
 40
1.515151515151515
  1
２６
 41
0.5076923076923077
  7
ＭＳ_ゴシック
 72
     1
 11
135.4750823974609
 21
234.3504180908203
 31
0.0
100
AcDbText
 73
     1
  0
TEXT
  5
112
330
1F
100
AcDbEntity
  8
GR1_01
 62
     7
100
AcDbText
 10
141.4750823974609
 20
234.6271936590021
 30
0.0
 40
1.515151515151515
  1
２８
 41
0.5076923076923077
  7
ＭＳ_ゴシック
 72
     1
 11
142.4750823974609
 21
234.3504180908203
 31
0.0
100
AcDbText
 73
     1
  0
TEXT
  5
113
330
1F
100
AcDbEntity
  8
GR1_01
 62
     7
100
AcDbText
 10
148.4750823974609
 20
234.6271936590021
 30
0.0
 40
1.515151515151515
  1
３０
 41
0.5076923076923077
  7
ＭＳ_ゴシック
 72
     1
 11
149.4750823974609
 21
234.3504180908203
 31
0.0
100
AcDbText
 73
     1
  0
TEXT
  5
114
330
1F
100
AcDbEntity
  8
GR1_01
 62
     7
100
AcDbText
 10
155.4750823974609
 20
234.6271936590021
 30
0.0
 40
1.515151515151515
  1
３２
 41
0.5076923076923077
  7
ＭＳ_ゴシック
 72
     1
 11
156.4750823974609
 21
234.3504180908203
 31
0.0
100
AcDbText
 73
     1
  0
TEXT
  5
115
330
1F
100
AcDbEntity
  8
GR1_01
 62
     7
100
AcDbText
 10
162.4750823974609
 20
234.6271936590021
 30
0.0
 40
1.515151515151515
  1
３４
 41
0.5076923076923077
  7
ＭＳ_ゴシック
 72
     1
 11
163.4750823974609
 21
234.3504180908203
 31
0.0
100
AcDbText
 73
     1
  0
TEXT
  5
116
330
1F
100
AcDbEntity
  8
GR1_01
 62
     7
100
AcDbText
 10
169.4750823974609
 20
234.6271936590021
 30
0.0
 40
1.515151515151515
  1
３６
 41
0.5076923076923077
  7
ＭＳ_ゴシック
 72
     1
 11
170.4750823974609
 21
234.3504180908203
 31
0.0
100
AcDbText
 73
     1
  0
TEXT
  5
117
330
1F
100
AcDbEntity
  8
GR1_01
 62
     7
100
AcDbText
 10
176.4750823974609
 20
234.6271936590021
 30
0.0
 40
1.515151515151515
  1
３８
 41
0.5076923076923077
  7
ＭＳ_ゴシック
 72
     1
 11
177.4750823974609
 21
234.3504180908203
 31
0.0
100
AcDbText
 73
     1
  0
TEXT
  5
118
330
1F
100
AcDbEntity
  8
GR1_01
 62
     7
100
AcDbText
 10
182.6000823974609
 20
234.6660272771662
 30
0.0
 40
1.515151515151515
  1
４０
 41
0.5076923076923077
  7
ＭＳ_ゴシック
 72
     1
 11
183.6000823974609
 21
234.3892517089844
 31
0.0
100
AcDbText
 73
     1
  0
LINE
  5
119
330
1F
100
AcDbEntity
  8
GR1_01
 62
     7
100
AcDbLine
 10
186.2250796301619
 20
228.6999999999999
 30
0.0
 11
186.2250796301619
 21
244.9999999999999
 31
0.0
  0
LINE
  5
11A
330
1F
100
AcDbEntity
  8
GR1_01
 62
     7
100
AcDbLine
 10
177.3550796301619
 20
244.9999999999999
 30
0.0
 11
177.3550796301619
 21
236.8499999999999
 31
0.0
  0
LINE
  5
11B
330
1F
100
AcDbEntity
  8
GR1_01
 62
     7
100
AcDbLine
 10
170.3550796301619
 20
244.9999999999998
 30
0.0
 11
170.355079630162
 21
236.8499999999999
 31
0.0
  0
LINE
  5
11C
330
1F
100
AcDbEntity
  8
GR1_01
 62
     7
100
AcDbLine
 10
163.3550796301619
 20
244.9999999999998
 30
0.0
 11
163.355079630162
 21
236.8499999999999
 31
0.0
  0
LINE
  5
11D
330
1F
100
AcDbEntity
  8
GR1_01
 62
     7
100
AcDbLine
 10
156.3550796301619
 20
244.9999999999998
 30
0.0
 11
156.355079630162
 21
236.8499999999999
 31
0.0
  0
LINE
  5
11E
330
1F
100
AcDbEntity
  8
GR1_01
 62
     7
100
AcDbLine
 10
149.355079630162
 20
244.9999999999998
 30
0.0
 11
149.355079630162
 21
236.8499999999999
 31
0.0
  0
LINE
  5
11F
330
1F
100
AcDbEntity
  8
GR1_01
 62
     7
100
AcDbLine
 10
142.355079630162
 20
244.9999999999998
 30
0.0
 11
142.355079630162
 21
236.8499999999999
 31
0.0
  0
LINE
  5
120
330
1F
100
AcDbEntity
  8
GR1_01
 62
     7
100
AcDbLine
 10
135.355079630162
 20
244.9999999999998
 30
0.0
 11
135.3550796301622
 21
236.8499999999999
 31
0.0
  0
LINE
  5
121
330
1F
100
AcDbEntity
  8
GR1_01
 62
     7
100
AcDbLine
 10
128.355079630162
 20
244.9999999999998
 30
0.0
 11
128.3550796301622
 21
236.8499999999999
 31
0.0
  0
LINE
  5
122
330
1F
100
AcDbEntity
  8
GR1_01
 62
     7
100
AcDbLine
 10
121.3550796301621
 20
244.9999999999998
 30
0.0
 11
121.3550796301622
 21
236.8499999999999
 31
0.0
  0
LINE
  5
123
330
1F
100
AcDbEntity
  8
GR1_01
 62
     7
100
AcDbLine
 10
114.3550796301622
 20
244.9999999999998
 30
0.0
 11
114.3550796301622
 21
236.8499999999999
 31
0.0
  0
LINE
  5
124
330
1F
100
AcDbEntity
  8
GR1_01
 62
     7
100
AcDbLine
 10
107.3550796301622
 20
244.9999999999998
 30
0.0
 11
107.3550796301622
 21
236.8499999999999
 31
0.0
  0
LINE
  5
125
330
1F
100
AcDbEntity
  8
GR1_01
 62
     7
100
AcDbLine
 10
100.3550796301622
 20
244.9999999999998
 30
0.0
 11
100.3550796301622
 21
236.8499999999999
 31
0.0
  0
LINE
  5
126
330
1F
100
AcDbEntity
  8
GR1_01
 62
     7
100
AcDbLine
 10
93.35507963016221
 20
244.9999999999998
 30
0.0
 11
93.35507963016227
 21
236.8499999999999
 31
0.0
  0
LINE
  5
127
330
1F
100
AcDbEntity
  8
GR1_01
 62
     7
100
AcDbLine
 10
86.35507963016224
 20
244.9999999999998
 30
0.0
 11
86.35507963016232
 21
236.8499999999999
 31
0.0
  0
LINE
  5
128
330
1F
100
AcDbEntity
  8
GR1_01
 62
     7
100
AcDbLine
 10
79.35507963016227
 20
244.9999999999998
 30
0.0
 11
79.35507963016232
 21
236.8499999999999
 31
0.0
  0
LINE
  5
129
330
1F
100
AcDbEntity
  8
GR1_01
 62
     7
100
AcDbLine
 10
72.3550796301623
 20
244.9999999999998
 30
0.0
 11
72.35507963016235
 21
236.8499999999999
 31
0.0
  0
LINE
  5
12A
330
1F
100
AcDbEntity
  8
GR1_01
 62
     7
100
AcDbLine
 10
65.35507963016232
 20
244.9999999999998
 30
0.0
 11
65.35507963016238
 21
236.8499999999999
 31
0.0
  0
LINE
  5
12B
330
1F
100
AcDbEntity
  8
GR1_01
 62
     7
100
AcDbLine
 10
58.35507963016235
 20
244.9999999999998
 30
0.0
 11
58.35507963016244
 21
236.8499999999999
 31
0.0
  0
LINE
  5
12C
330
1F
100
AcDbEntity
  8
GR1_01
 62
     7
100
AcDbLine
 10
45.02507963016194
 20
241.9999999999999
 30
0.0
 11
183.275079630162
 21
241.9999999999999
 31
0.0
  0
LINE
  5
12D
330
1F
100
AcDbEntity
  8
GR1_01
 62
     7
100
AcDbLine
 10
45.02507963016194
 20
236.8499999999999
 30
0.0
 11
186.2250796301619
 21
236.8499999999999
 31
0.0
  0
LINE
  5
12E
330
1F
100
AcDbEntity
  8
GR1_01
 62
     7
100
AcDbLine
 10
47.97507963016199
 20
233.8499999999999
 30
0.0
 11
186.2250796301619
 21
233.8499999999999
 31
0.0
  0
LINE
  5
12F
330
1F
100
AcDbEntity
  8
GR1_01
 62
     7
100
AcDbLine
 10
45.02507963016194
 20
228.6999999999999
 30
0.0
 11
186.2250796301619
 21
228.6999999999999
 31
0.0
  0
LINE
  5
130
330
1F
100
AcDbEntity
  8
GR1_01
 62
     7
100
AcDbLine
 10
47.97507963016199
 20
236.85
 30
0.0
 11
47.97507963016199
 21
228.6999999999999
 31
0.0
  0
LINE
  5
131
330
1F
100
AcDbEntity
  8
GR1_01
 62
     7
100
AcDbLine
 10
54.97507963016199
 20
236.85
 30
0.0
 11
54.97507963016199
 21
228.6999999999999
 31
0.0
  0
LINE
  5
132
330
1F
100
AcDbEntity
  8
GR1_01
 62
     7
100
AcDbLine
 10
61.97507963016196
 20
236.85
 30
0.0
 11
61.97507963016199
 21
228.6999999999999
 31
0.0
  0
LINE
  5
133
330
1F
100
AcDbEntity
  8
GR1_01
 62
     7
100
AcDbLine
 10
68.97507963016193
 20
236.85
 30
0.0
 11
68.97507963016196
 21
228.6999999999999
 31
0.0
  0
LINE
  5
134
330
1F
100
AcDbEntity
  8
GR1_01
 62
     7
100
AcDbLine
 10
75.97507963016193
 20
236.85
 30
0.0
 11
75.97507963016193
 21
228.6999999999999
 31
0.0
  0
LINE
  5
135
330
1F
100
AcDbEntity
  8
GR1_01
 62
     7
100
AcDbLine
 10
82.97507963016193
 20
236.85
 30
0.0
 11
82.97507963016193
 21
228.6999999999999
 31
0.0
  0
LINE
  5
136
330
1F
100
AcDbEntity
  8
GR1_01
 62
     7
100
AcDbLine
 10
89.97507963016193
 20
236.85
 30
0.0
 11
89.97507963016193
 21
228.6999999999999
 31
0.0
  0
LINE
  5
137
330
1F
100
AcDbEntity
  8
GR1_01
 62
     7
100
AcDbLine
 10
96.97507963016187
 20
236.85
 30
0.0
 11
96.97507963016193
 21
228.6999999999999
 31
0.0
  0
LINE
  5
138
330
1F
100
AcDbEntity
  8
GR1_01
 62
     7
100
AcDbLine
 10
103.9750796301619
 20
236.85
 30
0.0
 11
103.9750796301619
 21
228.6999999999999
 31
0.0
  0
LINE
  5
139
330
1F
100
AcDbEntity
  8
GR1_01
 62
     7
100
AcDbLine
 10
110.9750796301619
 20
236.85
 30
0.0
 11
110.9750796301619
 21
228.6999999999999
 31
0.0
  0
LINE
  5
13A
330
1F
100
AcDbEntity
  8
GR1_01
 62
     7
100
AcDbLine
 10
117.9750796301618
 20
236.85
 30
0.0
 11
117.9750796301619
 21
228.6999999999999
 31
0.0
  0
LINE
  5
13B
330
1F
100
AcDbEntity
  8
GR1_01
 62
     7
100
AcDbLine
 10
124.9750796301618
 20
236.85
 30
0.0
 11
124.9750796301618
 21
228.6999999999999
 31
0.0
  0
LINE
  5
13C
330
1F
100
AcDbEntity
  8
GR1_01
 62
     7
100
AcDbLine
 10
131.9750796301618
 20
236.85
 30
0.0
 11
131.9750796301618
 21
228.6999999999999
 31
0.0
  0
LINE
  5
13D
330
1F
100
AcDbEntity
  8
GR1_01
 62
     7
100
AcDbLine
 10
138.9750796301618
 20
236.85
 30
0.0
 11
138.9750796301618
 21
228.6999999999999
 31
0.0
  0
LINE
  5
13E
330
1F
100
AcDbEntity
  8
GR1_01
 62
     7
100
AcDbLine
 10
145.9750796301618
 20
236.85
 30
0.0
 11
145.9750796301618
 21
228.6999999999999
 31
0.0
  0
LINE
  5
13F
330
1F
100
AcDbEntity
  8
GR1_01
 62
     7
100
AcDbLine
 10
152.9750796301618
 20
236.85
 30
0.0
 11
152.9750796301618
 21
228.6999999999999
 31
0.0
  0
LINE
  5
140
330
1F
100
AcDbEntity
  8
GR1_01
 62
     7
100
AcDbLine
 10
159.9750796301618
 20
236.85
 30
0.0
 11
159.9750796301618
 21
228.6999999999999
 31
0.0
  0
LINE
  5
141
330
1F
100
AcDbEntity
  8
GR1_01
 62
     7
100
AcDbLine
 10
166.9750796301618
 20
236.85
 30
0.0
 11
166.9750796301618
 21
228.6999999999999
 31
0.0
  0
LINE
  5
142
330
1F
100
AcDbEntity
  8
GR1_01
 62
     7
100
AcDbLine
 10
173.9750796301617
 20
236.85
 30
0.0
 11
173.9750796301618
 21
228.6999999999999
 31
0.0
  0
LINE
  5
143
330
1F
100
AcDbEntity
  8
GR1_01
 62
     7
100
AcDbLine
 10
180.9750796301617
 20
236.85
 30
0.0
 11
180.9750796301617
 21
228.6999999999999
 31
0.0
  0
LINE
  5
144
330
1F
100
AcDbEntity
  8
GR1_01
 62
     7
100
AcDbLine
 10
44.99999999999997
 20
185.0
 30
0.0
 11
45.00000000000003
 21
168.7
 31
0.0
  0
LINE
  5
145
330
1F
100
AcDbEntity
  8
GR1_01
 62
     7
100
AcDbLine
 10
44.99999999999997
 20
185.0
 30
0.0
 11
186.2
 21
185.0
 31
0.0
  0
LINE
  5
146
330
1F
100
AcDbEntity
  8
GR1_01
 62
     7
100
AcDbLine
 10
44.99999999999997
 20
176.8500000000001
 30
0.0
 11
186.2
 21
176.8500000000001
 31
0.0
  0
LINE
  5
147
330
1F
100
AcDbEntity
  8
GR1_01
 62
     7
100
AcDbLine
 10
51.32999999999993
 20
185.0
 30
0.0
 11
51.32999999999996
 21
176.8500000000001
 31
0.0
  0
TEXT
  5
148
330
1F
100
AcDbEntity
  8
GR1_01
 62
     7
100
AcDbText
 10
47.66498947143555
 20
182.7628442937678
 30
0.0
 40
1.515151515151515
  1
１
 41
0.5076923076923077
  7
ＭＳ_ゴシック
 72
     1
 11
48.16498947143555
 21
182.4860687255859
 31
0.0
100
AcDbText
 73
     1
  0
TEXT
  5
149
330
1F
100
AcDbEntity
  8
GR1_01
 62
     7
100
AcDbText
 10
54.32999801635742
 20
182.7628442937678
 30
0.0
 40
1.515151515151515
  1
３
 41
0.5076923076923077
  7
ＭＳ_ゴシック
 72
     1
 11
54.82999801635742
 21
182.4860687255859
 31
0.0
100
AcDbText
 73
     1
  0
TEXT
  5
14A
330
1F
100
AcDbEntity
  8
GR1_01
 62
     7
100
AcDbText
 10
61.32999801635742
 20
182.7628442937678
 30
0.0
 40
1.515151515151515
  1
５
 41
0.5076923076923077
  7
ＭＳ_ゴシック
 72
     1
 11
61.82999801635742
 21
182.4860687255859
 31
0.0
100
AcDbText
 73
     1
  0
TEXT
  5
14B
330
1F
100
AcDbEntity
  8
GR1_01
 62
     7
100
AcDbText
 10
68.32999420166016
 20
182.7628442937678
 30
0.0
 40
1.515151515151515
  1
７
 41
0.5076923076923077
  7
ＭＳ_ゴシック
 72
     1
 11
68.82999420166016
 21
182.4860687255859
 31
0.0
100
AcDbText
 73
     1
  0
TEXT
  5
14C
330
1F
100
AcDbEntity
  8
GR1_01
 62
     7
100
AcDbText
 10
75.32999420166016
 20
182.7628442937678
 30
0.0
 40
1.515151515151515
  1
９
 41
0.5076923076923077
  7
ＭＳ_ゴシック
 72
     1
 11
75.82999420166016
 21
182.4860687255859
 31
0.0
100
AcDbText
 73
     1
  0
TEXT
  5
14D
330
1F
100
AcDbEntity
  8
GR1_01
 62
     7
100
AcDbText
 10
81.82999420166016
 20
182.7628442937678
 30
0.0
 40
1.515151515151515
  1
１１
 41
0.5076923076923077
  7
ＭＳ_ゴシック
 72
     1
 11
82.82999420166016
 21
182.4860687255859
 31
0.0
100
AcDbText
 73
     1
  0
TEXT
  5
14E
330
1F
100
AcDbEntity
  8
GR1_01
 62
     7
100
AcDbText
 10
88.8299789428711
 20
182.7628442937678
 30
0.0
 40
1.515151515151515
  1
１３
 41
0.5076923076923077
  7
ＭＳ_ゴシック
 72
     1
 11
89.8299789428711
 21
182.4860687255859
 31
0.0
100
AcDbText
 73
     1
  0
TEXT
  5
14F
330
1F
100
AcDbEntity
  8
GR1_01
 62
     7
100
AcDbText
 10
95.8299789428711
 20
182.7628442937678
 30
0.0
 40
1.515151515151515
  1
１５
 41
0.5076923076923077
  7
ＭＳ_ゴシック
 72
     1
 11
96.8299789428711
 21
182.4860687255859
 31
0.0
100
AcDbText
 73
     1
  0
TEXT
  5
150
330
1F
100
AcDbEntity
  8
GR1_01
 62
     7
100
AcDbText
 10
102.8300094604492
 20
182.7628442937678
 30
0.0
 40
1.515151515151515
  1
１７
 41
0.5076923076923077
  7
ＭＳ_ゴシック
 72
     1
 11
103.8300094604492
 21
182.4860687255859
 31
0.0
100
AcDbText
 73
     1
  0
TEXT
  5
151
330
1F
100
AcDbEntity
  8
GR1_01
 62
     7
100
AcDbText
 10
109.8300094604492
 20
182.7628442937678
 30
0.0
 40
1.515151515151515
  1
１９
 41
0.5076923076923077
  7
ＭＳ_ゴシック
 72
     1
 11
110.8300094604492
 21
182.4860687255859
 31
0.0
100
AcDbText
 73
     1
  0
TEXT
  5
152
330
1F
100
AcDbEntity
  8
GR1_01
 62
     7
100
AcDbText
 10
116.8300094604492
 20
182.7628442937678
 30
0.0
 40
1.515151515151515
  1
２１
 41
0.5076923076923077
  7
ＭＳ_ゴシック
 72
     1
 11
117.8300094604492
 21
182.4860687255859
 31
0.0
100
AcDbText
 73
     1
  0
TEXT
  5
153
330
1F
100
AcDbEntity
  8
GR1_01
 62
     7
100
AcDbText
 10
123.8300094604492
 20
182.7628442937678
 30
0.0
 40
1.515151515151515
  1
２３
 41
0.5076923076923077
  7
ＭＳ_ゴシック
 72
     1
 11
124.8300094604492
 21
182.4860687255859
 31
0.0
100
AcDbText
 73
     1
  0
TEXT
  5
154
330
1F
100
AcDbEntity
  8
GR1_01
 62
     7
100
AcDbText
 10
130.8300170898438
 20
182.7628442937678
 30
0.0
 40
1.515151515151515
  1
２５
 41
0.5076923076923077
  7
ＭＳ_ゴシック
 72
     1
 11
131.8300170898438
 21
182.4860687255859
 31
0.0
100
AcDbText
 73
     1
  0
TEXT
  5
155
330
1F
100
AcDbEntity
  8
GR1_01
 62
     7
100
AcDbText
 10
137.8300170898438
 20
182.7628442937678
 30
0.0
 40
1.515151515151515
  1
２７
 41
0.5076923076923077
  7
ＭＳ_ゴシック
 72
     1
 11
138.8300170898438
 21
182.4860687255859
 31
0.0
100
AcDbText
 73
     1
  0
TEXT
  5
156
330
1F
100
AcDbEntity
  8
GR1_01
 62
     7
100
AcDbText
 10
144.8300170898438
 20
182.7628442937678
 30
0.0
 40
1.515151515151515
  1
２９
 41
0.5076923076923077
  7
ＭＳ_ゴシック
 72
     1
 11
145.8300170898438
 21
182.4860687255859
 31
0.0
100
AcDbText
 73
     1
  0
TEXT
  5
157
330
1F
100
AcDbEntity
  8
GR1_01
 62
     7
100
AcDbText
 10
151.8300170898438
 20
182.7628442937678
 30
0.0
 40
1.515151515151515
  1
３１
 41
0.5076923076923077
  7
ＭＳ_ゴシック
 72
     1
 11
152.8300170898438
 21
182.4860687255859
 31
0.0
100
AcDbText
 73
     1
  0
TEXT
  5
158
330
1F
100
AcDbEntity
  8
GR1_01
 62
     7
100
AcDbText
 10
158.8300170898438
 20
182.7628442937678
 30
0.0
 40
1.515151515151515
  1
３３
 41
0.5076923076923077
  7
ＭＳ_ゴシック
 72
     1
 11
159.8300170898438
 21
182.4860687255859
 31
0.0
100
AcDbText
 73
     1
  0
TEXT
  5
159
330
1F
100
AcDbEntity
  8
GR1_01
 62
     7
100
AcDbText
 10
165.8300170898438
 20
182.7628442937678
 30
0.0
 40
1.515151515151515
  1
３５
 41
0.5076923076923077
  7
ＭＳ_ゴシック
 72
     1
 11
166.8300170898438
 21
182.4860687255859
 31
0.0
100
AcDbText
 73
     1
  0
TEXT
  5
15A
330
1F
100
AcDbEntity
  8
GR1_01
 62
     7
100
AcDbText
 10
172.8300170898438
 20
182.7628442937678
 30
0.0
 40
1.515151515151515
  1
３７
 41
0.5076923076923077
  7
ＭＳ_ゴシック
 72
     1
 11
173.8300170898438
 21
182.4860687255859
 31
0.0
100
AcDbText
 73
     1
  0
TEXT
  5
15B
330
1F
100
AcDbEntity
  8
GR1_01
 62
     7
100
AcDbText
 10
50.94999313354492
 20
174.6180383855646
 30
0.0
 40
1.515151515151515
  1
２
 41
0.5076923076923077
  7
ＭＳ_ゴシック
 72
     1
 11
51.44999313354492
 21
174.3412628173828
 31
0.0
100
AcDbText
 73
     1
  0
TEXT
  5
15C
330
1F
100
AcDbEntity
  8
GR1_01
 62
     7
100
AcDbText
 10
57.94999313354492
 20
174.6180383855646
 30
0.0
 40
1.515151515151515
  1
４
 41
0.5076923076923077
  7
ＭＳ_ゴシック
 72
     1
 11
58.44999313354492
 21
174.3412628173828
 31
0.0
100
AcDbText
 73
     1
  0
TEXT
  5
15D
330
1F
100
AcDbEntity
  8
GR1_01
 62
     7
100
AcDbText
 10
64.94998931884766
 20
174.6180383855646
 30
0.0
 40
1.515151515151515
  1
６
 41
0.5076923076923077
  7
ＭＳ_ゴシック
 72
     1
 11
65.44998931884766
 21
174.3412628173828
 31
0.0
100
AcDbText
 73
     1
  0
TEXT
  5
15E
330
1F
100
AcDbEntity
  8
GR1_01
 62
     7
100
AcDbText
 10
71.94998931884766
 20
174.6180383855646
 30
0.0
 40
1.515151515151515
  1
８
 41
0.5076923076923077
  7
ＭＳ_ゴシック
 72
     1
 11
72.44998931884766
 21
174.3412628173828
 31
0.0
100
AcDbText
 73
     1
  0
TEXT
  5
15F
330
1F
100
AcDbEntity
  8
GR1_01
 62
     7
100
AcDbText
 10
78.44998931884766
 20
174.6180383855646
 30
0.0
 40
1.515151515151515
  1
１０
 41
0.5076923076923077
  7
ＭＳ_ゴシック
 72
     1
 11
79.44998931884766
 21
174.3412628173828
 31
0.0
100
AcDbText
 73
     1
  0
TEXT
  5
160
330
1F
100
AcDbEntity
  8
GR1_01
 62
     7
100
AcDbText
 10
85.44998931884766
 20
174.6180383855646
 30
0.0
 40
1.515151515151515
  1
１２
 41
0.5076923076923077
  7
ＭＳ_ゴシック
 72
     1
 11
86.44998931884766
 21
174.3412628173828
 31
0.0
100
AcDbText
 73
     1
  0
TEXT
  5
161
330
1F
100
AcDbEntity
  8
GR1_01
 62
     7
100
AcDbText
 10
92.45000457763672
 20
174.6180383855646
 30
0.0
 40
1.515151515151515
  1
１４
 41
0.5076923076923077
  7
ＭＳ_ゴシック
 72
     1
 11
93.45000457763672
 21
174.3412628173828
 31
0.0
100
AcDbText
 73
     1
  0
TEXT
  5
162
330
1F
100
AcDbEntity
  8
GR1_01
 62
     7
100
AcDbText
 10
99.45000457763672
 20
174.6180383855646
 30
0.0
 40
1.515151515151515
  1
１６
 41
0.5076923076923077
  7
ＭＳ_ゴシック
 72
     1
 11
100.4500045776367
 21
174.3412628173828
 31
0.0
100
AcDbText
 73
     1
  0
TEXT
  5
163
330
1F
100
AcDbEntity
  8
GR1_01
 62
     7
100
AcDbText
 10
106.4500045776367
 20
174.6180383855646
 30
0.0
 40
1.515151515151515
  1
１８
 41
0.5076923076923077
  7
ＭＳ_ゴシック
 72
     1
 11
107.4500045776367
 21
174.3412628173828
 31
0.0
100
AcDbText
 73
     1
  0
TEXT
  5
164
330
1F
100
AcDbEntity
  8
GR1_01
 62
     7
100
AcDbText
 10
113.4500045776367
 20
174.6180383855646
 30
0.0
 40
1.515151515151515
  1
２０
 41
0.5076923076923077
  7
ＭＳ_ゴシック
 72
     1
 11
114.4500045776367
 21
174.3412628173828
 31
0.0
100
AcDbText
 73
     1
  0
TEXT
  5
165
330
1F
100
AcDbEntity
  8
GR1_01
 62
     7
100
AcDbText
 10
120.4500045776367
 20
174.6180383855646
 30
0.0
 40
1.515151515151515
  1
２２
 41
0.5076923076923077
  7
ＭＳ_ゴシック
 72
     1
 11
121.4500045776367
 21
174.3412628173828
 31
0.0
100
AcDbText
 73
     1
  0
TEXT
  5
166
330
1F
100
AcDbEntity
  8
GR1_01
 62
     7
100
AcDbText
 10
127.4500122070312
 20
174.6180383855646
 30
0.0
 40
1.515151515151515
  1
２４
 41
0.5076923076923077
  7
ＭＳ_ゴシック
 72
     1
 11
128.4500122070312
 21
174.3412628173828
 31
0.0
100
AcDbText
 73
     1
  0
TEXT
  5
167
330
1F
100
AcDbEntity
  8
GR1_01
 62
     7
100
AcDbText
 10
134.4500122070312
 20
174.6180383855646
 30
0.0
 40
1.515151515151515
  1
２６
 41
0.5076923076923077
  7
ＭＳ_ゴシック
 72
     1
 11
135.4500122070312
 21
174.3412628173828
 31
0.0
100
AcDbText
 73
     1
  0
TEXT
  5
168
330
1F
100
AcDbEntity
  8
GR1_01
 62
     7
100
AcDbText
 10
141.4500122070312
 20
174.6180383855646
 30
0.0
 40
1.515151515151515
  1
２８
 41
0.5076923076923077
  7
ＭＳ_ゴシック
 72
     1
 11
142.4500122070312
 21
174.3412628173828
 31
0.0
100
AcDbText
 73
     1
  0
TEXT
  5
169
330
1F
100
AcDbEntity
  8
GR1_01
 62
     7
100
AcDbText
 10
148.4500122070312
 20
174.6180383855646
 30
0.0
 40
1.515151515151515
  1
３０
 41
0.5076923076923077
  7
ＭＳ_ゴシック
 72
     1
 11
149.4500122070312
 21
174.3412628173828
 31
0.0
100
AcDbText
 73
     1
  0
TEXT
  5
16A
330
1F
100
AcDbEntity
  8
GR1_01
 62
     7
100
AcDbText
 10
155.4500122070312
 20
174.6180383855646
 30
0.0
 40
1.515151515151515
  1
３２
 41
0.5076923076923077
  7
ＭＳ_ゴシック
 72
     1
 11
156.4500122070312
 21
174.3412628173828
 31
0.0
100
AcDbText
 73
     1
  0
TEXT
  5
16B
330
1F
100
AcDbEntity
  8
GR1_01
 62
     7
100
AcDbText
 10
162.4500122070312
 20
174.6180383855646
 30
0.0
 40
1.515151515151515
  1
３４
 41
0.5076923076923077
  7
ＭＳ_ゴシック
 72
     1
 11
163.4500122070312
 21
174.3412628173828
 31
0.0
100
AcDbText
 73
     1
  0
TEXT
  5
16C
330
1F
100
AcDbEntity
  8
GR1_01
 62
     7
100
AcDbText
 10
169.4500122070312
 20
174.6180383855646
 30
0.0
 40
1.515151515151515
  1
３６
 41
0.5076923076923077
  7
ＭＳ_ゴシック
 72
     1
 11
170.4500122070312
 21
174.3412628173828
 31
0.0
100
AcDbText
 73
     1
  0
TEXT
  5
16D
330
1F
100
AcDbEntity
  8
GR1_01
 62
     7
100
AcDbText
 10
176.4500122070312
 20
174.6180383855646
 30
0.0
 40
1.515151515151515
  1
３８
 41
0.5076923076923077
  7
ＭＳ_ゴシック
 72
     1
 11
177.4500122070312
 21
174.3412628173828
 31
0.0
100
AcDbText
 73
     1
  0
TEXT
  5
16E
330
1F
100
AcDbEntity
  8
GR1_01
 62
     7
100
AcDbText
 10
182.5750122070312
 20
174.6568567449396
 30
0.0
 40
1.515151515151515
  1
４０
 41
0.5076923076923077
  7
ＭＳ_ゴシック
 72
     1
 11
183.5750122070312
 21
174.3800811767578
 31
0.0
100
AcDbText
 73
     1
  0
TEXT
  5
16F
330
1F
100
AcDbEntity
  8
GR1_01
 62
     7
100
AcDbText
 10
47.0458629954945
 20
169.7749938964844
 30
0.0
 40
1.136363636363636
  1
ｉＱ－Ｒ
 50
90.0
 41
1.015384615384615
  7
ＭＳ_ゴシック
 72
     1
 11
47.25344467163086
 21
172.7749938964844
 31
0.0
100
AcDbText
 73
     1
  0
LINE
  5
170
330
1F
100
AcDbEntity
  8
GR1_01
 62
     7
100
AcDbLine
 10
186.2
 20
168.7
 30
0.0
 11
186.2
 21
185.0000000000001
 31
0.0
  0
LINE
  5
171
330
1F
100
AcDbEntity
  8
GR1_01
 62
     7
100
AcDbLine
 10
177.33
 20
185.0
 30
0.0
 11
177.33
 21
176.8500000000001
 31
0.0
  0
LINE
  5
172
330
1F
100
AcDbEntity
  8
GR1_01
 62
     7
100
AcDbLine
 10
170.33
 20
185.0
 30
0.0
 11
170.33
 21
176.8500000000001
 31
0.0
  0
LINE
  5
173
330
1F
100
AcDbEntity
  8
GR1_01
 62
     7
100
AcDbLine
 10
163.33
 20
185.0
 30
0.0
 11
163.33
 21
176.8500000000001
 31
0.0
  0
LINE
  5
174
330
1F
100
AcDbEntity
  8
GR1_01
 62
     7
100
AcDbLine
 10
156.33
 20
185.0
 30
0.0
 11
156.3300000000001
 21
176.8500000000001
 31
0.0
  0
LINE
  5
175
330
1F
100
AcDbEntity
  8
GR1_01
 62
     7
100
AcDbLine
 10
149.33
 20
185.0
 30
0.0
 11
149.3300000000001
 21
176.8500000000001
 31
0.0
  0
LINE
  5
176
330
1F
100
AcDbEntity
  8
GR1_01
 62
     7
100
AcDbLine
 10
142.3300000000001
 20
185.0
 30
0.0
 11
142.3300000000001
 21
176.8500000000001
 31
0.0
  0
LINE
  5
177
330
1F
100
AcDbEntity
  8
GR1_01
 62
     7
100
AcDbLine
 10
135.3300000000001
 20
185.0
 30
0.0
 11
135.3300000000002
 21
176.8500000000001
 31
0.0
  0
LINE
  5
178
330
1F
100
AcDbEntity
  8
GR1_01
 62
     7
100
AcDbLine
 10
128.3300000000001
 20
185.0
 30
0.0
 11
128.3300000000002
 21
176.8500000000001
 31
0.0
  0
LINE
  5
179
330
1F
100
AcDbEntity
  8
GR1_01
 62
     7
100
AcDbLine
 10
121.3300000000001
 20
185.0
 30
0.0
 11
121.3300000000002
 21
176.8500000000001
 31
0.0
  0
LINE
  5
17A
330
1F
100
AcDbEntity
  8
GR1_01
 62
     7
100
AcDbLine
 10
114.3300000000002
 20
185.0
 30
0.0
 11
114.3300000000002
 21
176.8500000000001
 31
0.0
  0
LINE
  5
17B
330
1F
100
AcDbEntity
  8
GR1_01
 62
     7
100
AcDbLine
 10
107.3300000000002
 20
185.0
 30
0.0
 11
107.3300000000002
 21
176.8500000000001
 31
0.0
  0
LINE
  5
17C
330
1F
100
AcDbEntity
  8
GR1_01
 62
     7
100
AcDbLine
 10
100.3300000000002
 20
185.0
 30
0.0
 11
100.3300000000002
 21
176.8500000000001
 31
0.0
  0
LINE
  5
17D
330
1F
100
AcDbEntity
  8
GR1_01
 62
     7
100
AcDbLine
 10
93.33000000000024
 20
185.0
 30
0.0
 11
93.3300000000003
 21
176.8500000000001
 31
0.0
  0
LINE
  5
17E
330
1F
100
AcDbEntity
  8
GR1_01
 62
     7
100
AcDbLine
 10
86.33000000000027
 20
185.0
 30
0.0
 11
86.33000000000035
 21
176.8500000000001
 31
0.0
  0
LINE
  5
17F
330
1F
100
AcDbEntity
  8
GR1_01
 62
     7
100
AcDbLine
 10
79.3300000000003
 20
185.0
 30
0.0
 11
79.33000000000035
 21
176.8500000000001
 31
0.0
  0
LINE
  5
180
330
1F
100
AcDbEntity
  8
GR1_01
 62
     7
100
AcDbLine
 10
72.33000000000033
 20
185.0
 30
0.0
 11
72.33000000000038
 21
176.8500000000001
 31
0.0
  0
LINE
  5
181
330
1F
100
AcDbEntity
  8
GR1_01
 62
     7
100
AcDbLine
 10
65.33000000000035
 20
185.0
 30
0.0
 11
65.33000000000041
 21
176.8500000000001
 31
0.0
  0
LINE
  5
182
330
1F
100
AcDbEntity
  8
GR1_01
 62
     7
100
AcDbLine
 10
58.33000000000038
 20
185.0
 30
0.0
 11
58.33000000000047
 21
176.8500000000001
 31
0.0
  0
LINE
  5
183
330
1F
100
AcDbEntity
  8
GR1_01
 62
     7
100
AcDbLine
 10
44.99999999999997
 20
182.0
 30
0.0
 11
183.2500000000001
 21
182.0000000000001
 31
0.0
  0
LINE
  5
184
330
1F
100
AcDbEntity
  8
GR1_01
 62
     7
100
AcDbLine
 10
44.99999999999997
 20
176.8500000000001
 30
0.0
 11
180.9499999999997
 21
176.8500000000001
 31
0.0
  0
LINE
  5
185
330
1F
100
AcDbEntity
  8
GR1_01
 62
     7
100
AcDbLine
 10
47.94999999999999
 20
173.8500000000001
 30
0.0
 11
75.94999999999996
 21
173.8500000000001
 31
0.0
  0
LINE
  5
186
330
1F
100
AcDbEntity
  8
GR1_01
 62
     7
100
AcDbLine
 10
44.99999999999997
 20
168.7
 30
0.0
 11
186.2
 21
168.7
 31
0.0
  0
LINE
  5
187
330
1F
100
AcDbEntity
  8
GR1_01
 62
     7
100
AcDbLine
 10
47.95000000000002
 20
176.8500000000001
 30
0.0
 11
47.95000000000002
 21
168.7
 31
0.0
  0
LINE
  5
188
330
1F
100
AcDbEntity
  8
GR1_01
 62
     7
100
AcDbLine
 10
54.95000000000002
 20
176.8500000000001
 30
0.0
 11
54.95000000000002
 21
168.7
 31
0.0
  0
LINE
  5
189
330
1F
100
AcDbEntity
  8
GR1_01
 62
     7
100
AcDbLine
 10
61.94999999999999
 20
176.8500000000001
 30
0.0
 11
61.95000000000002
 21
168.7
 31
0.0
  0
LINE
  5
18A
330
1F
100
AcDbEntity
  8
GR1_01
 62
     7
100
AcDbLine
 10
68.94999999999996
 20
176.8500000000001
 30
0.0
 11
68.94999999999999
 21
168.7
 31
0.0
  0
LINE
  5
18B
330
1F
100
AcDbEntity
  8
GR1_01
 62
     7
100
AcDbLine
 10
75.94999999999996
 20
176.8500000000001
 30
0.0
 11
75.94999999999996
 21
168.7
 31
0.0
  0
LINE
  5
18C
330
1F
100
AcDbEntity
  8
GR1_01
 62
     7
100
AcDbLine
 10
82.94999999999996
 20
176.8500000000001
 30
0.0
 11
82.94999999999996
 21
168.7
 31
0.0
  0
LINE
  5
18D
330
1F
100
AcDbEntity
  8
GR1_01
 62
     7
100
AcDbLine
 10
89.94999999999996
 20
176.8500000000001
 30
0.0
 11
89.94999999999996
 21
168.7
 31
0.0
  0
LINE
  5
18E
330
1F
100
AcDbEntity
  8
GR1_01
 62
     7
100
AcDbLine
 10
96.9499999999999
 20
176.8500000000001
 30
0.0
 11
96.94999999999996
 21
168.7
 31
0.0
  0
LINE
  5
18F
330
1F
100
AcDbEntity
  8
GR1_01
 62
     7
100
AcDbLine
 10
103.9499999999999
 20
176.8500000000001
 30
0.0
 11
103.9499999999999
 21
168.7
 31
0.0
  0
LINE
  5
190
330
1F
100
AcDbEntity
  8
GR1_01
 62
     7
100
AcDbLine
 10
110.9499999999999
 20
176.8500000000001
 30
0.0
 11
110.9499999999999
 21
168.7
 31
0.0
  0
LINE
  5
191
330
1F
100
AcDbEntity
  8
GR1_01
 62
     7
100
AcDbLine
 10
117.9499999999998
 20
176.8500000000001
 30
0.0
 11
117.9499999999999
 21
168.7
 31
0.0
  0
LINE
  5
192
330
1F
100
AcDbEntity
  8
GR1_01
 62
     7
100
AcDbLine
 10
124.9499999999998
 20
176.8500000000001
 30
0.0
 11
124.9499999999998
 21
168.7
 31
0.0
  0
LINE
  5
193
330
1F
100
AcDbEntity
  8
GR1_01
 62
     7
100
AcDbLine
 10
131.9499999999998
 20
176.8500000000001
 30
0.0
 11
131.9499999999998
 21
168.7
 31
0.0
  0
LINE
  5
194
330
1F
100
AcDbEntity
  8
GR1_01
 62
     7
100
AcDbLine
 10
138.9499999999998
 20
176.8500000000001
 30
0.0
 11
138.9499999999998
 21
168.7
 31
0.0
  0
LINE
  5
195
330
1F
100
AcDbEntity
  8
GR1_01
 62
     7
100
AcDbLine
 10
145.9499999999998
 20
176.8500000000001
 30
0.0
 11
145.9499999999998
 21
168.7
 31
0.0
  0
LINE
  5
196
330
1F
100
AcDbEntity
  8
GR1_01
 62
     7
100
AcDbLine
 10
152.9499999999998
 20
176.8500000000001
 30
0.0
 11
152.9499999999998
 21
168.7
 31
0.0
  0
LINE
  5
197
330
1F
100
AcDbEntity
  8
GR1_01
 62
     7
100
AcDbLine
 10
159.9499999999998
 20
176.8500000000001
 30
0.0
 11
159.9499999999998
 21
168.7
 31
0.0
  0
LINE
  5
198
330
1F
100
AcDbEntity
  8
GR1_01
 62
     7
100
AcDbLine
 10
166.9499999999998
 20
176.8500000000001
 30
0.0
 11
166.9499999999998
 21
168.7
 31
0.0
  0
LINE
  5
199
330
1F
100
AcDbEntity
  8
GR1_01
 62
     7
100
AcDbLine
 10
173.9499999999997
 20
176.8500000000001
 30
0.0
 11
173.9499999999998
 21
168.7
 31
0.0
  0
LINE
  5
19A
330
1F
100
AcDbEntity
  8
GR1_01
 62
     7
100
AcDbLine
 10
180.9499999999997
 20
176.8500000000001
 30
0.0
 11
180.9499999999997
 21
168.7
 31
0.0
  0
TEXT
  5
19B
330
1F
100
AcDbEntity
  8
GR1_01
 62
     7
100
AcDbText
 10
45.66498947143555
 20
177.5883161444132
 30
0.0
 40
1.363636327512336
  1
Ｖ＋／Ｉ＋
 41
0.5641025790461791
  7
ＭＳ_ゴシック
 72
     1
 11
48.16498947143555
 21
177.3392181396484
 31
0.0
100
AcDbText
 73
     1
  0
TEXT
  5
19C
330
1F
100
AcDbEntity
  8
GR1_01
 62
     7
100
AcDbText
 10
45.91498947143555
 20
179.951795758671
 30
0.0
 40
1.363636327512336
  1
ＣＨ１
 41
0.8461538685692688
  7
ＭＳ_ゴシック
 72
     1
 11
48.16498947143555
 21
179.7026977539062
 31
0.0
100
AcDbText
 73
     1
  0
TEXT
  5
19D
330
1F
100
AcDbEntity
  8
GR1_01
 62
     7
100
AcDbText
 10
59.57999801635742
 20
179.951795758671
 30
0.0
 40
1.363636327512336
  1
ＣＨ２
 41
0.8461538685692688
  7
ＭＳ_ゴシック
 72
     1
 11
61.82999801635742
 21
179.7026977539062
 31
0.0
100
AcDbText
 73
     1
  0
TEXT
  5
19E
330
1F
100
AcDbEntity
  8
GR1_01
 62
     7
100
AcDbText
 10
73.57999420166016
 20
179.951795758671
 30
0.0
 40
1.363636327512336
  1
ＣＨ３
 41
0.8461538685692688
  7
ＭＳ_ゴシック
 72
     1
 11
75.82999420166016
 21
179.7026977539062
 31
0.0
100
AcDbText
 73
     1
  0
TEXT
  5
19F
330
1F
100
AcDbEntity
  8
GR1_01
 62
     7
100
AcDbText
 10
87.58000946044922
 20
179.951795758671
 30
0.0
 40
1.363636327512336
  1
ＣＨ４
 41
0.8461538685692688
  7
ＭＳ_ゴシック
 72
     1
 11
89.83000946044922
 21
179.7026977539062
 31
0.0
100
AcDbText
 73
     1
  0
TEXT
  5
1A0
330
1F
100
AcDbEntity
  8
GR1_01
 62
     7
100
AcDbText
 10
108.5800094604492
 20
179.951795758671
 30
0.0
 40
1.363636327512336
  1
ＣＨ５
 41
0.8461538685692688
  7
ＭＳ_ゴシック
 72
     1
 11
110.8300094604492
 21
179.7026977539062
 31
0.0
100
AcDbText
 73
     1
  0
TEXT
  5
1A1
330
1F
100
AcDbEntity
  8
GR1_01
 62
     7
100
AcDbText
 10
122.5800094604492
 20
179.951795758671
 30
0.0
 40
1.363636327512336
  1
ＣＨ６
 41
0.8461538685692688
  7
ＭＳ_ゴシック
 72
     1
 11
124.8300094604492
 21
179.7026977539062
 31
0.0
100
AcDbText
 73
     1
  0
TEXT
  5
1A2
330
1F
100
AcDbEntity
  8
GR1_01
 62
     7
100
AcDbText
 10
150.5800170898438
 20
179.951795758671
 30
0.0
 40
1.363636327512336
  1
ＣＨ８
 41
0.8461538685692688
  7
ＭＳ_ゴシック
 72
     1
 11
152.8300170898438
 21
179.7026977539062
 31
0.0
100
AcDbText
 73
     1
  0
TEXT
  5
1A3
330
1F
100
AcDbEntity
  8
GR1_01
 62
     7
100
AcDbText
 10
181.6250122785568
 20
169.4484235662882
 30
0.0
 40
1.363636327512336
  1
２４Ｇ
 41
0.7333333258615259
  7
ＭＳ_ゴシック
 72
     1
 11
183.5750122070312
 21
169.1993255615234
 31
0.0
100
AcDbText
 73
     1
  0
TEXT
  5
1A4
330
1F
100
AcDbEntity
  8
GR1_01
 62
     7
100
AcDbText
 10
182.0750122070312
 20
171.813368024296
 30
0.0
 40
1.363636327512336
  1
ＤＣ
 41
0.8461538685692688
  7
ＭＳ_ゴシック
 72
     1
 11
183.5750122070312
 21
171.5642700195312
 31
0.0
100
AcDbText
 73
     1
  0
TEXT
  5
1A5
330
1F
100
AcDbEntity
  8
GR1_01
 62
     7
100
AcDbText
 10
48.44999301433563
 20
169.4383069891398
 30
0.0
 40
1.363636327512336
  1
Ｖ－／Ｉ－
 41
0.6769231217539221
  7
ＭＳ_ゴシック
 72
     1
 11
51.44999313354492
 21
169.189208984375
 31
0.0
100
AcDbText
 73
     1
  0
TEXT
  5
1A6
330
1F
100
AcDbEntity
  8
GR1_01
 62
     7
100
AcDbText
 10
49.19999313354492
 20
171.8017866033976
 30
0.0
 40
1.363636327512336
  1
ＣＨ１
 41
0.8461538685692688
  7
ＭＳ_ゴシック
 72
     1
 11
51.44999313354492
 21
171.5526885986328
 31
0.0
100
AcDbText
 73
     1
  0
TEXT
  5
1A7
330
1F
100
AcDbEntity
  8
GR1_01
 62
     7
100
AcDbText
 10
62.44998919963837
 20
169.4383069891398
 30
0.0
 40
1.363636327512336
  1
Ｖ－／Ｉ－
 41
0.6769231217539221
  7
ＭＳ_ゴシック
 72
     1
 11
65.44998931884766
 21
169.189208984375
 31
0.0
100
AcDbText
 73
     1
  0
TEXT
  5
1A8
330
1F
100
AcDbEntity
  8
GR1_01
 62
     7
100
AcDbText
 10
63.19998931884766
 20
171.8017866033976
 30
0.0
 40
1.363636327512336
  1
ＣＨ２
 41
0.8461538685692688
  7
ＭＳ_ゴシック
 72
     1
 11
65.44998931884766
 21
171.5526885986328
 31
0.0
100
AcDbText
 73
     1
  0
TEXT
  5
1A9
330
1F
100
AcDbEntity
  8
GR1_01
 62
     7
100
AcDbText
 10
76.44998919963837
 20
169.4383069891398
 30
0.0
 40
1.363636327512336
  1
Ｖ－／Ｉ－
 41
0.6769231217539221
  7
ＭＳ_ゴシック
 72
     1
 11
79.44998931884766
 21
169.189208984375
 31
0.0
100
AcDbText
 73
     1
  0
TEXT
  5
1AA
330
1F
100
AcDbEntity
  8
GR1_01
 62
     7
100
AcDbText
 10
77.19998931884766
 20
171.8017866033976
 30
0.0
 40
1.363636327512336
  1
ＣＨ３
 41
0.8461538685692688
  7
ＭＳ_ゴシック
 72
     1
 11
79.44998931884766
 21
171.5526885986328
 31
0.0
100
AcDbText
 73
     1
  0
TEXT
  5
1AB
330
1F
100
AcDbEntity
  8
GR1_01
 62
     7
100
AcDbText
 10
90.45000445842743
 20
169.4383069891398
 30
0.0
 40
1.363636327512336
  1
Ｖ－／Ｉ－
 41
0.6769231217539221
  7
ＭＳ_ゴシック
 72
     1
 11
93.45000457763672
 21
169.189208984375
 31
0.0
100
AcDbText
 73
     1
  0
TEXT
  5
1AC
330
1F
100
AcDbEntity
  8
GR1_01
 62
     7
100
AcDbText
 10
91.20000457763672
 20
171.8017866033976
 30
0.0
 40
1.363636327512336
  1
ＣＨ４
 41
0.8461538685692688
  7
ＭＳ_ゴシック
 72
     1
 11
93.45000457763672
 21
171.5526885986328
 31
0.0
100
AcDbText
 73
     1
  0
TEXT
  5
1AD
330
1F
100
AcDbEntity
  8
GR1_01
 62
     7
100
AcDbText
 10
111.4500044584274
 20
169.4383069891398
 30
0.0
 40
1.363636327512336
  1
Ｖ－／Ｉ－
 41
0.6769231217539221
  7
ＭＳ_ゴシック
 72
     1
 11
114.4500045776367
 21
169.189208984375
 31
0.0
100
AcDbText
 73
     1
  0
TEXT
  5
1AE
330
1F
100
AcDbEntity
  8
GR1_01
 62
     7
100
AcDbText
 10
112.2000045776367
 20
171.8017866033976
 30
0.0
 40
1.363636327512336
  1
ＣＨ５
 41
0.8461538685692688
  7
ＭＳ_ゴシック
 72
     1
 11
114.4500045776367
 21
171.5526885986328
 31
0.0
100
AcDbText
 73
     1
  0
TEXT
  5
1AF
330
1F
100
AcDbEntity
  8
GR1_01
 62
     7
100
AcDbText
 10
125.450012087822
 20
169.4383069891398
 30
0.0
 40
1.363636327512336
  1
Ｖ－／Ｉ－
 41
0.6769231217539221
  7
ＭＳ_ゴシック
 72
     1
 11
128.4500122070312
 21
169.189208984375
 31
0.0
100
AcDbText
 73
     1
  0
TEXT
  5
1B0
330
1F
100
AcDbEntity
  8
GR1_01
 62
     7
100
AcDbText
 10
126.2000122070312
 20
171.8017866033976
 30
0.0
 40
1.363636327512336
  1
ＣＨ６
 41
0.8461538685692688
  7
ＭＳ_ゴシック
 72
     1
 11
128.4500122070312
 21
171.5526885986328
 31
0.0
100
AcDbText
 73
     1
  0
TEXT
  5
1B1
330
1F
100
AcDbEntity
  8
GR1_01
 62
     7
100
AcDbText
 10
139.450012087822
 20
169.4383069891398
 30
0.0
 40
1.363636327512336
  1
Ｖ－／Ｉ－
 41
0.6769231217539221
  7
ＭＳ_ゴシック
 72
     1
 11
142.4500122070312
 21
169.189208984375
 31
0.0
100
AcDbText
 73
     1
  0
TEXT
  5
1B2
330
1F
100
AcDbEntity
  8
GR1_01
 62
     7
100
AcDbText
 10
140.2000122070312
 20
171.8017866033976
 30
0.0
 40
1.363636327512336
  1
ＣＨ７
 41
0.8461538685692688
  7
ＭＳ_ゴシック
 72
     1
 11
142.4500122070312
 21
171.5526885986328
 31
0.0
100
AcDbText
 73
     1
  0
TEXT
  5
1B3
330
1F
100
AcDbEntity
  8
GR1_01
 62
     7
100
AcDbText
 10
153.450012087822
 20
169.4383069891398
 30
0.0
 40
1.363636327512336
  1
Ｖ－／Ｉ－
 41
0.6769231217539221
  7
ＭＳ_ゴシック
 72
     1
 11
156.4500122070312
 21
169.189208984375
 31
0.0
100
AcDbText
 73
     1
  0
TEXT
  5
1B4
330
1F
100
AcDbEntity
  8
GR1_01
 62
     7
100
AcDbText
 10
154.2000122070312
 20
171.8017866033976
 30
0.0
 40
1.363636327512336
  1
ＣＨ８
 41
0.8461538685692688
  7
ＭＳ_ゴシック
 72
     1
 11
156.4500122070312
 21
171.5526885986328
 31
0.0
100
AcDbText
 73
     1
  0
LINE
  5
1B5
330
1F
100
AcDbEntity
  8
GR1_01
 62
     7
100
AcDbLine
 10
75.94999999999996
 20
173.8500000000001
 30
0.0
 11
110.9499999999998
 21
173.8500000000001
 31
0.0
  0
LINE
  5
1B6
330
1F
100
AcDbEntity
  8
GR1_01
 62
     7
100
AcDbLine
 10
110.9499999999998
 20
173.8500000000001
 30
0.0
 11
186.2
 21
173.8500000000001
 31
0.0
  0
TEXT
  5
1B7
330
1F
100
AcDbEntity
  8
GR1_01
 62
     7
100
AcDbText
 10
58.82999789714813
 20
177.5883161444132
 30
0.0
 40
1.363636327512336
  1
Ｖ＋／Ｉ＋
 41
0.6769231217539221
  7
ＭＳ_ゴシック
 72
     1
 11
61.82999801635742
 21
177.3392181396484
 31
0.0
100
AcDbText
 73
     1
  0
TEXT
  5
1B8
330
1F
100
AcDbEntity
  8
GR1_01
 62
     7
100
AcDbText
 10
72.82999408245087
 20
177.5883161444132
 30
0.0
 40
1.363636327512336
  1
Ｖ＋／Ｉ＋
 41
0.6769231217539221
  7
ＭＳ_ゴシック
 72
     1
 11
75.82999420166016
 21
177.3392181396484
 31
0.0
100
AcDbText
 73
     1
  0
TEXT
  5
1B9
330
1F
100
AcDbEntity
  8
GR1_01
 62
     7
100
AcDbText
 10
86.83000934123993
 20
177.5883161444132
 30
0.0
 40
1.363636327512336
  1
Ｖ＋／Ｉ＋
 41
0.6769231217539221
  7
ＭＳ_ゴシック
 72
     1
 11
89.83000946044922
 21
177.3392181396484
 31
0.0
100
AcDbText
 73
     1
  0
TEXT
  5
1BA
330
1F
100
AcDbEntity
  8
GR1_01
 62
     7
100
AcDbText
 10
107.8300093412399
 20
177.5883161444132
 30
0.0
 40
1.363636327512336
  1
Ｖ＋／Ｉ＋
 41
0.6769231217539221
  7
ＭＳ_ゴシック
 72
     1
 11
110.8300094604492
 21
177.3392181396484
 31
0.0
100
AcDbText
 73
     1
  0
TEXT
  5
1BB
330
1F
100
AcDbEntity
  8
GR1_01
 62
     7
100
AcDbText
 10
121.8300093412399
 20
177.5883161444132
 30
0.0
 40
1.363636327512336
  1
Ｖ＋／Ｉ＋
 41
0.6769231217539221
  7
ＭＳ_ゴシック
 72
     1
 11
124.8300094604492
 21
177.3392181396484
 31
0.0
100
AcDbText
 73
     1
  0
TEXT
  5
1BC
330
1F
100
AcDbEntity
  8
GR1_01
 62
     7
100
AcDbText
 10
149.8300169706345
 20
177.5883161444132
 30
0.0
 40
1.363636327512336
  1
Ｖ＋／Ｉ＋
 41
0.6769231217539221
  7
ＭＳ_ゴシック
 72
     1
 11
152.8300170898438
 21
177.3392181396484
 31
0.0
100
AcDbText
 73
     1
  0
TEXT
  5
1BD
330
1F
100
AcDbEntity
  8
GR1_01
 62
     7
100
AcDbText
 10
47.07094081531871
 20
229.7749938964844
 30
0.0
 40
1.136363636363636
  1
ｉＱ－Ｒ
 50
90.0
 41
1.015384615384615
  7
ＭＳ_ゴシック
 72
     1
 11
47.27852249145508
 21
232.7749938964844
 31
0.0
100
AcDbText
 73
     1
  0
TEXT
  5
1BE
330
1F
100
AcDbEntity
  8
GR1_01
 62
     7
100
AcDbText
 10
136.5800170898438
 20
179.951795758671
 30
0.0
 40
1.363636327512336
  1
ＣＨ７
 41
0.8461538685692688
  7
ＭＳ_ゴシック
 72
     1
 11
138.8300170898438
 21
179.7026977539062
 31
0.0
100
AcDbText
 73
     1
  0
TEXT
  5
1BF
330
1F
100
AcDbEntity
  8
GR1_01
 62
     7
100
AcDbText
 10
135.8300169706345
 20
177.5883161444132
 30
0.0
 40
1.363636327512336
  1
Ｖ＋／Ｉ＋
 41
0.6769231217539221
  7
ＭＳ_ゴシック
 72
     1
 11
138.8300170898438
 21
177.3392181396484
 31
0.0
100
AcDbText
 73
     1
  0
TEXT
  5
1C0
330
1F
100
AcDbEntity
  8
GR1_01
 62
     7
100
AcDbText
 10
185.322279774059
 20
238.676025390625
 30
0.0
 40
1.136363636363636
  1
ＤＡＧ
 50
90.0
 41
1.015384615384615
  7
ＭＳ_ゴシック
 72
     1
 11
185.5298614501953
 21
240.926025390625
 31
0.0
100
AcDbText
 73
     1
  0
LINE
  5
1C1
330
1F
100
AcDbEntity
  8
GR1_01
 62
     7
100
AcDbLine
 10
183.275079630162
 20
245.001039972165
 30
0.0
 11
183.275079630162
 21
236.851039972165
 31
0.0
  0
TEXT
  5
1C2
330
1F
100
AcDbEntity
  8
GR1_01
 62
     7
100
AcDbText
 10
185.2972095836293
 20
178.6760101318359
 30
0.0
 40
1.136363636363636
  1
ＤＡＧ
 50
90.0
 41
1.015384615384615
  7
ＭＳ_ゴシック
 72
     1
 11
185.5047912597656
 21
180.9260101318359
 31
0.0
100
AcDbText
 73
     1
  0
TEXT
  5
1C3
330
1F
100
AcDbEntity
  8
GR1_01
 62
     7
100
AcDbText
 10
179.2900085449219
 20
182.7628290349787
 30
0.0
 40
1.515151515151515
  1
３９
 41
0.5076923076923077
  7
ＭＳ_ゴシック
 72
     1
 11
180.2900085449219
 21
182.4860534667969
 31
0.0
100
AcDbText
 73
     1
  0
TEXT
  5
1C4
330
1F
100
AcDbEntity
  8
GR1_01
 62
     7
100
AcDbText
 10
178.3400086164474
 20
177.5883008856242
 30
0.0
 40
1.363636327512336
  1
２４Ｖ
 41
0.7333333258615259
  7
ＭＳ_ゴシック
 72
     1
 11
180.2900085449219
 21
177.3392028808594
 31
0.0
100
AcDbText
 73
     1
  0
TEXT
  5
1C5
330
1F
100
AcDbEntity
  8
GR1_01
 62
     7
100
AcDbText
 10
178.7900085449219
 20
179.951780499882
 30
0.0
 40
1.363636327512336
  1
ＤＣ
 41
0.8461538685692688
  7
ＭＳ_ゴシック
 72
     1
 11
180.2900085449219
 21
179.7026824951172
 31
0.0
100
AcDbText
 73
     1
  0
LINE
  5
1C6
330
1F
100
AcDbEntity
  8
GR1_01
 62
     7
100
AcDbLine
 10
183.25
 20
185.0
 30
0.0
 11
183.25
 21
176.8500000000001
 31
0.0
  0
LINE
  5
1C7
330
1F
100
AcDbEntity
  8
GR1_01
 62
     7
100
AcDbLine
 10
44.99999999999997
 20
103.9999999999999
 30
0.0
 11
45.00000000000003
 21
87.69999999999992
 31
0.0
  0
LINE
  5
1C8
330
1F
100
AcDbEntity
  8
GR1_01
 62
     7
100
AcDbLine
 10
44.99999999999997
 20
103.9999999999999
 30
0.0
 11
186.2
 21
103.9999999999999
 31
0.0
  0
LINE
  5
1C9
330
1F
100
AcDbEntity
  8
GR1_01
 62
     7
100
AcDbLine
 10
44.99999999999997
 20
95.84999999999995
 30
0.0
 11
186.2
 21
95.84999999999995
 31
0.0
  0
LINE
  5
1CA
330
1F
100
AcDbEntity
  8
GR1_01
 62
     7
100
AcDbLine
 10
51.32999999999993
 20
103.9999999999999
 30
0.0
 11
51.32999999999996
 21
95.84999999999995
 31
0.0
  0
TEXT
  5
1CB
330
1F
100
AcDbEntity
  8
GR1_01
 62
     7
100
AcDbText
 10
47.66498947143555
 20
101.7628442937678
 30
0.0
 40
1.515151515151515
  1
１
 41
0.5076923076923077
  7
ＭＳ_ゴシック
 72
     1
 11
48.16498947143555
 21
101.4860687255859
 31
0.0
100
AcDbText
 73
     1
  0
TEXT
  5
1CC
330
1F
100
AcDbEntity
  8
GR1_01
 62
     7
100
AcDbText
 10
54.32999801635742
 20
101.7628442937678
 30
0.0
 40
1.515151515151515
  1
３
 41
0.5076923076923077
  7
ＭＳ_ゴシック
 72
     1
 11
54.82999801635742
 21
101.4860687255859
 31
0.0
100
AcDbText
 73
     1
  0
TEXT
  5
1CD
330
1F
100
AcDbEntity
  8
GR1_01
 62
     7
100
AcDbText
 10
61.32999801635742
 20
101.7628442937678
 30
0.0
 40
1.515151515151515
  1
５
 41
0.5076923076923077
  7
ＭＳ_ゴシック
 72
     1
 11
61.82999801635742
 21
101.4860687255859
 31
0.0
100
AcDbText
 73
     1
  0
TEXT
  5
1CE
330
1F
100
AcDbEntity
  8
GR1_01
 62
     7
100
AcDbText
 10
68.32999420166016
 20
101.7628442937678
 30
0.0
 40
1.515151515151515
  1
７
 41
0.5076923076923077
  7
ＭＳ_ゴシック
 72
     1
 11
68.82999420166016
 21
101.4860687255859
 31
0.0
100
AcDbText
 73
     1
  0
TEXT
  5
1CF
330
1F
100
AcDbEntity
  8
GR1_01
 62
     7
100
AcDbText
 10
75.32999420166016
 20
101.7628442937678
 30
0.0
 40
1.515151515151515
  1
９
 41
0.5076923076923077
  7
ＭＳ_ゴシック
 72
     1
 11
75.82999420166016
 21
101.4860687255859
 31
0.0
100
AcDbText
 73
     1
  0
TEXT
  5
1D0
330
1F
100
AcDbEntity
  8
GR1_01
 62
     7
100
AcDbText
 10
81.82999420166016
 20
101.7628442937678
 30
0.0
 40
1.515151515151515
  1
１１
 41
0.5076923076923077
  7
ＭＳ_ゴシック
 72
     1
 11
82.82999420166016
 21
101.4860687255859
 31
0.0
100
AcDbText
 73
     1
  0
TEXT
  5
1D1
330
1F
100
AcDbEntity
  8
GR1_01
 62
     7
100
AcDbText
 10
88.8299789428711
 20
101.7628442937678
 30
0.0
 40
1.515151515151515
  1
１３
 41
0.5076923076923077
  7
ＭＳ_ゴシック
 72
     1
 11
89.8299789428711
 21
101.4860687255859
 31
0.0
100
AcDbText
 73
     1
  0
TEXT
  5
1D2
330
1F
100
AcDbEntity
  8
GR1_01
 62
     7
100
AcDbText
 10
95.8299789428711
 20
101.7628442937678
 30
0.0
 40
1.515151515151515
  1
１５
 41
0.5076923076923077
  7
ＭＳ_ゴシック
 72
     1
 11
96.8299789428711
 21
101.4860687255859
 31
0.0
100
AcDbText
 73
     1
  0
TEXT
  5
1D3
330
1F
100
AcDbEntity
  8
GR1_01
 62
     7
100
AcDbText
 10
102.8300094604492
 20
101.7628442937678
 30
0.0
 40
1.515151515151515
  1
１７
 41
0.5076923076923077
  7
ＭＳ_ゴシック
 72
     1
 11
103.8300094604492
 21
101.4860687255859
 31
0.0
100
AcDbText
 73
     1
  0
TEXT
  5
1D4
330
1F
100
AcDbEntity
  8
GR1_01
 62
     7
100
AcDbText
 10
109.8300094604492
 20
101.7628442937678
 30
0.0
 40
1.515151515151515
  1
１９
 41
0.5076923076923077
  7
ＭＳ_ゴシック
 72
     1
 11
110.8300094604492
 21
101.4860687255859
 31
0.0
100
AcDbText
 73
     1
  0
TEXT
  5
1D5
330
1F
100
AcDbEntity
  8
GR1_01
 62
     7
100
AcDbText
 10
116.8300094604492
 20
101.7628442937678
 30
0.0
 40
1.515151515151515
  1
２１
 41
0.5076923076923077
  7
ＭＳ_ゴシック
 72
     1
 11
117.8300094604492
 21
101.4860687255859
 31
0.0
100
AcDbText
 73
     1
  0
TEXT
  5
1D6
330
1F
100
AcDbEntity
  8
GR1_01
 62
     7
100
AcDbText
 10
123.8300094604492
 20
101.7628442937678
 30
0.0
 40
1.515151515151515
  1
２３
 41
0.5076923076923077
  7
ＭＳ_ゴシック
 72
     1
 11
124.8300094604492
 21
101.4860687255859
 31
0.0
100
AcDbText
 73
     1
  0
TEXT
  5
1D7
330
1F
100
AcDbEntity
  8
GR1_01
 62
     7
100
AcDbText
 10
130.8300170898438
 20
101.7628442937678
 30
0.0
 40
1.515151515151515
  1
２５
 41
0.5076923076923077
  7
ＭＳ_ゴシック
 72
     1
 11
131.8300170898438
 21
101.4860687255859
 31
0.0
100
AcDbText
 73
     1
  0
TEXT
  5
1D8
330
1F
100
AcDbEntity
  8
GR1_01
 62
     7
100
AcDbText
 10
137.8300170898438
 20
101.7628442937678
 30
0.0
 40
1.515151515151515
  1
２７
 41
0.5076923076923077
  7
ＭＳ_ゴシック
 72
     1
 11
138.8300170898438
 21
101.4860687255859
 31
0.0
100
AcDbText
 73
     1
  0
TEXT
  5
1D9
330
1F
100
AcDbEntity
  8
GR1_01
 62
     7
100
AcDbText
 10
144.8300170898438
 20
101.7628442937678
 30
0.0
 40
1.515151515151515
  1
２９
 41
0.5076923076923077
  7
ＭＳ_ゴシック
 72
     1
 11
145.8300170898438
 21
101.4860687255859
 31
0.0
100
AcDbText
 73
     1
  0
TEXT
  5
1DA
330
1F
100
AcDbEntity
  8
GR1_01
 62
     7
100
AcDbText
 10
151.8300170898438
 20
101.7628442937678
 30
0.0
 40
1.515151515151515
  1
３１
 41
0.5076923076923077
  7
ＭＳ_ゴシック
 72
     1
 11
152.8300170898438
 21
101.4860687255859
 31
0.0
100
AcDbText
 73
     1
  0
TEXT
  5
1DB
330
1F
100
AcDbEntity
  8
GR1_01
 62
     7
100
AcDbText
 10
158.8300170898438
 20
101.7628442937678
 30
0.0
 40
1.515151515151515
  1
３３
 41
0.5076923076923077
  7
ＭＳ_ゴシック
 72
     1
 11
159.8300170898438
 21
101.4860687255859
 31
0.0
100
AcDbText
 73
     1
  0
TEXT
  5
1DC
330
1F
100
AcDbEntity
  8
GR1_01
 62
     7
100
AcDbText
 10
165.8300170898438
 20
101.7628442937678
 30
0.0
 40
1.515151515151515
  1
３５
 41
0.5076923076923077
  7
ＭＳ_ゴシック
 72
     1
 11
166.8300170898438
 21
101.4860687255859
 31
0.0
100
AcDbText
 73
     1
  0
TEXT
  5
1DD
330
1F
100
AcDbEntity
  8
GR1_01
 62
     7
100
AcDbText
 10
172.8300170898438
 20
101.7628442937678
 30
0.0
 40
1.515151515151515
  1
３７
 41
0.5076923076923077
  7
ＭＳ_ゴシック
 72
     1
 11
173.8300170898438
 21
101.4860687255859
 31
0.0
100
AcDbText
 73
     1
  0
TEXT
  5
1DE
330
1F
100
AcDbEntity
  8
GR1_01
 62
     7
100
AcDbText
 10
50.94999313354492
 20
93.61803838556463
 30
0.0
 40
1.515151515151515
  1
２
 41
0.5076923076923077
  7
ＭＳ_ゴシック
 72
     1
 11
51.44999313354492
 21
93.34126281738281
 31
0.0
100
AcDbText
 73
     1
  0
TEXT
  5
1DF
330
1F
100
AcDbEntity
  8
GR1_01
 62
     7
100
AcDbText
 10
57.94999313354492
 20
93.61803838556463
 30
0.0
 40
1.515151515151515
  1
４
 41
0.5076923076923077
  7
ＭＳ_ゴシック
 72
     1
 11
58.44999313354492
 21
93.34126281738281
 31
0.0
100
AcDbText
 73
     1
  0
TEXT
  5
1E0
330
1F
100
AcDbEntity
  8
GR1_01
 62
     7
100
AcDbText
 10
64.94998931884766
 20
93.61803838556463
 30
0.0
 40
1.515151515151515
  1
６
 41
0.5076923076923077
  7
ＭＳ_ゴシック
 72
     1
 11
65.44998931884766
 21
93.34126281738281
 31
0.0
100
AcDbText
 73
     1
  0
TEXT
  5
1E1
330
1F
100
AcDbEntity
  8
GR1_01
 62
     7
100
AcDbText
 10
71.94998931884766
 20
93.61803838556463
 30
0.0
 40
1.515151515151515
  1
８
 41
0.5076923076923077
  7
ＭＳ_ゴシック
 72
     1
 11
72.44998931884766
 21
93.34126281738281
 31
0.0
100
AcDbText
 73
     1
  0
TEXT
  5
1E2
330
1F
100
AcDbEntity
  8
GR1_01
 62
     7
100
AcDbText
 10
78.44998931884766
 20
93.61803838556463
 30
0.0
 40
1.515151515151515
  1
１０
 41
0.5076923076923077
  7
ＭＳ_ゴシック
 72
     1
 11
79.44998931884766
 21
93.34126281738281
 31
0.0
100
AcDbText
 73
     1
  0
TEXT
  5
1E3
330
1F
100
AcDbEntity
  8
GR1_01
 62
     7
100
AcDbText
 10
85.44998931884766
 20
93.61803838556463
 30
0.0
 40
1.515151515151515
  1
１２
 41
0.5076923076923077
  7
ＭＳ_ゴシック
 72
     1
 11
86.44998931884766
 21
93.34126281738281
 31
0.0
100
AcDbText
 73
     1
  0
TEXT
  5
1E4
330
1F
100
AcDbEntity
  8
GR1_01
 62
     7
100
AcDbText
 10
92.45000457763672
 20
93.61803838556463
 30
0.0
 40
1.515151515151515
  1
１４
 41
0.5076923076923077
  7
ＭＳ_ゴシック
 72
     1
 11
93.45000457763672
 21
93.34126281738281
 31
0.0
100
AcDbText
 73
     1
  0
TEXT
  5
1E5
330
1F
100
AcDbEntity
  8
GR1_01
 62
     7
100
AcDbText
 10
99.45000457763672
 20
93.61803838556463
 30
0.0
 40
1.515151515151515
  1
１６
 41
0.5076923076923077
  7
ＭＳ_ゴシック
 72
     1
 11
100.4500045776367
 21
93.34126281738281
 31
0.0
100
AcDbText
 73
     1
  0
TEXT
  5
1E6
330
1F
100
AcDbEntity
  8
GR1_01
 62
     7
100
AcDbText
 10
106.4500045776367
 20
93.61803838556463
 30
0.0
 40
1.515151515151515
  1
１８
 41
0.5076923076923077
  7
ＭＳ_ゴシック
 72
     1
 11
107.4500045776367
 21
93.34126281738281
 31
0.0
100
AcDbText
 73
     1
  0
TEXT
  5
1E7
330
1F
100
AcDbEntity
  8
GR1_01
 62
     7
100
AcDbText
 10
113.4500045776367
 20
93.61803838556463
 30
0.0
 40
1.515151515151515
  1
２０
 41
0.5076923076923077
  7
ＭＳ_ゴシック
 72
     1
 11
114.4500045776367
 21
93.34126281738281
 31
0.0
100
AcDbText
 73
     1
  0
TEXT
  5
1E8
330
1F
100
AcDbEntity
  8
GR1_01
 62
     7
100
AcDbText
 10
120.4500045776367
 20
93.61803838556463
 30
0.0
 40
1.515151515151515
  1
２２
 41
0.5076923076923077
  7
ＭＳ_ゴシック
 72
     1
 11
121.4500045776367
 21
93.34126281738281
 31
0.0
100
AcDbText
 73
     1
  0
TEXT
  5
1E9
330
1F
100
AcDbEntity
  8
GR1_01
 62
     7
100
AcDbText
 10
127.4500122070312
 20
93.61803838556463
 30
0.0
 40
1.515151515151515
  1
２４
 41
0.5076923076923077
  7
ＭＳ_ゴシック
 72
     1
 11
128.4500122070312
 21
93.34126281738281
 31
0.0
100
AcDbText
 73
     1
  0
TEXT
  5
1EA
330
1F
100
AcDbEntity
  8
GR1_01
 62
     7
100
AcDbText
 10
134.4500122070312
 20
93.61803838556463
 30
0.0
 40
1.515151515151515
  1
２６
 41
0.5076923076923077
  7
ＭＳ_ゴシック
 72
     1
 11
135.4500122070312
 21
93.34126281738281
 31
0.0
100
AcDbText
 73
     1
  0
TEXT
  5
1EB
330
1F
100
AcDbEntity
  8
GR1_01
 62
     7
100
AcDbText
 10
141.4500122070312
 20
93.61803838556463
 30
0.0
 40
1.515151515151515
  1
２８
 41
0.5076923076923077
  7
ＭＳ_ゴシック
 72
     1
 11
142.4500122070312
 21
93.34126281738281
 31
0.0
100
AcDbText
 73
     1
  0
TEXT
  5
1EC
330
1F
100
AcDbEntity
  8
GR1_01
 62
     7
100
AcDbText
 10
148.4500122070312
 20
93.61803838556463
 30
0.0
 40
1.515151515151515
  1
３０
 41
0.5076923076923077
  7
ＭＳ_ゴシック
 72
     1
 11
149.4500122070312
 21
93.34126281738281
 31
0.0
100
AcDbText
 73
     1
  0
TEXT
  5
1ED
330
1F
100
AcDbEntity
  8
GR1_01
 62
     7
100
AcDbText
 10
155.4500122070312
 20
93.61803838556463
 30
0.0
 40
1.515151515151515
  1
３２
 41
0.5076923076923077
  7
ＭＳ_ゴシック
 72
     1
 11
156.4500122070312
 21
93.34126281738281
 31
0.0
100
AcDbText
 73
     1
  0
TEXT
  5
1EE
330
1F
100
AcDbEntity
  8
GR1_01
 62
     7
100
AcDbText
 10
162.4500122070312
 20
93.61803838556463
 30
0.0
 40
1.515151515151515
  1
３４
 41
0.5076923076923077
  7
ＭＳ_ゴシック
 72
     1
 11
163.4500122070312
 21
93.34126281738281
 31
0.0
100
AcDbText
 73
     1
  0
TEXT
  5
1EF
330
1F
100
AcDbEntity
  8
GR1_01
 62
     7
100
AcDbText
 10
169.4500122070312
 20
93.61803838556463
 30
0.0
 40
1.515151515151515
  1
３６
 41
0.5076923076923077
  7
ＭＳ_ゴシック
 72
     1
 11
170.4500122070312
 21
93.34126281738281
 31
0.0
100
AcDbText
 73
     1
  0
TEXT
  5
1F0
330
1F
100
AcDbEntity
  8
GR1_01
 62
     7
100
AcDbText
 10
176.4500122070312
 20
93.61803838556463
 30
0.0
 40
1.515151515151515
  1
３８
 41
0.5076923076923077
  7
ＭＳ_ゴシック
 72
     1
 11
177.4500122070312
 21
93.34126281738281
 31
0.0
100
AcDbText
 73
     1
  0
TEXT
  5
1F1
330
1F
100
AcDbEntity
  8
GR1_01
 62
     7
100
AcDbText
 10
182.5750122070312
 20
93.65685674493963
 30
0.0
 40
1.515151515151515
  1
４０
 41
0.5076923076923077
  7
ＭＳ_ゴシック
 72
     1
 11
183.5750122070312
 21
93.38008117675781
 31
0.0
100
AcDbText
 73
     1
  0
TEXT
  5
1F2
330
1F
100
AcDbEntity
  8
GR1_01
 62
     7
100
AcDbText
 10
47.0458629954945
 20
88.77499389648438
 30
0.0
 40
1.136363636363636
  1
ｉＱ－Ｒ
 50
90.0
 41
1.015384615384615
  7
ＭＳ_ゴシック
 72
     1
 11
47.25344467163086
 21
91.77499389648438
 31
0.0
100
AcDbText
 73
     1
  0
LINE
  5
1F3
330
1F
100
AcDbEntity
  8
GR1_01
 62
     7
100
AcDbLine
 10
186.2
 20
87.69999999999992
 30
0.0
 11
186.2
 21
104.0
 31
0.0
  0
LINE
  5
1F4
330
1F
100
AcDbEntity
  8
GR1_01
 62
     7
100
AcDbLine
 10
177.33
 20
103.9999999999999
 30
0.0
 11
177.33
 21
95.84999999999995
 31
0.0
  0
LINE
  5
1F5
330
1F
100
AcDbEntity
  8
GR1_01
 62
     7
100
AcDbLine
 10
170.33
 20
103.9999999999999
 30
0.0
 11
170.33
 21
95.84999999999995
 31
0.0
  0
LINE
  5
1F6
330
1F
100
AcDbEntity
  8
GR1_01
 62
     7
100
AcDbLine
 10
163.33
 20
103.9999999999999
 30
0.0
 11
163.33
 21
95.84999999999995
 31
0.0
  0
LINE
  5
1F7
330
1F
100
AcDbEntity
  8
GR1_01
 62
     7
100
AcDbLine
 10
156.33
 20
103.9999999999999
 30
0.0
 11
156.3300000000001
 21
95.84999999999995
 31
0.0
  0
LINE
  5
1F8
330
1F
100
AcDbEntity
  8
GR1_01
 62
     7
100
AcDbLine
 10
149.33
 20
103.9999999999999
 30
0.0
 11
149.3300000000001
 21
95.84999999999995
 31
0.0
  0
LINE
  5
1F9
330
1F
100
AcDbEntity
  8
GR1_01
 62
     7
100
AcDbLine
 10
142.3300000000001
 20
103.9999999999999
 30
0.0
 11
142.3300000000001
 21
95.84999999999995
 31
0.0
  0
LINE
  5
1FA
330
1F
100
AcDbEntity
  8
GR1_01
 62
     7
100
AcDbLine
 10
135.3300000000001
 20
103.9999999999999
 30
0.0
 11
135.3300000000002
 21
95.84999999999995
 31
0.0
  0
LINE
  5
1FB
330
1F
100
AcDbEntity
  8
GR1_01
 62
     7
100
AcDbLine
 10
128.3300000000001
 20
103.9999999999999
 30
0.0
 11
128.3300000000002
 21
95.84999999999995
 31
0.0
  0
LINE
  5
1FC
330
1F
100
AcDbEntity
  8
GR1_01
 62
     7
100
AcDbLine
 10
121.3300000000001
 20
103.9999999999999
 30
0.0
 11
121.3300000000002
 21
95.84999999999995
 31
0.0
  0
LINE
  5
1FD
330
1F
100
AcDbEntity
  8
GR1_01
 62
     7
100
AcDbLine
 10
114.3300000000002
 20
103.9999999999999
 30
0.0
 11
114.3300000000002
 21
95.84999999999995
 31
0.0
  0
LINE
  5
1FE
330
1F
100
AcDbEntity
  8
GR1_01
 62
     7
100
AcDbLine
 10
107.3300000000002
 20
103.9999999999999
 30
0.0
 11
107.3300000000002
 21
95.84999999999995
 31
0.0
  0
LINE
  5
1FF
330
1F
100
AcDbEntity
  8
GR1_01
 62
     7
100
AcDbLine
 10
100.3300000000002
 20
103.9999999999999
 30
0.0
 11
100.3300000000002
 21
95.84999999999995
 31
0.0
  0
LINE
  5
200
330
1F
100
AcDbEntity
  8
GR1_01
 62
     7
100
AcDbLine
 10
93.33000000000024
 20
103.9999999999999
 30
0.0
 11
93.3300000000003
 21
95.84999999999995
 31
0.0
  0
LINE
  5
201
330
1F
100
AcDbEntity
  8
GR1_01
 62
     7
100
AcDbLine
 10
86.33000000000027
 20
103.9999999999999
 30
0.0
 11
86.33000000000035
 21
95.84999999999995
 31
0.0
  0
LINE
  5
202
330
1F
100
AcDbEntity
  8
GR1_01
 62
     7
100
AcDbLine
 10
79.3300000000003
 20
103.9999999999999
 30
0.0
 11
79.33000000000035
 21
95.84999999999995
 31
0.0
  0
LINE
  5
203
330
1F
100
AcDbEntity
  8
GR1_01
 62
     7
100
AcDbLine
 10
72.33000000000033
 20
103.9999999999999
 30
0.0
 11
72.33000000000038
 21
95.84999999999995
 31
0.0
  0
LINE
  5
204
330
1F
100
AcDbEntity
  8
GR1_01
 62
     7
100
AcDbLine
 10
65.33000000000035
 20
103.9999999999999
 30
0.0
 11
65.33000000000041
 21
95.84999999999995
 31
0.0
  0
LINE
  5
205
330
1F
100
AcDbEntity
  8
GR1_01
 62
     7
100
AcDbLine
 10
58.33000000000038
 20
103.9999999999999
 30
0.0
 11
58.33000000000047
 21
95.84999999999995
 31
0.0
  0
LINE
  5
206
330
1F
100
AcDbEntity
  8
GR1_01
 62
     7
100
AcDbLine
 10
44.99999999999997
 20
100.9999999999999
 30
0.0
 11
183.2500000000001
 21
101.0
 31
0.0
  0
LINE
  5
207
330
1F
100
AcDbEntity
  8
GR1_01
 62
     7
100
AcDbLine
 10
44.99999999999997
 20
95.84999999999995
 30
0.0
 11
180.9499999999997
 21
95.84999999999998
 31
0.0
  0
LINE
  5
208
330
1F
100
AcDbEntity
  8
GR1_01
 62
     7
100
AcDbLine
 10
47.94999999999999
 20
92.84999999999995
 30
0.0
 11
75.94999999999996
 21
92.84999999999995
 31
0.0
  0
LINE
  5
209
330
1F
100
AcDbEntity
  8
GR1_01
 62
     7
100
AcDbLine
 10
44.99999999999997
 20
87.69999999999992
 30
0.0
 11
186.2
 21
87.69999999999992
 31
0.0
  0
LINE
  5
20A
330
1F
100
AcDbEntity
  8
GR1_01
 62
     7
100
AcDbLine
 10
47.95000000000002
 20
95.85000000000001
 30
0.0
 11
47.95000000000002
 21
87.69999999999992
 31
0.0
  0
LINE
  5
20B
330
1F
100
AcDbEntity
  8
GR1_01
 62
     7
100
AcDbLine
 10
54.95000000000002
 20
95.85000000000001
 30
0.0
 11
54.95000000000002
 21
87.69999999999992
 31
0.0
  0
LINE
  5
20C
330
1F
100
AcDbEntity
  8
GR1_01
 62
     7
100
AcDbLine
 10
61.94999999999999
 20
95.85000000000001
 30
0.0
 11
61.95000000000002
 21
87.69999999999992
 31
0.0
  0
LINE
  5
20D
330
1F
100
AcDbEntity
  8
GR1_01
 62
     7
100
AcDbLine
 10
68.94999999999996
 20
95.85000000000001
 30
0.0
 11
68.94999999999999
 21
87.69999999999992
 31
0.0
  0
LINE
  5
20E
330
1F
100
AcDbEntity
  8
GR1_01
 62
     7
100
AcDbLine
 10
75.94999999999996
 20
95.85000000000001
 30
0.0
 11
75.94999999999996
 21
87.69999999999992
 31
0.0
  0
LINE
  5
20F
330
1F
100
AcDbEntity
  8
GR1_01
 62
     7
100
AcDbLine
 10
82.94999999999996
 20
95.85000000000001
 30
0.0
 11
82.94999999999996
 21
87.69999999999992
 31
0.0
  0
LINE
  5
210
330
1F
100
AcDbEntity
  8
GR1_01
 62
     7
100
AcDbLine
 10
89.94999999999996
 20
95.85000000000001
 30
0.0
 11
89.94999999999996
 21
87.69999999999992
 31
0.0
  0
LINE
  5
211
330
1F
100
AcDbEntity
  8
GR1_01
 62
     7
100
AcDbLine
 10
96.9499999999999
 20
95.85000000000001
 30
0.0
 11
96.94999999999996
 21
87.69999999999992
 31
0.0
  0
LINE
  5
212
330
1F
100
AcDbEntity
  8
GR1_01
 62
     7
100
AcDbLine
 10
103.9499999999999
 20
95.85000000000001
 30
0.0
 11
103.9499999999999
 21
87.69999999999992
 31
0.0
  0
LINE
  5
213
330
1F
100
AcDbEntity
  8
GR1_01
 62
     7
100
AcDbLine
 10
110.9499999999999
 20
95.85000000000001
 30
0.0
 11
110.9499999999999
 21
87.69999999999992
 31
0.0
  0
LINE
  5
214
330
1F
100
AcDbEntity
  8
GR1_01
 62
     7
100
AcDbLine
 10
117.9499999999998
 20
95.85000000000001
 30
0.0
 11
117.9499999999999
 21
87.69999999999992
 31
0.0
  0
LINE
  5
215
330
1F
100
AcDbEntity
  8
GR1_01
 62
     7
100
AcDbLine
 10
124.9499999999998
 20
95.85000000000001
 30
0.0
 11
124.9499999999998
 21
87.69999999999992
 31
0.0
  0
LINE
  5
216
330
1F
100
AcDbEntity
  8
GR1_01
 62
     7
100
AcDbLine
 10
131.9499999999998
 20
95.85000000000001
 30
0.0
 11
131.9499999999998
 21
87.69999999999992
 31
0.0
  0
LINE
  5
217
330
1F
100
AcDbEntity
  8
GR1_01
 62
     7
100
AcDbLine
 10
138.9499999999998
 20
95.85000000000001
 30
0.0
 11
138.9499999999998
 21
87.69999999999992
 31
0.0
  0
LINE
  5
218
330
1F
100
AcDbEntity
  8
GR1_01
 62
     7
100
AcDbLine
 10
145.9499999999998
 20
95.85000000000001
 30
0.0
 11
145.9499999999998
 21
87.69999999999992
 31
0.0
  0
LINE
  5
219
330
1F
100
AcDbEntity
  8
GR1_01
 62
     7
100
AcDbLine
 10
152.9499999999998
 20
95.85000000000001
 30
0.0
 11
152.9499999999998
 21
87.69999999999992
 31
0.0
  0
LINE
  5
21A
330
1F
100
AcDbEntity
  8
GR1_01
 62
     7
100
AcDbLine
 10
159.9499999999998
 20
95.85000000000001
 30
0.0
 11
159.9499999999998
 21
87.69999999999992
 31
0.0
  0
LINE
  5
21B
330
1F
100
AcDbEntity
  8
GR1_01
 62
     7
100
AcDbLine
 10
166.9499999999998
 20
95.85000000000001
 30
0.0
 11
166.9499999999998
 21
87.69999999999992
 31
0.0
  0
LINE
  5
21C
330
1F
100
AcDbEntity
  8
GR1_01
 62
     7
100
AcDbLine
 10
173.9499999999997
 20
95.85000000000001
 30
0.0
 11
173.9499999999998
 21
87.69999999999992
 31
0.0
  0
LINE
  5
21D
330
1F
100
AcDbEntity
  8
GR1_01
 62
     7
100
AcDbLine
 10
180.9499999999997
 20
95.84999999999998
 30
0.0
 11
180.9499999999997
 21
87.69999999999992
 31
0.0
  0
TEXT
  5
21E
330
1F
100
AcDbEntity
  8
GR1_01
 62
     7
100
AcDbText
 10
45.66498947143555
 20
96.58831614441323
 30
0.0
 40
1.363636327512336
  1
Ｖ＋／Ｉ＋
 41
0.5641025790461791
  7
ＭＳ_ゴシック
 72
     1
 11
48.16498947143555
 21
96.33921813964844
 31
0.0
100
AcDbText
 73
     1
  0
TEXT
  5
21F
330
1F
100
AcDbEntity
  8
GR1_01
 62
     7
100
AcDbText
 10
45.91498947143555
 20
98.95179575867104
 30
0.0
 40
1.363636327512336
  1
ＣＨ１
 41
0.8461538685692688
  7
ＭＳ_ゴシック
 72
     1
 11
48.16498947143555
 21
98.70269775390625
 31
0.0
100
AcDbText
 73
     1
  0
TEXT
  5
220
330
1F
100
AcDbEntity
  8
GR1_01
 62
     7
100
AcDbText
 10
59.57999801635742
 20
98.95179575867104
 30
0.0
 40
1.363636327512336
  1
ＣＨ２
 41
0.8461538685692688
  7
ＭＳ_ゴシック
 72
     1
 11
61.82999801635742
 21
98.70269775390625
 31
0.0
100
AcDbText
 73
     1
  0
TEXT
  5
221
330
1F
100
AcDbEntity
  8
GR1_01
 62
     7
100
AcDbText
 10
73.57999420166016
 20
98.95179575867104
 30
0.0
 40
1.363636327512336
  1
ＣＨ３
 41
0.8461538685692688
  7
ＭＳ_ゴシック
 72
     1
 11
75.82999420166016
 21
98.70269775390625
 31
0.0
100
AcDbText
 73
     1
  0
TEXT
  5
222
330
1F
100
AcDbEntity
  8
GR1_01
 62
     7
100
AcDbText
 10
87.58000946044922
 20
98.95179575867104
 30
0.0
 40
1.363636327512336
  1
ＣＨ４
 41
0.8461538685692688
  7
ＭＳ_ゴシック
 72
     1
 11
89.83000946044922
 21
98.70269775390625
 31
0.0
100
AcDbText
 73
     1
  0
TEXT
  5
223
330
1F
100
AcDbEntity
  8
GR1_01
 62
     7
100
AcDbText
 10
108.5800094604492
 20
98.95179575867104
 30
0.0
 40
1.363636327512336
  1
ＣＨ５
 41
0.8461538685692688
  7
ＭＳ_ゴシック
 72
     1
 11
110.8300094604492
 21
98.70269775390625
 31
0.0
100
AcDbText
 73
     1
  0
TEXT
  5
224
330
1F
100
AcDbEntity
  8
GR1_01
 62
     7
100
AcDbText
 10
122.5800094604492
 20
98.95179575867104
 30
0.0
 40
1.363636327512336
  1
ＣＨ６
 41
0.8461538685692688
  7
ＭＳ_ゴシック
 72
     1
 11
124.8300094604492
 21
98.70269775390625
 31
0.0
100
AcDbText
 73
     1
  0
TEXT
  5
225
330
1F
100
AcDbEntity
  8
GR1_01
 62
     7
100
AcDbText
 10
150.5800170898438
 20
98.95179575867104
 30
0.0
 40
1.363636327512336
  1
ＣＨ８
 41
0.8461538685692688
  7
ＭＳ_ゴシック
 72
     1
 11
152.8300170898438
 21
98.70269775390625
 31
0.0
100
AcDbText
 73
     1
  0
TEXT
  5
226
330
1F
100
AcDbEntity
  8
GR1_01
 62
     7
100
AcDbText
 10
181.6250122785568
 20
88.44842356628823
 30
0.0
 40
1.363636327512336
  1
２４Ｇ
 41
0.7333333258615259
  7
ＭＳ_ゴシック
 72
     1
 11
183.5750122070312
 21
88.19932556152344
 31
0.0
100
AcDbText
 73
     1
  0
TEXT
  5
227
330
1F
100
AcDbEntity
  8
GR1_01
 62
     7
100
AcDbText
 10
182.0750122070312
 20
90.81336802429604
 30
0.0
 40
1.363636327512336
  1
ＤＣ
 41
0.8461538685692688
  7
ＭＳ_ゴシック
 72
     1
 11
183.5750122070312
 21
90.56427001953125
 31
0.0
100
AcDbText
 73
     1
  0
TEXT
  5
228
330
1F
100
AcDbEntity
  8
GR1_01
 62
     7
100
AcDbText
 10
48.44999301433563
 20
88.43830698913979
 30
0.0
 40
1.363636327512336
  1
Ｖ－／Ｉ－
 41
0.6769231217539221
  7
ＭＳ_ゴシック
 72
     1
 11
51.44999313354492
 21
88.189208984375
 31
0.0
100
AcDbText
 73
     1
  0
TEXT
  5
229
330
1F
100
AcDbEntity
  8
GR1_01
 62
     7
100
AcDbText
 10
49.19999313354492
 20
90.8017866033976
 30
0.0
 40
1.363636327512336
  1
ＣＨ１
 41
0.8461538685692688
  7
ＭＳ_ゴシック
 72
     1
 11
51.44999313354492
 21
90.55268859863281
 31
0.0
100
AcDbText
 73
     1
  0
TEXT
  5
22A
330
1F
100
AcDbEntity
  8
GR1_01
 62
     7
100
AcDbText
 10
62.44998919963837
 20
88.43830698913979
 30
0.0
 40
1.363636327512336
  1
Ｖ－／Ｉ－
 41
0.6769231217539221
  7
ＭＳ_ゴシック
 72
     1
 11
65.44998931884766
 21
88.189208984375
 31
0.0
100
AcDbText
 73
     1
  0
TEXT
  5
22B
330
1F
100
AcDbEntity
  8
GR1_01
 62
     7
100
AcDbText
 10
63.19998931884766
 20
90.8017866033976
 30
0.0
 40
1.363636327512336
  1
ＣＨ２
 41
0.8461538685692688
  7
ＭＳ_ゴシック
 72
     1
 11
65.44998931884766
 21
90.55268859863281
 31
0.0
100
AcDbText
 73
     1
  0
TEXT
  5
22C
330
1F
100
AcDbEntity
  8
GR1_01
 62
     7
100
AcDbText
 10
76.44998919963837
 20
88.43830698913979
 30
0.0
 40
1.363636327512336
  1
Ｖ－／Ｉ－
 41
0.6769231217539221
  7
ＭＳ_ゴシック
 72
     1
 11
79.44998931884766
 21
88.189208984375
 31
0.0
100
AcDbText
 73
     1
  0
TEXT
  5
22D
330
1F
100
AcDbEntity
  8
GR1_01
 62
     7
100
AcDbText
 10
77.19998931884766
 20
90.8017866033976
 30
0.0
 40
1.363636327512336
  1
ＣＨ３
 41
0.8461538685692688
  7
ＭＳ_ゴシック
 72
     1
 11
79.44998931884766
 21
90.55268859863281
 31
0.0
100
AcDbText
 73
     1
  0
TEXT
  5
22E
330
1F
100
AcDbEntity
  8
GR1_01
 62
     7
100
AcDbText
 10
90.45000445842743
 20
88.43830698913979
 30
0.0
 40
1.363636327512336
  1
Ｖ－／Ｉ－
 41
0.6769231217539221
  7
ＭＳ_ゴシック
 72
     1
 11
93.45000457763672
 21
88.189208984375
 31
0.0
100
AcDbText
 73
     1
  0
TEXT
  5
22F
330
1F
100
AcDbEntity
  8
GR1_01
 62
     7
100
AcDbText
 10
91.20000457763672
 20
90.8017866033976
 30
0.0
 40
1.363636327512336
  1
ＣＨ４
 41
0.8461538685692688
  7
ＭＳ_ゴシック
 72
     1
 11
93.45000457763672
 21
90.55268859863281
 31
0.0
100
AcDbText
 73
     1
  0
TEXT
  5
230
330
1F
100
AcDbEntity
  8
GR1_01
 62
     7
100
AcDbText
 10
111.4500044584274
 20
88.43830698913979
 30
0.0
 40
1.363636327512336
  1
Ｖ－／Ｉ－
 41
0.6769231217539221
  7
ＭＳ_ゴシック
 72
     1
 11
114.4500045776367
 21
88.189208984375
 31
0.0
100
AcDbText
 73
     1
  0
TEXT
  5
231
330
1F
100
AcDbEntity
  8
GR1_01
 62
     7
100
AcDbText
 10
112.2000045776367
 20
90.8017866033976
 30
0.0
 40
1.363636327512336
  1
ＣＨ５
 41
0.8461538685692688
  7
ＭＳ_ゴシック
 72
     1
 11
114.4500045776367
 21
90.55268859863281
 31
0.0
100
AcDbText
 73
     1
  0
TEXT
  5
232
330
1F
100
AcDbEntity
  8
GR1_01
 62
     7
100
AcDbText
 10
125.450012087822
 20
88.43830698913979
 30
0.0
 40
1.363636327512336
  1
Ｖ－／Ｉ－
 41
0.6769231217539221
  7
ＭＳ_ゴシック
 72
     1
 11
128.4500122070312
 21
88.189208984375
 31
0.0
100
AcDbText
 73
     1
  0
TEXT
  5
233
330
1F
100
AcDbEntity
  8
GR1_01
 62
     7
100
AcDbText
 10
126.2000122070312
 20
90.8017866033976
 30
0.0
 40
1.363636327512336
  1
ＣＨ６
 41
0.8461538685692688
  7
ＭＳ_ゴシック
 72
     1
 11
128.4500122070312
 21
90.55268859863281
 31
0.0
100
AcDbText
 73
     1
  0
TEXT
  5
234
330
1F
100
AcDbEntity
  8
GR1_01
 62
     7
100
AcDbText
 10
139.450012087822
 20
88.43830698913979
 30
0.0
 40
1.363636327512336
  1
Ｖ－／Ｉ－
 41
0.6769231217539221
  7
ＭＳ_ゴシック
 72
     1
 11
142.4500122070312
 21
88.189208984375
 31
0.0
100
AcDbText
 73
     1
  0
TEXT
  5
235
330
1F
100
AcDbEntity
  8
GR1_01
 62
     7
100
AcDbText
 10
140.2000122070312
 20
90.8017866033976
 30
0.0
 40
1.363636327512336
  1
ＣＨ７
 41
0.8461538685692688
  7
ＭＳ_ゴシック
 72
     1
 11
142.4500122070312
 21
90.55268859863281
 31
0.0
100
AcDbText
 73
     1
  0
TEXT
  5
236
330
1F
100
AcDbEntity
  8
GR1_01
 62
     7
100
AcDbText
 10
153.450012087822
 20
88.43830698913979
 30
0.0
 40
1.363636327512336
  1
Ｖ－／Ｉ－
 41
0.6769231217539221
  7
ＭＳ_ゴシック
 72
     1
 11
156.4500122070312
 21
88.189208984375
 31
0.0
100
AcDbText
 73
     1
  0
TEXT
  5
237
330
1F
100
AcDbEntity
  8
GR1_01
 62
     7
100
AcDbText
 10
154.2000122070312
 20
90.8017866033976
 30
0.0
 40
1.363636327512336
  1
ＣＨ８
 41
0.8461538685692688
  7
ＭＳ_ゴシック
 72
     1
 11
156.4500122070312
 21
90.55268859863281
 31
0.0
100
AcDbText
 73
     1
  0
LINE
  5
238
330
1F
100
AcDbEntity
  8
GR1_01
 62
     7
100
AcDbLine
 10
75.94999999999996
 20
92.84999999999995
 30
0.0
 11
110.9499999999998
 21
92.84999999999995
 31
0.0
  0
LINE
  5
239
330
1F
100
AcDbEntity
  8
GR1_01
 62
     7
100
AcDbLine
 10
110.9499999999998
 20
92.84999999999995
 30
0.0
 11
186.2
 21
92.84999999999995
 31
0.0
  0
TEXT
  5
23A
330
1F
100
AcDbEntity
  8
GR1_01
 62
     7
100
AcDbText
 10
58.82999789714813
 20
96.58831614441323
 30
0.0
 40
1.363636327512336
  1
Ｖ＋／Ｉ＋
 41
0.6769231217539221
  7
ＭＳ_ゴシック
 72
     1
 11
61.82999801635742
 21
96.33921813964844
 31
0.0
100
AcDbText
 73
     1
  0
TEXT
  5
23B
330
1F
100
AcDbEntity
  8
GR1_01
 62
     7
100
AcDbText
 10
72.82999408245087
 20
96.58831614441323
 30
0.0
 40
1.363636327512336
  1
Ｖ＋／Ｉ＋
 41
0.6769231217539221
  7
ＭＳ_ゴシック
 72
     1
 11
75.82999420166016
 21
96.33921813964844
 31
0.0
100
AcDbText
 73
     1
  0
TEXT
  5
23C
330
1F
100
AcDbEntity
  8
GR1_01
 62
     7
100
AcDbText
 10
86.83000934123993
 20
96.58831614441323
 30
0.0
 40
1.363636327512336
  1
Ｖ＋／Ｉ＋
 41
0.6769231217539221
  7
ＭＳ_ゴシック
 72
     1
 11
89.83000946044922
 21
96.33921813964844
 31
0.0
100
AcDbText
 73
     1
  0
TEXT
  5
23D
330
1F
100
AcDbEntity
  8
GR1_01
 62
     7
100
AcDbText
 10
107.8300093412399
 20
96.58831614441323
 30
0.0
 40
1.363636327512336
  1
Ｖ＋／Ｉ＋
 41
0.6769231217539221
  7
ＭＳ_ゴシック
 72
     1
 11
110.8300094604492
 21
96.33921813964844
 31
0.0
100
AcDbText
 73
     1
  0
TEXT
  5
23E
330
1F
100
AcDbEntity
  8
GR1_01
 62
     7
100
AcDbText
 10
121.8300093412399
 20
96.58831614441323
 30
0.0
 40
1.363636327512336
  1
Ｖ＋／Ｉ＋
 41
0.6769231217539221
  7
ＭＳ_ゴシック
 72
     1
 11
124.8300094604492
 21
96.33921813964844
 31
0.0
100
AcDbText
 73
     1
  0
TEXT
  5
23F
330
1F
100
AcDbEntity
  8
GR1_01
 62
     7
100
AcDbText
 10
149.8300169706345
 20
96.58831614441323
 30
0.0
 40
1.363636327512336
  1
Ｖ＋／Ｉ＋
 41
0.6769231217539221
  7
ＭＳ_ゴシック
 72
     1
 11
152.8300170898438
 21
96.33921813964844
 31
0.0
100
AcDbText
 73
     1
  0
TEXT
  5
240
330
1F
100
AcDbEntity
  8
GR1_01
 62
     7
100
AcDbText
 10
136.5800170898438
 20
98.95179575867104
 30
0.0
 40
1.363636327512336
  1
ＣＨ７
 41
0.8461538685692688
  7
ＭＳ_ゴシック
 72
     1
 11
138.8300170898438
 21
98.70269775390625
 31
0.0
100
AcDbText
 73
     1
  0
TEXT
  5
241
330
1F
100
AcDbEntity
  8
GR1_01
 62
     7
100
AcDbText
 10
135.8300169706345
 20
96.58831614441323
 30
0.0
 40
1.363636327512336
  1
Ｖ＋／Ｉ＋
 41
0.6769231217539221
  7
ＭＳ_ゴシック
 72
     1
 11
138.8300170898438
 21
96.33921813964844
 31
0.0
100
AcDbText
 73
     1
  0
TEXT
  5
242
330
1F
100
AcDbEntity
  8
GR1_01
 62
     7
100
AcDbText
 10
185.2972095836293
 20
97.67601013183594
 30
0.0
 40
1.136363636363636
  1
ＤＡＧ
 50
90.0
 41
1.015384615384615
  7
ＭＳ_ゴシック
 72
     1
 11
185.5047912597656
 21
99.92601013183594
 31
0.0
100
AcDbText
 73
     1
  0
TEXT
  5
243
330
1F
100
AcDbEntity
  8
GR1_01
 62
     7
100
AcDbText
 10
179.2900085449219
 20
101.7628290349787
 30
0.0
 40
1.515151515151515
  1
３９
 41
0.5076923076923077
  7
ＭＳ_ゴシック
 72
     1
 11
180.2900085449219
 21
101.4860534667969
 31
0.0
100
AcDbText
 73
     1
  0
TEXT
  5
244
330
1F
100
AcDbEntity
  8
GR1_01
 62
     7
100
AcDbText
 10
178.3400086164474
 20
96.58830088562416
 30
0.0
 40
1.363636327512336
  1
２４Ｖ
 41
0.7333333258615259
  7
ＭＳ_ゴシック
 72
     1
 11
180.2900085449219
 21
96.33920288085938
 31
0.0
100
AcDbText
 73
     1
  0
TEXT
  5
245
330
1F
100
AcDbEntity
  8
GR1_01
 62
     7
100
AcDbText
 10
178.7900085449219
 20
98.95178049988198
 30
0.0
 40
1.363636327512336
  1
ＤＣ
 41
0.8461538685692688
  7
ＭＳ_ゴシック
 72
     1
 11
180.2900085449219
 21
98.70268249511719
 31
0.0
100
AcDbText
 73
     1
  0
LINE
  5
246
330
1F
100
AcDbEntity
  8
GR1_01
 62
     7
100
AcDbLine
 10
183.25
 20
103.9999999999999
 30
0.0
 11
183.25
 21
95.84999999999995
 31
0.0
  0
LINE
  5
247
330
1F
100
AcDbEntity
  8
GR2_01
 62
     7
100
AcDbLine
 10
44.99999999999999
 20
120.2749203698382
 30
0.0
 11
45.02507963016193
 21
120.3000000000001
 31
0.0
  0
LINE
  5
248
330
1F
100
AcDbEntity
  8
GR1_01
 62
     7
100
AcDbLine
 10
45.02507963016194
 20
120.3000000000001
 30
0.0
 11
45.025079630162
 21
104.0
 31
0.0
  0
LINE
  5
249
330
1F
100
AcDbEntity
  8
GR1_01
 62
     7
100
AcDbLine
 10
45.02507963016194
 20
120.3000000000001
 30
0.0
 11
186.2250796301619
 21
120.3000000000001
 31
0.0
  0
LINE
  5
24A
330
1F
100
AcDbEntity
  8
GR1_01
 62
     7
100
AcDbLine
 10
45.02507963016194
 20
112.15
 30
0.0
 11
186.2250796301619
 21
112.15
 31
0.0
  0
LINE
  5
24B
330
1F
100
AcDbEntity
  8
GR1_01
 62
     7
100
AcDbLine
 10
51.3550796301619
 20
120.3000000000001
 30
0.0
 11
51.35507963016192
 21
112.15
 31
0.0
  0
TEXT
  5
24C
330
1F
100
AcDbEntity
  8
GR1_01
 62
     7
100
AcDbText
 10
47.69006729125977
 20
118.0712396795099
 30
0.0
 40
1.515151515151515
  1
１
 41
0.5076923076923077
  7
ＭＳ_ゴシック
 72
     1
 11
48.19006729125977
 21
117.7944641113281
 31
0.0
100
AcDbText
 73
     1
  0
TEXT
  5
24D
330
1F
100
AcDbEntity
  8
GR1_01
 62
     7
100
AcDbText
 10
54.35507583618164
 20
118.0712396795099
 30
0.0
 40
1.515151515151515
  1
３
 41
0.5076923076923077
  7
ＭＳ_ゴシック
 72
     1
 11
54.85507583618164
 21
117.7944641113281
 31
0.0
100
AcDbText
 73
     1
  0
TEXT
  5
24E
330
1F
100
AcDbEntity
  8
GR1_01
 62
     7
100
AcDbText
 10
61.35507583618164
 20
118.0712396795099
 30
0.0
 40
1.515151515151515
  1
５
 41
0.5076923076923077
  7
ＭＳ_ゴシック
 72
     1
 11
61.85507583618164
 21
117.7944641113281
 31
0.0
100
AcDbText
 73
     1
  0
TEXT
  5
24F
330
1F
100
AcDbEntity
  8
GR1_01
 62
     7
100
AcDbText
 10
68.3550796508789
 20
118.0712396795099
 30
0.0
 40
1.515151515151515
  1
７
 41
0.5076923076923077
  7
ＭＳ_ゴシック
 72
     1
 11
68.8550796508789
 21
117.7944641113281
 31
0.0
100
AcDbText
 73
     1
  0
TEXT
  5
250
330
1F
100
AcDbEntity
  8
GR1_01
 62
     7
100
AcDbText
 10
75.3550796508789
 20
118.0712396795099
 30
0.0
 40
1.515151515151515
  1
９
 41
0.5076923076923077
  7
ＭＳ_ゴシック
 72
     1
 11
75.8550796508789
 21
117.7944641113281
 31
0.0
100
AcDbText
 73
     1
  0
TEXT
  5
251
330
1F
100
AcDbEntity
  8
GR1_01
 62
     7
100
AcDbText
 10
81.8550796508789
 20
118.0712396795099
 30
0.0
 40
1.515151515151515
  1
１１
 41
0.5076923076923077
  7
ＭＳ_ゴシック
 72
     1
 11
82.8550796508789
 21
117.7944641113281
 31
0.0
100
AcDbText
 73
     1
  0
TEXT
  5
252
330
1F
100
AcDbEntity
  8
GR1_01
 62
     7
100
AcDbText
 10
88.85506439208984
 20
118.0712396795099
 30
0.0
 40
1.515151515151515
  1
１３
 41
0.5076923076923077
  7
ＭＳ_ゴシック
 72
     1
 11
89.85506439208984
 21
117.7944641113281
 31
0.0
100
AcDbText
 73
     1
  0
TEXT
  5
253
330
1F
100
AcDbEntity
  8
GR1_01
 62
     7
100
AcDbText
 10
95.85506439208984
 20
118.0712396795099
 30
0.0
 40
1.515151515151515
  1
１５
 41
0.5076923076923077
  7
ＭＳ_ゴシック
 72
     1
 11
96.85506439208984
 21
117.7944641113281
 31
0.0
100
AcDbText
 73
     1
  0
TEXT
  5
254
330
1F
100
AcDbEntity
  8
GR1_01
 62
     7
100
AcDbText
 10
102.855094909668
 20
118.0712396795099
 30
0.0
 40
1.515151515151515
  1
１７
 41
0.5076923076923077
  7
ＭＳ_ゴシック
 72
     1
 11
103.855094909668
 21
117.7944641113281
 31
0.0
100
AcDbText
 73
     1
  0
TEXT
  5
255
330
1F
100
AcDbEntity
  8
GR1_01
 62
     7
100
AcDbText
 10
109.855094909668
 20
118.0712396795099
 30
0.0
 40
1.515151515151515
  1
１９
 41
0.5076923076923077
  7
ＭＳ_ゴシック
 72
     1
 11
110.855094909668
 21
117.7944641113281
 31
0.0
100
AcDbText
 73
     1
  0
TEXT
  5
256
330
1F
100
AcDbEntity
  8
GR1_01
 62
     7
100
AcDbText
 10
116.855094909668
 20
118.0712396795099
 30
0.0
 40
1.515151515151515
  1
２１
 41
0.5076923076923077
  7
ＭＳ_ゴシック
 72
     1
 11
117.855094909668
 21
117.7944641113281
 31
0.0
100
AcDbText
 73
     1
  0
TEXT
  5
257
330
1F
100
AcDbEntity
  8
GR1_01
 62
     7
100
AcDbText
 10
123.855094909668
 20
118.0712396795099
 30
0.0
 40
1.515151515151515
  1
２３
 41
0.5076923076923077
  7
ＭＳ_ゴシック
 72
     1
 11
124.855094909668
 21
117.7944641113281
 31
0.0
100
AcDbText
 73
     1
  0
TEXT
  5
258
330
1F
100
AcDbEntity
  8
GR1_01
 62
     7
100
AcDbText
 10
130.8550872802734
 20
118.0712396795099
 30
0.0
 40
1.515151515151515
  1
２５
 41
0.5076923076923077
  7
ＭＳ_ゴシック
 72
     1
 11
131.8550872802734
 21
117.7944641113281
 31
0.0
100
AcDbText
 73
     1
  0
TEXT
  5
259
330
1F
100
AcDbEntity
  8
GR1_01
 62
     7
100
AcDbText
 10
137.8550872802734
 20
118.0712396795099
 30
0.0
 40
1.515151515151515
  1
２７
 41
0.5076923076923077
  7
ＭＳ_ゴシック
 72
     1
 11
138.8550872802734
 21
117.7944641113281
 31
0.0
100
AcDbText
 73
     1
  0
TEXT
  5
25A
330
1F
100
AcDbEntity
  8
GR1_01
 62
     7
100
AcDbText
 10
144.8550872802734
 20
118.0712396795099
 30
0.0
 40
1.515151515151515
  1
２９
 41
0.5076923076923077
  7
ＭＳ_ゴシック
 72
     1
 11
145.8550872802734
 21
117.7944641113281
 31
0.0
100
AcDbText
 73
     1
  0
TEXT
  5
25B
330
1F
100
AcDbEntity
  8
GR1_01
 62
     7
100
AcDbText
 10
151.8550872802734
 20
118.0712396795099
 30
0.0
 40
1.515151515151515
  1
３１
 41
0.5076923076923077
  7
ＭＳ_ゴシック
 72
     1
 11
152.8550872802734
 21
117.7944641113281
 31
0.0
100
AcDbText
 73
     1
  0
TEXT
  5
25C
330
1F
100
AcDbEntity
  8
GR1_01
 62
     7
100
AcDbText
 10
158.8550872802734
 20
118.0712396795099
 30
0.0
 40
1.515151515151515
  1
３３
 41
0.5076923076923077
  7
ＭＳ_ゴシック
 72
     1
 11
159.8550872802734
 21
117.7944641113281
 31
0.0
100
AcDbText
 73
     1
  0
TEXT
  5
25D
330
1F
100
AcDbEntity
  8
GR1_01
 62
     7
100
AcDbText
 10
165.8550872802734
 20
118.0712396795099
 30
0.0
 40
1.515151515151515
  1
３５
 41
0.5076923076923077
  7
ＭＳ_ゴシック
 72
     1
 11
166.8550872802734
 21
117.7944641113281
 31
0.0
100
AcDbText
 73
     1
  0
TEXT
  5
25E
330
1F
100
AcDbEntity
  8
GR1_01
 62
     7
100
AcDbText
 10
172.8550872802734
 20
118.0712396795099
 30
0.0
 40
1.515151515151515
  1
３７
 41
0.5076923076923077
  7
ＭＳ_ゴシック
 72
     1
 11
173.8550872802734
 21
117.7944641113281
 31
0.0
100
AcDbText
 73
     1
  0
TEXT
  5
25F
330
1F
100
AcDbEntity
  8
GR1_01
 62
     7
100
AcDbText
 10
179.3150787353516
 20
118.0712396795099
 30
0.0
 40
1.515151515151515
  1
３９
 41
0.5076923076923077
  7
ＭＳ_ゴシック
 72
     1
 11
180.3150787353516
 21
117.7944641113281
 31
0.0
100
AcDbText
 73
     1
  0
TEXT
  5
260
330
1F
100
AcDbEntity
  8
GR1_01
 62
     7
100
AcDbText
 10
50.97507095336914
 20
109.9271967107599
 30
0.0
 40
1.515151515151515
  1
２
 41
0.5076923076923077
  7
ＭＳ_ゴシック
 72
     1
 11
51.47507095336914
 21
109.6504211425781
 31
0.0
100
AcDbText
 73
     1
  0
TEXT
  5
261
330
1F
100
AcDbEntity
  8
GR1_01
 62
     7
100
AcDbText
 10
57.97507095336914
 20
109.9271967107599
 30
0.0
 40
1.515151515151515
  1
４
 41
0.5076923076923077
  7
ＭＳ_ゴシック
 72
     1
 11
58.47507095336914
 21
109.6504211425781
 31
0.0
100
AcDbText
 73
     1
  0
TEXT
  5
262
330
1F
100
AcDbEntity
  8
GR1_01
 62
     7
100
AcDbText
 10
64.9750747680664
 20
109.9271967107599
 30
0.0
 40
1.515151515151515
  1
６
 41
0.5076923076923077
  7
ＭＳ_ゴシック
 72
     1
 11
65.4750747680664
 21
109.6504211425781
 31
0.0
100
AcDbText
 73
     1
  0
TEXT
  5
263
330
1F
100
AcDbEntity
  8
GR1_01
 62
     7
100
AcDbText
 10
71.9750747680664
 20
109.9271967107599
 30
0.0
 40
1.515151515151515
  1
８
 41
0.5076923076923077
  7
ＭＳ_ゴシック
 72
     1
 11
72.4750747680664
 21
109.6504211425781
 31
0.0
100
AcDbText
 73
     1
  0
TEXT
  5
264
330
1F
100
AcDbEntity
  8
GR1_01
 62
     7
100
AcDbText
 10
78.4750747680664
 20
109.9271967107599
 30
0.0
 40
1.515151515151515
  1
１０
 41
0.5076923076923077
  7
ＭＳ_ゴシック
 72
     1
 11
79.4750747680664
 21
109.6504211425781
 31
0.0
100
AcDbText
 73
     1
  0
TEXT
  5
265
330
1F
100
AcDbEntity
  8
GR1_01
 62
     7
100
AcDbText
 10
85.4750747680664
 20
109.9271967107599
 30
0.0
 40
1.515151515151515
  1
１２
 41
0.5076923076923077
  7
ＭＳ_ゴシック
 72
     1
 11
86.4750747680664
 21
109.6504211425781
 31
0.0
100
AcDbText
 73
     1
  0
TEXT
  5
266
330
1F
100
AcDbEntity
  8
GR1_01
 62
     7
100
AcDbText
 10
92.47509002685547
 20
109.9271967107599
 30
0.0
 40
1.515151515151515
  1
１４
 41
0.5076923076923077
  7
ＭＳ_ゴシック
 72
     1
 11
93.47509002685547
 21
109.6504211425781
 31
0.0
100
AcDbText
 73
     1
  0
TEXT
  5
267
330
1F
100
AcDbEntity
  8
GR1_01
 62
     7
100
AcDbText
 10
99.47509002685547
 20
109.9271967107599
 30
0.0
 40
1.515151515151515
  1
１６
 41
0.5076923076923077
  7
ＭＳ_ゴシック
 72
     1
 11
100.4750900268555
 21
109.6504211425781
 31
0.0
100
AcDbText
 73
     1
  0
TEXT
  5
268
330
1F
100
AcDbEntity
  8
GR1_01
 62
     7
100
AcDbText
 10
106.4750900268555
 20
109.9271967107599
 30
0.0
 40
1.515151515151515
  1
１８
 41
0.5076923076923077
  7
ＭＳ_ゴシック
 72
     1
 11
107.4750900268555
 21
109.6504211425781
 31
0.0
100
AcDbText
 73
     1
  0
TEXT
  5
269
330
1F
100
AcDbEntity
  8
GR1_01
 62
     7
100
AcDbText
 10
113.4750900268555
 20
109.9271967107599
 30
0.0
 40
1.515151515151515
  1
２０
 41
0.5076923076923077
  7
ＭＳ_ゴシック
 72
     1
 11
114.4750900268555
 21
109.6504211425781
 31
0.0
100
AcDbText
 73
     1
  0
TEXT
  5
26A
330
1F
100
AcDbEntity
  8
GR1_01
 62
     7
100
AcDbText
 10
120.4750900268555
 20
109.9271967107599
 30
0.0
 40
1.515151515151515
  1
２２
 41
0.5076923076923077
  7
ＭＳ_ゴシック
 72
     1
 11
121.4750900268555
 21
109.6504211425781
 31
0.0
100
AcDbText
 73
     1
  0
TEXT
  5
26B
330
1F
100
AcDbEntity
  8
GR1_01
 62
     7
100
AcDbText
 10
127.4750823974609
 20
109.9271967107599
 30
0.0
 40
1.515151515151515
  1
２４
 41
0.5076923076923077
  7
ＭＳ_ゴシック
 72
     1
 11
128.4750823974609
 21
109.6504211425781
 31
0.0
100
AcDbText
 73
     1
  0
TEXT
  5
26C
330
1F
100
AcDbEntity
  8
GR1_01
 62
     7
100
AcDbText
 10
134.4750823974609
 20
109.9271967107599
 30
0.0
 40
1.515151515151515
  1
２６
 41
0.5076923076923077
  7
ＭＳ_ゴシック
 72
     1
 11
135.4750823974609
 21
109.6504211425781
 31
0.0
100
AcDbText
 73
     1
  0
TEXT
  5
26D
330
1F
100
AcDbEntity
  8
GR1_01
 62
     7
100
AcDbText
 10
141.4750823974609
 20
109.9271967107599
 30
0.0
 40
1.515151515151515
  1
２８
 41
0.5076923076923077
  7
ＭＳ_ゴシック
 72
     1
 11
142.4750823974609
 21
109.6504211425781
 31
0.0
100
AcDbText
 73
     1
  0
TEXT
  5
26E
330
1F
100
AcDbEntity
  8
GR1_01
 62
     7
100
AcDbText
 10
148.4750823974609
 20
109.9271967107599
 30
0.0
 40
1.515151515151515
  1
３０
 41
0.5076923076923077
  7
ＭＳ_ゴシック
 72
     1
 11
149.4750823974609
 21
109.6504211425781
 31
0.0
100
AcDbText
 73
     1
  0
TEXT
  5
26F
330
1F
100
AcDbEntity
  8
GR1_01
 62
     7
100
AcDbText
 10
155.4750823974609
 20
109.9271967107599
 30
0.0
 40
1.515151515151515
  1
３２
 41
0.5076923076923077
  7
ＭＳ_ゴシック
 72
     1
 11
156.4750823974609
 21
109.6504211425781
 31
0.0
100
AcDbText
 73
     1
  0
TEXT
  5
270
330
1F
100
AcDbEntity
  8
GR1_01
 62
     7
100
AcDbText
 10
162.4750823974609
 20
109.9271967107599
 30
0.0
 40
1.515151515151515
  1
３４
 41
0.5076923076923077
  7
ＭＳ_ゴシック
 72
     1
 11
163.4750823974609
 21
109.6504211425781
 31
0.0
100
AcDbText
 73
     1
  0
TEXT
  5
271
330
1F
100
AcDbEntity
  8
GR1_01
 62
     7
100
AcDbText
 10
169.4750823974609
 20
109.9271967107599
 30
0.0
 40
1.515151515151515
  1
３６
 41
0.5076923076923077
  7
ＭＳ_ゴシック
 72
     1
 11
170.4750823974609
 21
109.6504211425781
 31
0.0
100
AcDbText
 73
     1
  0
TEXT
  5
272
330
1F
100
AcDbEntity
  8
GR1_01
 62
     7
100
AcDbText
 10
176.4750823974609
 20
109.9271967107599
 30
0.0
 40
1.515151515151515
  1
３８
 41
0.5076923076923077
  7
ＭＳ_ゴシック
 72
     1
 11
177.4750823974609
 21
109.6504211425781
 31
0.0
100
AcDbText
 73
     1
  0
TEXT
  5
273
330
1F
100
AcDbEntity
  8
GR1_01
 62
     7
100
AcDbText
 10
182.6000823974609
 20
109.966030328924
 30
0.0
 40
1.515151515151515
  1
４０
 41
0.5076923076923077
  7
ＭＳ_ゴシック
 72
     1
 11
183.6000823974609
 21
109.6892547607422
 31
0.0
100
AcDbText
 73
     1
  0
LINE
  5
274
330
1F
100
AcDbEntity
  8
GR1_01
 62
     7
100
AcDbLine
 10
186.2250796301619
 20
104.0
 30
0.0
 11
186.2250796301619
 21
120.3000000000001
 31
0.0
  0
LINE
  5
275
330
1F
100
AcDbEntity
  8
GR1_01
 62
     7
100
AcDbLine
 10
177.3550796301619
 20
120.3000000000001
 30
0.0
 11
177.3550796301619
 21
112.15
 31
0.0
  0
LINE
  5
276
330
1F
100
AcDbEntity
  8
GR1_01
 62
     7
100
AcDbLine
 10
170.3550796301619
 20
120.2999999999999
 30
0.0
 11
170.355079630162
 21
112.15
 31
0.0
  0
LINE
  5
277
330
1F
100
AcDbEntity
  8
GR1_01
 62
     7
100
AcDbLine
 10
163.3550796301619
 20
120.2999999999999
 30
0.0
 11
163.355079630162
 21
112.15
 31
0.0
  0
LINE
  5
278
330
1F
100
AcDbEntity
  8
GR1_01
 62
     7
100
AcDbLine
 10
156.3550796301619
 20
120.2999999999999
 30
0.0
 11
156.355079630162
 21
112.15
 31
0.0
  0
LINE
  5
279
330
1F
100
AcDbEntity
  8
GR1_01
 62
     7
100
AcDbLine
 10
149.355079630162
 20
120.2999999999999
 30
0.0
 11
149.355079630162
 21
112.15
 31
0.0
  0
LINE
  5
27A
330
1F
100
AcDbEntity
  8
GR1_01
 62
     7
100
AcDbLine
 10
142.355079630162
 20
120.2999999999999
 30
0.0
 11
142.355079630162
 21
112.15
 31
0.0
  0
LINE
  5
27B
330
1F
100
AcDbEntity
  8
GR1_01
 62
     7
100
AcDbLine
 10
135.355079630162
 20
120.2999999999999
 30
0.0
 11
135.3550796301622
 21
112.15
 31
0.0
  0
LINE
  5
27C
330
1F
100
AcDbEntity
  8
GR1_01
 62
     7
100
AcDbLine
 10
128.355079630162
 20
120.2999999999999
 30
0.0
 11
128.3550796301622
 21
112.15
 31
0.0
  0
LINE
  5
27D
330
1F
100
AcDbEntity
  8
GR1_01
 62
     7
100
AcDbLine
 10
121.3550796301621
 20
120.2999999999999
 30
0.0
 11
121.3550796301622
 21
112.15
 31
0.0
  0
LINE
  5
27E
330
1F
100
AcDbEntity
  8
GR1_01
 62
     7
100
AcDbLine
 10
114.3550796301622
 20
120.2999999999999
 30
0.0
 11
114.3550796301622
 21
112.15
 31
0.0
  0
LINE
  5
27F
330
1F
100
AcDbEntity
  8
GR1_01
 62
     7
100
AcDbLine
 10
107.3550796301622
 20
120.2999999999999
 30
0.0
 11
107.3550796301622
 21
112.15
 31
0.0
  0
LINE
  5
280
330
1F
100
AcDbEntity
  8
GR1_01
 62
     7
100
AcDbLine
 10
100.3550796301622
 20
120.2999999999999
 30
0.0
 11
100.3550796301622
 21
112.15
 31
0.0
  0
LINE
  5
281
330
1F
100
AcDbEntity
  8
GR1_01
 62
     7
100
AcDbLine
 10
93.35507963016221
 20
120.2999999999999
 30
0.0
 11
93.35507963016227
 21
112.15
 31
0.0
  0
LINE
  5
282
330
1F
100
AcDbEntity
  8
GR1_01
 62
     7
100
AcDbLine
 10
86.35507963016224
 20
120.2999999999999
 30
0.0
 11
86.35507963016232
 21
112.15
 31
0.0
  0
LINE
  5
283
330
1F
100
AcDbEntity
  8
GR1_01
 62
     7
100
AcDbLine
 10
79.35507963016227
 20
120.2999999999999
 30
0.0
 11
79.35507963016232
 21
112.15
 31
0.0
  0
LINE
  5
284
330
1F
100
AcDbEntity
  8
GR1_01
 62
     7
100
AcDbLine
 10
72.3550796301623
 20
120.2999999999999
 30
0.0
 11
72.35507963016235
 21
112.15
 31
0.0
  0
LINE
  5
285
330
1F
100
AcDbEntity
  8
GR1_01
 62
     7
100
AcDbLine
 10
65.35507963016232
 20
120.2999999999999
 30
0.0
 11
65.35507963016238
 21
112.15
 31
0.0
  0
LINE
  5
286
330
1F
100
AcDbEntity
  8
GR1_01
 62
     7
100
AcDbLine
 10
58.35507963016235
 20
120.2999999999999
 30
0.0
 11
58.35507963016244
 21
112.15
 31
0.0
  0
LINE
  5
287
330
1F
100
AcDbEntity
  8
GR1_01
 62
     7
100
AcDbLine
 10
45.02507963016194
 20
117.3
 30
0.0
 11
183.275079630162
 21
117.3
 31
0.0
  0
LINE
  5
288
330
1F
100
AcDbEntity
  8
GR1_01
 62
     7
100
AcDbLine
 10
45.02507963016194
 20
112.15
 30
0.0
 11
186.2250796301619
 21
112.15
 31
0.0
  0
LINE
  5
289
330
1F
100
AcDbEntity
  8
GR1_01
 62
     7
100
AcDbLine
 10
47.97507963016199
 20
109.15
 30
0.0
 11
186.2250796301619
 21
109.15
 31
0.0
  0
LINE
  5
28A
330
1F
100
AcDbEntity
  8
GR1_01
 62
     7
100
AcDbLine
 10
45.02507963016194
 20
104.0
 30
0.0
 11
186.2250796301619
 21
104.0
 31
0.0
  0
LINE
  5
28B
330
1F
100
AcDbEntity
  8
GR1_01
 62
     7
100
AcDbLine
 10
47.97507963016199
 20
112.1500000000001
 30
0.0
 11
47.97507963016199
 21
104.0
 31
0.0
  0
LINE
  5
28C
330
1F
100
AcDbEntity
  8
GR1_01
 62
     7
100
AcDbLine
 10
54.97507963016199
 20
112.1500000000001
 30
0.0
 11
54.97507963016199
 21
104.0
 31
0.0
  0
LINE
  5
28D
330
1F
100
AcDbEntity
  8
GR1_01
 62
     7
100
AcDbLine
 10
61.97507963016196
 20
112.1500000000001
 30
0.0
 11
61.97507963016199
 21
104.0
 31
0.0
  0
LINE
  5
28E
330
1F
100
AcDbEntity
  8
GR1_01
 62
     7
100
AcDbLine
 10
68.97507963016193
 20
112.1500000000001
 30
0.0
 11
68.97507963016196
 21
104.0
 31
0.0
  0
LINE
  5
28F
330
1F
100
AcDbEntity
  8
GR1_01
 62
     7
100
AcDbLine
 10
75.97507963016193
 20
112.1500000000001
 30
0.0
 11
75.97507963016193
 21
104.0
 31
0.0
  0
LINE
  5
290
330
1F
100
AcDbEntity
  8
GR1_01
 62
     7
100
AcDbLine
 10
82.97507963016193
 20
112.1500000000001
 30
0.0
 11
82.97507963016193
 21
104.0
 31
0.0
  0
LINE
  5
291
330
1F
100
AcDbEntity
  8
GR1_01
 62
     7
100
AcDbLine
 10
89.97507963016193
 20
112.1500000000001
 30
0.0
 11
89.97507963016193
 21
104.0
 31
0.0
  0
LINE
  5
292
330
1F
100
AcDbEntity
  8
GR1_01
 62
     7
100
AcDbLine
 10
96.97507963016187
 20
112.1500000000001
 30
0.0
 11
96.97507963016193
 21
104.0
 31
0.0
  0
LINE
  5
293
330
1F
100
AcDbEntity
  8
GR1_01
 62
     7
100
AcDbLine
 10
103.9750796301619
 20
112.1500000000001
 30
0.0
 11
103.9750796301619
 21
104.0
 31
0.0
  0
LINE
  5
294
330
1F
100
AcDbEntity
  8
GR1_01
 62
     7
100
AcDbLine
 10
110.9750796301619
 20
112.1500000000001
 30
0.0
 11
110.9750796301619
 21
104.0
 31
0.0
  0
LINE
  5
295
330
1F
100
AcDbEntity
  8
GR1_01
 62
     7
100
AcDbLine
 10
117.9750796301618
 20
112.1500000000001
 30
0.0
 11
117.9750796301619
 21
104.0
 31
0.0
  0
LINE
  5
296
330
1F
100
AcDbEntity
  8
GR1_01
 62
     7
100
AcDbLine
 10
124.9750796301618
 20
112.1500000000001
 30
0.0
 11
124.9750796301618
 21
104.0
 31
0.0
  0
LINE
  5
297
330
1F
100
AcDbEntity
  8
GR1_01
 62
     7
100
AcDbLine
 10
131.9750796301618
 20
112.1500000000001
 30
0.0
 11
131.9750796301618
 21
104.0
 31
0.0
  0
LINE
  5
298
330
1F
100
AcDbEntity
  8
GR1_01
 62
     7
100
AcDbLine
 10
138.9750796301618
 20
112.1500000000001
 30
0.0
 11
138.9750796301618
 21
104.0
 31
0.0
  0
LINE
  5
299
330
1F
100
AcDbEntity
  8
GR1_01
 62
     7
100
AcDbLine
 10
145.9750796301618
 20
112.1500000000001
 30
0.0
 11
145.9750796301618
 21
104.0
 31
0.0
  0
LINE
  5
29A
330
1F
100
AcDbEntity
  8
GR1_01
 62
     7
100
AcDbLine
 10
152.9750796301618
 20
112.1500000000001
 30
0.0
 11
152.9750796301618
 21
104.0
 31
0.0
  0
LINE
  5
29B
330
1F
100
AcDbEntity
  8
GR1_01
 62
     7
100
AcDbLine
 10
159.9750796301618
 20
112.1500000000001
 30
0.0
 11
159.9750796301618
 21
104.0
 31
0.0
  0
LINE
  5
29C
330
1F
100
AcDbEntity
  8
GR1_01
 62
     7
100
AcDbLine
 10
166.9750796301618
 20
112.1500000000001
 30
0.0
 11
166.9750796301618
 21
104.0
 31
0.0
  0
LINE
  5
29D
330
1F
100
AcDbEntity
  8
GR1_01
 62
     7
100
AcDbLine
 10
173.9750796301617
 20
112.1500000000001
 30
0.0
 11
173.9750796301618
 21
104.0
 31
0.0
  0
LINE
  5
29E
330
1F
100
AcDbEntity
  8
GR1_01
 62
     7
100
AcDbLine
 10
180.9750796301617
 20
112.1500000000001
 30
0.0
 11
180.9750796301617
 21
104.0
 31
0.0
  0
TEXT
  5
29F
330
1F
100
AcDbEntity
  8
GR1_01
 62
     7
100
AcDbText
 10
47.07094081531871
 20
105.0749969482422
 30
0.0
 40
1.136363636363636
  1
ｉＱ－Ｒ
 50
90.0
 41
1.015384615384615
  7
ＭＳ_ゴシック
 72
     1
 11
47.27852249145508
 21
108.0749969482422
 31
0.0
100
AcDbText
 73
     1
  0
TEXT
  5
2A0
330
1F
100
AcDbEntity
  8
GR1_01
 62
     7
100
AcDbText
 10
185.322279774059
 20
113.9760284423828
 30
0.0
 40
1.136363636363636
  1
ＤＡＧ
 50
90.0
 41
1.015384615384615
  7
ＭＳ_ゴシック
 72
     1
 11
185.5298614501953
 21
116.2260284423828
 31
0.0
100
AcDbText
 73
     1
  0
LINE
  5
2A1
330
1F
100
AcDbEntity
  8
GR1_01
 62
     7
100
AcDbLine
 10
183.275079630162
 20
120.3010399721651
 30
0.0
 11
183.275079630162
 21
112.1510399721651
 31
0.0
  0
ENDSEC
  0
SECTION
  2
OBJECTS
  0
DICTIONARY
  5
C
330
0
100
AcDbDictionary
  3
ACAD_GROUP
350
D
  3
ACAD_LAYOUT
350
1A
  3
ACAD_MATERIAL
350
43
  3
ACAD_MLEADERSTYLE
350
6B
  3
ACAD_MLINESTYLE
350
17
  3
ACAD_PLOTSETTINGS
350
19
  3
ACAD_SCALELIST
350
47
  3
ACAD_VISUALSTYLE
350
2A
  3
ACDBHEADERROUNDTRIPXREC
350
2A2
  3
ACDBVARIABLEDICTIONARY
350
2C3
  0
DICTIONARY
  5
2CC
330
8
100
AcDbDictionary
280
     1
  3
ACAD_XREC_ROUNDTRIP
360
2CD
  0
DICTIONARY
  5
D
102
{ACAD_REACTORS
330
C
102
}
330
C
100
AcDbDictionary
  0
DICTIONARY
  5
1A
102
{ACAD_REACTORS
330
C
102
}
330
C
100
AcDbDictionary
  0
DICTIONARY
  5
43
102
{ACAD_REACTORS
330
C
102
}
330
C
100
AcDbDictionary
  3
BYBLOCK
350
45
  3
BYLAYER
350
44
  3
GLOBAL
350
46
  0
DICTIONARY
  5
6B
102
{ACAD_REACTORS
330
C
102
}
330
C
100
AcDbDictionary
  3
STANDARD
350
6C
  0
DICTIONARY
  5
17
102
{ACAD_REACTORS
330
C
102
}
330
C
100
AcDbDictionary
  3
STANDARD
350
18
  0
DICTIONARY
  5
19
102
{ACAD_REACTORS
330
C
102
}
330
C
100
AcDbDictionary
  0
DICTIONARY
  5
47
102
{ACAD_REACTORS
330
C
102
}
330
C
100
AcDbDictionary
  3
A0
350
48
  3
A1
350
49
  3
A2
350
4A
  3
A3
350
4B
  3
A4
350
4C
  3
A5
350
4D
  3
A6
350
4E
  3
A7
350
4F
  3
A8
350
50
  3
A9
350
51
  3
B0
350
52
  3
B1
350
53
  3
B2
350
54
  3
B3
350
55
  3
B4
350
56
  3
B5
350
57
  3
B6
350
58
  3
B7
350
59
  3
B8
350
5A
  3
B9
350
5B
  3
C0
350
5C
  3
C1
350
5D
  3
C2
350
5E
  3
C3
350
5F
  3
C4
350
60
  3
C5
350
61
  3
C6
350
62
  3
C7
350
63
  3
C8
350
64
  3
C9
350
65
  3
D0
350
66
  3
D1
350
67
  3
D2
350
68
  0
DICTIONARY
  5
2A
102
{ACAD_REACTORS
330
C
102
}
330
C
100
AcDbDictionary
  3
2DWIREFRAME
350
2F
  3
BASIC
350
32
  3
BRIGHTEN
350
36
  3
COLORCHANGE
350
3A
  3
CONCEPTUAL
350
34
  3
DIM
350
35
  3
EDGECOLOROFF
350
3D
  3
FACEPATTERN
350
39
  3
FLAT
350
2B
  3
FLATWITHEDGES
350
2C
  3
GOURAUD
350
2D
  3
GOURAUDWITHEDGES
350
2E
  3
HIDDEN
350
31
  3
JITTEROFF
350
3B
  3
LINEPATTERN
350
38
  3
OVERHANGOFF
350
3C
  3
REALISTIC
350
33
  3
SHADED
350
42
  3
SHADED_WITH_EDGES
350
41
  3
SHADES_OF_GRAY
350
3E
  3
SKETCHY
350
3F
  3
THICKEN
350
37
  3
WIREFRAME
350
30
  3
X-RAY
350
40
  0
DICTIONARY
  5
2A2
102
{ACAD_REACTORS
330
C
102
}
330
C
100
AcDbDictionary
  3
CEPSNID
350
2AC
  3
CEPSNTYPE
350
2AB
  3
DIMSTYLEDATA
350
2C2
  3
FINGERPRINTGUID
350
2AD
  3
HYPERLINKBASE
350
2A5
  3
INSUNITS
350
2AA
  3
LAYOUTDICT
350
2A7
  3
LWETCUNION
350
2A9
  3
PLOTSETDICT
350
2A8
  3
PSVPSCALE
350
2AF
  3
PUCSBASE
350
2B2
  3
PUCSORGBACK
350
2B8
  3
PUCSORGBOTTOM
350
2B4
  3
PUCSORGFRONT
350
2B7
  3
PUCSORGLEFT
350
2B5
  3
PUCSORGRIGHT
350
2B6
  3
PUCSORGTOP
350
2B3
  3
PUCSORTHOREF
350
2B0
  3
PUCSORTHOVIEW
350
2B1
  3
STYLESHEET
350
2A6
  3
TSTACKALIGN
350
2A3
  3
TSTACKSIZE
350
2A4
  3
UCSBASE
350
2BB
  3
UCSORGBACK
350
2C1
  3
UCSORGBOTTOM
350
2BD
  3
UCSORGFRONT
350
2C0
  3
UCSORGLEFT
350
2BE
  3
UCSORGRIGHT
350
2BF
  3
UCSORGTOP
350
2BC
  3
UCSORTHOREF
350
2B9
  3
UCSORTHOVIEW
350
2BA
  3
VERSIONGUID
350
2AE
  0
DICTIONARY
  5
2C3
102
{ACAD_REACTORS
330
C
102
}
330
C
100
AcDbDictionary
  3
CANNOSCALE
350
2CE
  3
CMLEADERSTYLE
350
2C5
  3
CTABLESTYLE
350
2C4
  3
DIMASSOC
350
2CA
  3
HIDETEXT
350
2CB
  3
MSLTSCALE
350
2CF
  3
PSOLHEIGHT
350
2C7
  3
PSOLWIDTH
350
2C6
  0
XRECORD
  5
2CD
102
{ACAD_REACTORS
330
2CC
102
}
330
2CC
100
AcDbXrecord
102
VTR_0.000_0.000_1.000_1.000_GRIDDISPLAY
 70
     3
102
VTR_0.000_0.000_1.000_1.000_GRIDMAJOR
 70
     5
102
VTR_0.000_0.000_1.000_1.000_DEFAULTLIGHTING
280
     1
102
VTR_0.000_0.000_1.000_1.000_DEFAULTLIGHTINGTYPE
 70
     1
102
VTR_0.000_0.000_1.000_1.000_BRIGHTNESS
141
0.0
102
VTR_0.000_0.000_1.000_1.000_CONTRAST
142
0.0
  0
MATERIAL
  5
45
102
{ACAD_REACTORS
330
43
102
}
102
{ACAD_XDICTIONARY
360
2D2
102
}
330
43
100
AcDbMaterial
  1
BYBLOCK
  0
MATERIAL
  5
44
102
{ACAD_REACTORS
330
43
102
}
102
{ACAD_XDICTIONARY
360
2D0
102
}
330
43
100
AcDbMaterial
  1
BYLAYER
  0
MATERIAL
  5
46
102
{ACAD_REACTORS
330
43
102
}
102
{ACAD_XDICTIONARY
360
2D4
102
}
330
43
100
AcDbMaterial
  1
GLOBAL
  0
ACAD_PROXY_OBJECT
  5
6C
102
{ACAD_REACTORS
330
6B
102
}
330
6B
100
AcDbProxyObject
 90
      499
 91
      505
 93
      610
310
40901902A4063FBFFFFFE0000000000000020400000000000020404214DD185B99185C990000000000000104090141901A00000000000004100000000000000041025764000000000000039000
340
14
340
0
340
11
340
0
 94
        0
1001
ACAD_MLEADERVER
1070
     2
  0
MLINESTYLE
  5
18
102
{ACAD_REACTORS
330
17
102
}
330
17
100
AcDbMlineStyle
  2
Standard
 70
     0
  3

 62
   256
 51
90.0
 52
90.0
 71
     2
 49
0.5
 62
   256
  6
BYLAYER
 49
-0.5
 62
   256
  6
BYLAYER
  0
ACAD_PROXY_OBJECT
  5
48
102
{ACAD_REACTORS
330
47
102
}
330
47
100
AcDbProxyObject
 90
      499
 91
      503
 93
       41
310
903313A31580
  0
ACAD_PROXY_OBJECT
  5
49
102
{ACAD_REACTORS
330
47
102
}
330
47
100
AcDbProxyObject
 90
      499
 91
      503
 93
      105
310
903313A324000000000000004000
  0
ACAD_PROXY_OBJECT
  5
4A
102
{ACAD_REACTORS
330
47
102
}
330
47
100
AcDbProxyObject
 90
      499
 91
      503
 93
      105
310
903313A344000000000000104000
  0
ACAD_PROXY_OBJECT
  5
4B
102
{ACAD_REACTORS
330
47
102
}
330
47
100
AcDbProxyObject
 90
      499
 91
      503
 93
      105
310
903313A354000000000000144000
  0
ACAD_PROXY_OBJECT
  5
4C
102
{ACAD_REACTORS
330
47
102
}
330
47
100
AcDbProxyObject
 90
      499
 91
      503
 93
      105
310
903313A384000000000000204000
  0
ACAD_PROXY_OBJECT
  5
4D
102
{ACAD_REACTORS
330
47
102
}
330
47
100
AcDbProxyObject
 90
      499
 91
      503
 93
      113
310
904313A31304000000000000244000
  0
ACAD_PROXY_OBJECT
  5
4E
102
{ACAD_REACTORS
330
47
102
}
330
47
100
AcDbProxyObject
 90
      499
 91
      503
 93
      113
310
904313A31364000000000000304000
  0
ACAD_PROXY_OBJECT
  5
4F
102
{ACAD_REACTORS
330
47
102
}
330
47
100
AcDbProxyObject
 90
      499
 91
      503
 93
      113
310
904313A32304000000000000344000
  0
ACAD_PROXY_OBJECT
  5
50
102
{ACAD_REACTORS
330
47
102
}
330
47
100
AcDbProxyObject
 90
      499
 91
      503
 93
      113
310
904313A333040000000000003E4000
  0
ACAD_PROXY_OBJECT
  5
51
102
{ACAD_REACTORS
330
47
102
}
330
47
100
AcDbProxyObject
 90
      499
 91
      503
 93
      113
310
904313A34304000000000000444000
  0
ACAD_PROXY_OBJECT
  5
52
102
{ACAD_REACTORS
330
47
102
}
330
47
100
AcDbProxyObject
 90
      499
 91
      503
 93
      113
310
904313A35304000000000000494000
  0
ACAD_PROXY_OBJECT
  5
53
102
{ACAD_REACTORS
330
47
102
}
330
47
100
AcDbProxyObject
 90
      499
 91
      503
 93
      121
310
905313A3130304000000000000594000
  0
ACAD_PROXY_OBJECT
  5
54
102
{ACAD_REACTORS
330
47
102
}
330
47
100
AcDbProxyObject
 90
      499
 91
      503
 93
      105
310
903323A310000000000000010100
  0
ACAD_PROXY_OBJECT
  5
55
102
{ACAD_REACTORS
330
47
102
}
330
47
100
AcDbProxyObject
 90
      499
 91
      503
 93
      105
310
903343A310000000000000410100
  0
ACAD_PROXY_OBJECT
  5
56
102
{ACAD_REACTORS
330
47
102
}
330
47
100
AcDbProxyObject
 90
      499
 91
      503
 93
      105
310
903383A310000000000000810100
  0
ACAD_PROXY_OBJECT
  5
57
102
{ACAD_REACTORS
330
47
102
}
330
47
100
AcDbProxyObject
 90
      499
 91
      503
 93
      113
310
90431303A310000000000000910100
  0
ACAD_PROXY_OBJECT
  5
58
102
{ACAD_REACTORS
330
47
102
}
330
47
100
AcDbProxyObject
 90
      499
 91
      503
 93
      121
310
9053130303A310000000000001650100
  0
ACAD_PROXY_OBJECT
  5
59
102
{ACAD_REACTORS
330
47
102
}
330
47
100
AcDbProxyObject
 90
      499
 91
      503
 93
      257
310
90E312F31323822203D2031272D3022000000000000200FC000000000000284000
  0
ACAD_PROXY_OBJECT
  5
5A
102
{ACAD_REACTORS
330
47
102
}
330
47
100
AcDbProxyObject
 90
      499
 91
      503
 93
      249
310
90D312F363422203D2031272D3022000000000000240FC000000000000284000
  0
ACAD_PROXY_OBJECT
  5
5B
102
{ACAD_REACTORS
330
47
102
}
330
47
100
AcDbProxyObject
 90
      499
 91
      503
 93
      249
310
90D312F333222203D2031272D3022000000000000280FC000000000000284000
  0
ACAD_PROXY_OBJECT
  5
5C
102
{ACAD_REACTORS
330
47
102
}
330
47
100
AcDbProxyObject
 90
      499
 91
      503
 93
      249
310
90D312F313622203D2031272D30220000000000002C0FC000000000000284000
  0
ACAD_PROXY_OBJECT
  5
5D
102
{ACAD_REACTORS
330
47
102
}
330
47
100
AcDbProxyObject
 90
      499
 91
      503
 93
      249
310
90D332F333222203D2031272D30220000000000002E0FC000000000000284000
  0
ACAD_PROXY_OBJECT
  5
5E
102
{ACAD_REACTORS
330
47
102
}
330
47
100
AcDbProxyObject
 90
      499
 91
      503
 93
      241
310
90C312F3822203D2031272D3022000000000000300FC000000000000284000
  0
ACAD_PROXY_OBJECT
  5
5F
102
{ACAD_REACTORS
330
47
102
}
330
47
100
AcDbProxyObject
 90
      499
 91
      503
 93
      249
310
90D332F313622203D2031272D3022000000000000320FC000000000000284000
  0
ACAD_PROXY_OBJECT
  5
60
102
{ACAD_REACTORS
330
47
102
}
330
47
100
AcDbProxyObject
 90
      499
 91
      503
 93
      241
310
90C312F3422203D2031272D3022000000000000340FC000000000000284000
  0
ACAD_PROXY_OBJECT
  5
61
102
{ACAD_REACTORS
330
47
102
}
330
47
100
AcDbProxyObject
 90
      499
 91
      503
 93
      241
310
90C332F3822203D2031272D3022000000000000360FC000000000000284000
  0
ACAD_PROXY_OBJECT
  5
62
102
{ACAD_REACTORS
330
47
102
}
330
47
100
AcDbProxyObject
 90
      499
 91
      503
 93
      241
310
90C312F3222203D2031272D3022000000000000380FC000000000000284000
  0
ACAD_PROXY_OBJECT
  5
63
102
{ACAD_REACTORS
330
47
102
}
330
47
100
AcDbProxyObject
 90
      499
 91
      503
 93
      241
310
90C332F3422203D2031272D30220000000000003A0FC000000000000284000
  0
ACAD_PROXY_OBJECT
  5
64
102
{ACAD_REACTORS
330
47
102
}
330
47
100
AcDbProxyObject
 90
      499
 91
      503
 93
      161
310
90A3122203D2031272D30224000000000000284000
  0
ACAD_PROXY_OBJECT
  5
65
102
{ACAD_REACTORS
330
47
102
}
330
47
100
AcDbProxyObject
 90
      499
 91
      503
 93
      257
310
90E312D312F3222203D2031272D30220000000000003E0FC000000000000284000
  0
ACAD_PROXY_OBJECT
  5
66
102
{ACAD_REACTORS
330
47
102
}
330
47
100
AcDbProxyObject
 90
      499
 91
      503
 93
      225
310
90A3322203D2031272D302200000000000002100000000000000284000
  0
ACAD_PROXY_OBJECT
  5
67
102
{ACAD_REACTORS
330
47
102
}
330
47
100
AcDbProxyObject
 90
      499
 91
      503
 93
      225
310
90A3622203D2031272D302200000000000006100000000000000284000
  0
ACAD_PROXY_OBJECT
  5
68
102
{ACAD_REACTORS
330
47
102
}
330
47
100
AcDbProxyObject
 90
      499
 91
      503
 93
      249
310
90D31272D3022203D2031272D30220000000000000A100000000000000284000
  0
ACAD_PROXY_OBJECT
  5
2F
102
{ACAD_REACTORS
330
2A
102
}
330
2A
100
AcDbProxyObject
 90
      499
 91
      501
 93
      436
310
42CC9915DA5C99599C985B595049028333333333333E33F0000000000000F90107901411070040501600405405064090741402480A0340
1001
ACAD
1000
AcDbSavedByObjectVersion
1070
     0
  0
ACAD_PROXY_OBJECT
  5
32
102
{ACAD_REACTORS
330
2A
102
}
330
2A
100
AcDbProxyObject
 90
      499
 91
      501
 93
      388
310
4150985CDA58D07406404333333333333E33F0000000000000F90107A41107004050150841D405064090741402480A0350
1001
ACAD
1000
AcDbSavedByObjectVersion
1070
     0
  0
ACAD_PROXY_OBJECT
  5
36
102
{ACAD_REACTORS
330
2A
102
}
330
2A
100
AcDbProxyObject
 90
      499
 91
      501
 93
      428
310
42109C9A59DA1D195B90C409028333333333333E33F0000000000000F9010790141107004050150841D405064090741402480A029950
1001
ACAD
1000
AcDbSavedByObjectVersion
1070
     0
  0
ACAD_PROXY_OBJECT
  5
3A
102
{ACAD_REACTORS
330
2A
102
}
330
2A
100
AcDbProxyObject
 90
      499
 91
      501
 93
      452
310
42D0DBDB1BDC90DA185B99D95104090240C333333333333E33F0000000000000F90108901411070040501508421405064090741402480A0350
1001
ACAD
1000
AcDbSavedByObjectVersion
1070
     0
  0
ACAD_PROXY_OBJECT
  5
34
102
{ACAD_REACTORS
330
2A
102
}
330
2A
100
AcDbProxyObject
 90
      499
 91
      501
 93
      500
310
4290DBDB98D95C1D1D585B10940D028333333333333E33F0000000000000F90107902409070040501000000000018199010841D405064090740C02480A0340
1001
ACAD
1000
AcDbSavedByObjectVersion
1070
     0
  0
ACAD_PROXY_OBJECT
  5
35
102
{ACAD_REACTORS
330
2A
102
}
330
2A
100
AcDbProxyObject
 90
      499
 91
      501
 93
      412
310
40D11A5B50B409028333333333333E33F0000000000000F9010790141107004050150841D405064090741402480A02677FFFFFD0
1001
ACAD
1000
AcDbSavedByObjectVersion
1070
     0
  0
ACAD_PROXY_OBJECT
  5
3D
102
{ACAD_REACTORS
330
2A
102
}
330
2A
100
AcDbProxyObject
 90
      499
 91
      501
 93
      452
310
43115919D950DBDB1BDC93D999916409028333333333333E33F0000000000000F9010790141107004050150841D405064090741402480A0350
1001
ACAD
1000
AcDbSavedByObjectVersion
1070
     0
  0
ACAD_PROXY_OBJECT
  5
39
102
{ACAD_REACTORS
330
2A
102
}
330
2A
100
AcDbProxyObject
 90
      499
 91
      501
 93
      444
310
42D19858D95C185D1D195C9B90F409028333333333333E33F0000000000000F9010790141107004050150841D405064090741402480A0350
1001
ACAD
1000
AcDbSavedByObjectVersion
1070
     0
  0
ACAD_PROXY_OBJECT
  5
2B
102
{ACAD_REACTORS
330
2A
102
}
330
2A
100
AcDbProxyObject
 90
      499
 91
      501
 93
      380
310
41119B185D240901404333333333333E33F0000000000000F9010740A907004050150841D405064090741402480A1B50
1001
ACAD
1000
AcDbSavedByObjectVersion
1070
     0
  0
ACAD_PROXY_OBJECT
  5
2C
102
{ACAD_REACTORS
330
2A
102
}
330
2A
100
AcDbProxyObject
 90
      499
 91
      501
 93
      468
310
43519B185D15DA5D1A115919D95CD0140901404333333333333E33F0000000000000F90107409019070040501600405405064090741402480A1B50
1001
ACAD
1000
AcDbSavedByObjectVersion
1070
     0
  0
ACAD_PROXY_OBJECT
  5
2D
102
{ACAD_REACTORS
330
2A
102
}
330
2A
100
AcDbProxyObject
 90
      499
 91
      501
 93
      404
310
41D1DBDD5C985D5910240902404333333333333E33F0000000000000F9010740A9070040501641D405064090741402480A1B50
1001
ACAD
1000
AcDbSavedByObjectVersion
1070
     0
  0
ACAD_PROXY_OBJECT
  5
2E
102
{ACAD_REACTORS
330
2A
102
}
330
2A
100
AcDbProxyObject
 90
      499
 91
      501
 93
      492
310
4411DBDD5C985D5915DA5D1A115919D95CD0340902404333333333333E33F0000000000000F90107409019070040501600405405064090741402480A1B50
1001
ACAD
1000
AcDbSavedByObjectVersion
1070
     0
  0
ACAD_PROXY_OBJECT
  5
31
102
{ACAD_REACTORS
330
2A
102
}
330
2A
100
AcDbProxyObject
 90
      499
 91
      501
 93
      476
310
41921A5919195B90640502408333333333333E33F0000000000000F901079024090700405020000000000001110200405405064090740C02480A0340
1001
ACAD
1000
AcDbSavedByObjectVersion
1070
     0
  0
ACAD_PROXY_OBJECT
  5
3B
102
{ACAD_REACTORS
330
2A
102
}
330
2A
100
AcDbProxyObject
 90
      499
 91
      501
 93
      428
310
42529A5D1D195C93D999914409028333333333333E33F0000000000000F9010790141107004050150A41D405064090741402480A0350
1001
ACAD
1000
AcDbSavedByObjectVersion
1070
     0
  0
ACAD_PROXY_OBJECT
  5
38
102
{ACAD_REACTORS
330
2A
102
}
330
2A
100
AcDbProxyObject
 90
      499
 91
      501
 93
      444
310
42D31A5B995C185D1D195C9B90E409028333333333333E33F0000000000000F9010790141107004050750841D405064090741402483A0350
1001
ACAD
1000
AcDbSavedByObjectVersion
1070
     0
  0
ACAD_PROXY_OBJECT
  5
3C
102
{ACAD_REACTORS
330
2A
102
}
330
2A
100
AcDbProxyObject
 90
      499
 91
      501
 93
      444
310
42D3DD995C9A185B99D3D999915409028333333333333E33F0000000000000F9010790141107004050150941D405064090741402480A0350
1001
ACAD
1000
AcDbSavedByObjectVersion
1070
     0
  0
ACAD_PROXY_OBJECT
  5
33
102
{ACAD_REACTORS
330
2A
102
}
330
2A
100
AcDbProxyObject
 90
      499
 91
      501
 93
      428
310
425499585B1A5CDD1A58D08409038333333333333E33F0000000000000F9010740A907004050150800405405064090740C02480A1B40
1001
ACAD
1000
AcDbSavedByObjectVersion
1070
     0
  0
ACAD_PROXY_OBJECT
  5
42
102
{ACAD_REACTORS
330
2A
102
}
330
2A
100
AcDbProxyObject
 90
      499
 91
      501
 93
      420
310
4194DA1859195911B40902404333333333333E33F0000000000000F9010740A41107004050150800405405064090840C02480A0B40
1001
ACAD
1000
AcDbSavedByObjectVersion
1070
     0
  0
ACAD_PROXY_OBJECT
  5
41
102
{ACAD_REACTORS
330
2A
102
}
330
2A
100
AcDbProxyObject
 90
      499
 91
      501
 93
      516
310
4454DA18591959081DDA5D1A08195919D95CD1A40902404333333333333E33F0000000000000F901074090142907004050250800405405064090740C02480A0B40
1001
ACAD
1000
AcDbSavedByObjectVersion
1070
     0
  0
ACAD_PROXY_OBJECT
  5
3E
102
{ACAD_REACTORS
330
2A
102
}
330
2A
100
AcDbProxyObject
 90
      499
 91
      501
 93
      532
310
4394DA1859195CC81BD98811DC985E5174090240C333333333333E33F0000000000000F901079024090741D01000000000000111010841D405064090740C02480A0340
1001
ACAD
1000
AcDbSavedByObjectVersion
1070
     0
  0
ACAD_PROXY_OBJECT
  5
3F
102
{ACAD_REACTORS
330
2A
102
}
330
2A
100
AcDbProxyObject
 90
      499
 91
      501
 93
      476
310
41D4DAD95D18DA1E51840502408333333333333E33F0000000000000F901079024090741D01000000000000111010B41D405064090741802480A0340
1001
ACAD
1000
AcDbSavedByObjectVersion
1070
     0
  0
ACAD_PROXY_OBJECT
  5
37
102
{ACAD_REACTORS
330
2A
102
}
330
2A
100
AcDbProxyObject
 90
      499
 91
      501
 93
      412
310
41D51A1A58DAD95B90D409028333333333333E33F0000000000000F9010790141107004050150C41D405064090741402480A0350
1001
ACAD
1000
AcDbSavedByObjectVersion
1070
     0
  0
ACAD_PROXY_OBJECT
  5
30
102
{ACAD_REACTORS
330
2A
102
}
330
2A
100
AcDbProxyObject
 90
      499
 91
      501
 93
      420
310
4255DA5C99599C985B595059028333333333333E33F0000000000000F90107901411070040501600405405064090740C02480A0340
1001
ACAD
1000
AcDbSavedByObjectVersion
1070
     0
  0
ACAD_PROXY_OBJECT
  5
40
102
{ACAD_REACTORS
330
2A
102
}
330
2A
100
AcDbProxyObject
 90
      499
 91
      501
 93
      404
310
41560B54985E51940902404000000000000E03F0000000000000F9010740501907004050150841D405064090740C02480A1B40
1001
ACAD
1000
AcDbSavedByObjectVersion
1070
     0
  0
XRECORD
  5
2AC
102
{ACAD_REACTORS
330
2A2
102
}
330
2A2
100
AcDbXrecord
340
0
  0
XRECORD
  5
2AB
102
{ACAD_REACTORS
330
2A2
102
}
330
2A2
100
AcDbXrecord
 90
        0
  0
XRECORD
  5
2C2
102
{ACAD_REACTORS
330
2A2
102
}
330
2A2
100
AcDbXrecord
1000
DSTYLE
1002
{
1070
   179
 70
     2
1070
   143
 40
0.03937
1070
    79
 70
     2
1070
   343
340
72
1070
   344
340
78
1070
    46
 40
4.0
1070
    43
 40
6.0
1070
   278
 70
    46
1070
    44
 40
1.0
1070
    42
 40
1.0
1070
   147
 40
1.0
1070
   341
340
72
1070
   173
 70
     1
1070
   283
 70
     1
1070
   340
340
D9
1070
   140
 40
3.0
1002
}
  0
XRECORD
  5
2AD
102
{ACAD_REACTORS
330
2A2
102
}
330
2A2
100
AcDbXrecord
  1
{8F488DCE-DC91-4551-A4CF-B4911146EEBA}
  0
XRECORD
  5
2A5
102
{ACAD_REACTORS
330
2A2
102
}
330
2A2
100
AcDbXrecord
  1

  0
XRECORD
  5
2AA
102
{ACAD_REACTORS
330
2A2
102
}
330
2A2
100
AcDbXrecord
 90
        4
  0
XRECORD
  5
2A7
102
{ACAD_REACTORS
330
2A2
102
}
330
2A2
100
AcDbXrecord
340
1A
  0
XRECORD
  5
2A9
102
{ACAD_REACTORS
330
2A2
102
}
330
2A2
100
AcDbXrecord
 90
    10781
  0
XRECORD
  5
2A8
102
{ACAD_REACTORS
330
2A2
102
}
330
2A2
100
AcDbXrecord
340
19
  0
XRECORD
  5
2AF
102
{ACAD_REACTORS
330
2A2
102
}
330
2A2
100
AcDbXrecord
 40
0.0
  0
XRECORD
  5
2B2
102
{ACAD_REACTORS
330
2A2
102
}
330
2A2
100
AcDbXrecord
340
0
  0
XRECORD
  5
2B8
102
{ACAD_REACTORS
330
2A2
102
}
330
2A2
100
AcDbXrecord
 10
0.0
 20
0.0
 30
0.0
  0
XRECORD
  5
2B4
102
{ACAD_REACTORS
330
2A2
102
}
330
2A2
100
AcDbXrecord
 10
0.0
 20
0.0
 30
0.0
  0
XRECORD
  5
2B7
102
{ACAD_REACTORS
330
2A2
102
}
330
2A2
100
AcDbXrecord
 10
0.0
 20
0.0
 30
0.0
  0
XRECORD
  5
2B5
102
{ACAD_REACTORS
330
2A2
102
}
330
2A2
100
AcDbXrecord
 10
0.0
 20
0.0
 30
0.0
  0
XRECORD
  5
2B6
102
{ACAD_REACTORS
330
2A2
102
}
330
2A2
100
AcDbXrecord
 10
0.0
 20
0.0
 30
0.0
  0
XRECORD
  5
2B3
102
{ACAD_REACTORS
330
2A2
102
}
330
2A2
100
AcDbXrecord
 10
0.0
 20
0.0
 30
0.0
  0
XRECORD
  5
2B0
102
{ACAD_REACTORS
330
2A2
102
}
330
2A2
100
AcDbXrecord
340
0
  0
XRECORD
  5
2B1
102
{ACAD_REACTORS
330
2A2
102
}
330
2A2
100
AcDbXrecord
 70
     0
  0
XRECORD
  5
2A6
102
{ACAD_REACTORS
330
2A2
102
}
330
2A2
100
AcDbXrecord
  1

  0
XRECORD
  5
2A3
102
{ACAD_REACTORS
330
2A2
102
}
330
2A2
100
AcDbXrecord
 90
        1
  0
XRECORD
  5
2A4
102
{ACAD_REACTORS
330
2A2
102
}
330
2A2
100
AcDbXrecord
 90
       70
  0
XRECORD
  5
2BB
102
{ACAD_REACTORS
330
2A2
102
}
330
2A2
100
AcDbXrecord
340
0
  0
XRECORD
  5
2C1
102
{ACAD_REACTORS
330
2A2
102
}
330
2A2
100
AcDbXrecord
 10
0.0
 20
0.0
 30
0.0
  0
XRECORD
  5
2BD
102
{ACAD_REACTORS
330
2A2
102
}
330
2A2
100
AcDbXrecord
 10
0.0
 20
0.0
 30
0.0
  0
XRECORD
  5
2C0
102
{ACAD_REACTORS
330
2A2
102
}
330
2A2
100
AcDbXrecord
 10
0.0
 20
0.0
 30
0.0
  0
XRECORD
  5
2BE
102
{ACAD_REACTORS
330
2A2
102
}
330
2A2
100
AcDbXrecord
 10
0.0
 20
0.0
 30
0.0
  0
XRECORD
  5
2BF
102
{ACAD_REACTORS
330
2A2
102
}
330
2A2
100
AcDbXrecord
 10
0.0
 20
0.0
 30
0.0
  0
XRECORD
  5
2BC
102
{ACAD_REACTORS
330
2A2
102
}
330
2A2
100
AcDbXrecord
 10
0.0
 20
0.0
 30
0.0
  0
XRECORD
  5
2B9
102
{ACAD_REACTORS
330
2A2
102
}
330
2A2
100
AcDbXrecord
340
0
  0
XRECORD
  5
2BA
102
{ACAD_REACTORS
330
2A2
102
}
330
2A2
100
AcDbXrecord
 70
     0
  0
XRECORD
  5
2AE
102
{ACAD_REACTORS
330
2A2
102
}
330
2A2
100
AcDbXrecord
  1
{FAEB1C32-E019-11D5-929B-00C0DF256EC4}
  0
DICTIONARYVAR
  5
2CE
102
{ACAD_REACTORS
330
2C3
102
}
330
2C3
100
DictionaryVariables
280
     0
  1
1:1
  0
DICTIONARYVAR
  5
2C5
102
{ACAD_REACTORS
330
2C3
102
}
330
2C3
100
DictionaryVariables
280
     0
  1
Standard
  0
DICTIONARYVAR
  5
2C4
102
{ACAD_REACTORS
330
2C3
102
}
330
2C3
100
DictionaryVariables
280
     0
  1
Standard
  0
DICTIONARYVAR
  5
2CA
102
{ACAD_REACTORS
330
2C3
102
}
330
2C3
100
DictionaryVariables
280
     0
  1
2
  0
DICTIONARYVAR
  5
2CB
102
{ACAD_REACTORS
330
2C3
102
}
330
2C3
100
DictionaryVariables
280
     0
  1
1
  0
DICTIONARYVAR
  5
2CF
102
{ACAD_REACTORS
330
2C3
102
}
330
2C3
100
DictionaryVariables
280
     0
  1
1
  0
DICTIONARYVAR
  5
2C7
102
{ACAD_REACTORS
330
2C3
102
}
330
2C3
100
DictionaryVariables
280
     0
  1
80.000000
  0
DICTIONARYVAR
  5
2C6
102
{ACAD_REACTORS
330
2C3
102
}
330
2C3
100
DictionaryVariables
280
     0
  1
5.000000
  0
DICTIONARY
  5
2D2
330
45
100
AcDbDictionary
280
     1
  3
ACAD_XREC_ROUNDTRIP
360
2D3
  0
DICTIONARY
  5
2D0
330
44
100
AcDbDictionary
280
     1
  3
ACAD_XREC_ROUNDTRIP
360
2D1
  0
DICTIONARY
  5
2D4
330
46
100
AcDbDictionary
280
     1
  3
ACAD_XREC_ROUNDTRIP
360
2D5
  0
XRECORD
  5
2D3
102
{ACAD_REACTORS
330
2D2
102
}
330
2D2
100
AcDbXrecord
102
MATERIAL
148
0.0
149
0.0
149
0.0
 93
        0
 94
      127
282
     0
 72
     1
 77
     1
171
     1
175
     1
179
     1
273
     0
  0
XRECORD
  5
2D1
102
{ACAD_REACTORS
330
2D0
102
}
330
2D0
100
AcDbXrecord
102
MATERIAL
148
0.0
149
0.0
149
0.0
 93
        0
 94
      127
282
     0
 72
     1
 77
     1
171
     1
175
     1
179
     1
273
     0
  0
XRECORD
  5
2D5
102
{ACAD_REACTORS
330
2D4
102
}
330
2D4
100
AcDbXrecord
102
MATERIAL
148
0.0
149
0.0
149
0.0
 93
        0
 94
      127
282
     0
 72
     1
 77
     1
171
     1
175
     1
179
     1
273
     0
  0
ENDSEC
  0
EOF
