  0
SECTION
  2
HEADER
  9
$ACADVER
  1
AC1014
  9
$ACADMAINTVER
 70
     0
  9
$DWGCODEPAGE
  3
DOS932
  9
$INSBASE
 10
0.0
 20
0.0
 30
0.0
  9
$EXTMIN
 10
0.0
 20
0.0
 30
0.0
  9
$EXTMAX
 10
297.0
 20
210.0
 30
0.0
  9
$LIMMIN
 10
0.0
 20
0.0
  9
$LIMMAX
 10
12.0
 20
9.0
  9
$ORTHOMODE
 70
     0
  9
$REGENMODE
 70
     1
  9
$FILLMODE
 70
     0
  9
$QTEXTMODE
 70
     0
  9
$MIRRTEXT
 70
     1
  9
$DRAGMODE
 70
     2
  9
$LTSCALE
 40
2.97
  9
$OSMODE
 70
    37
  9
$ATTMODE
 70
     1
  9
$TEXTSIZE
 40
0.2
  9
$TRACEWID
 40
0.05
  9
$TEXTSTYLE
  7
STANDARD
  9
$CLAYER
  8
0
  9
$CELTYPE
  6
BYLAYER
  9
$CECOLOR
 62
   256
  9
$CELTSCALE
 40
1.0
  9
$DELOBJ
 70
     1
  9
$DISPSILH
 70
     0
  9
$DIMSCALE
 40
1.0
  9
$DIMASZ
 40
0.18
  9
$DIMEXO
 40
0.0625
  9
$DIMDLI
 40
0.38
  9
$DIMRND
 40
0.0
  9
$DIMDLE
 40
0.0
  9
$DIMEXE
 40
0.18
  9
$DIMTP
 40
0.0
  9
$DIMTM
 40
0.0
  9
$DIMTXT
 40
0.18
  9
$DIMCEN
 40
0.09
  9
$DIMTSZ
 40
0.0
  9
$DIMTOL
 70
     0
  9
$DIMLIM
 70
     0
  9
$DIMTIH
 70
     0
  9
$DIMTOH
 70
     0
  9
$DIMSE1
 70
     0
  9
$DIMSE2
 70
     0
  9
$DIMTAD
 70
     1
  9
$DIMZIN
 70
     0
  9
$DIMBLK
  1

  9
$DIMASO
 70
     1
  9
$DIMSHO
 70
     1
  9
$DIMPOST
  1

  9
$DIMAPOST
  1

  9
$DIMALT
 70
     0
  9
$DIMALTD
 70
     2
  9
$DIMALTF
 40
25.4
  9
$DIMLFAC
 40
1.0
  9
$DIMTOFL
 70
     0
  9
$DIMTVP
 40
0.0
  9
$DIMTIX
 70
     0
  9
$DIMSOXD
 70
     0
  9
$DIMSAH
 70
     0
  9
$DIMBLK1
  1

  9
$DIMBLK2
  1

  9
$DIMSTYLE
  2
STANDARD
  9
$DIMCLRD
 70
     0
  9
$DIMCLRE
 70
     0
  9
$DIMCLRT
 70
     0
  9
$DIMTFAC
 40
1.0
  9
$DIMGAP
 40
0.09
  9
$DIMJUST
 70
     0
  9
$DIMSD1
 70
     0
  9
$DIMSD2
 70
     0
  9
$DIMTOLJ
 70
     1
  9
$DIMTZIN
 70
     0
  9
$DIMALTZ
 70
     0
  9
$DIMALTTZ
 70
     0
  9
$DIMFIT
 70
     5
  9
$DIMUPT
 70
     0
  9
$DIMUNIT
 70
     2
  9
$DIMDEC
 70
     2
  9
$DIMTDEC
 70
     4
  9
$DIMALTU
 70
     2
  9
$DIMALTTD
 70
     2
  9
$DIMTXSTY
  7
STANDARD
  9
$DIMAUNIT
 70
     0
  9
$LUNITS
 70
     2
  9
$LUPREC
 70
     4
  9
$SKETCHINC
 40
0.1
  9
$FILLETRAD
 40
0.5
  9
$AUNITS
 70
     0
  9
$AUPREC
 70
     0
  9
$MENU
  1
.
  9
$ELEVATION
 40
0.0
  9
$PELEVATION
 40
0.0
  9
$THICKNESS
 40
0.0
  9
$LIMCHECK
 70
     0
  9
$BLIPMODE
 70
     0
  9
$CHAMFERA
 40
0.5
  9
$CHAMFERB
 40
0.5
  9
$CHAMFERC
 40
1.0
  9
$CHAMFERD
 40
0.0
  9
$SKPOLY
 70
     0
  9
$TDCREATE
 40
2450772.666465926
  9
$TDUPDATE
 40
2459513.578287037
  9
$TDINDWG
 40
0.0011564931
  9
$TDUSRTIMER
 40
0.0011564931
  9
$USRTIMER
 70
     1
  9
$ANGBASE
 50
0.0
  9
$ANGDIR
 70
     0
  9
$PDMODE
 70
     0
  9
$PDSIZE
 40
0.0
  9
$PLINEWID
 40
0.0
  9
$COORDS
 70
     1
  9
$SPLFRAME
 70
     0
  9
$SPLINETYPE
 70
     6
  9
$SPLINESEGS
 70
     8
  9
$ATTDIA
 70
     0
  9
$ATTREQ
 70
     1
  9
$HANDLING
 70
     1
  9
$HANDSEED
  5
7E9
  9
$SURFTAB1
 70
     6
  9
$SURFTAB2
 70
     6
  9
$SURFTYPE
 70
     6
  9
$SURFU
 70
     6
  9
$SURFV
 70
     6
  9
$UCSNAME
  2

  9
$UCSORG
 10
0.0
 20
0.0
 30
0.0
  9
$UCSXDIR
 10
1.0
 20
0.0
 30
0.0
  9
$UCSYDIR
 10
0.0
 20
1.0
 30
0.0
  9
$PUCSNAME
  2

  9
$PUCSORG
 10
0.0
 20
0.0
 30
0.0
  9
$PUCSXDIR
 10
1.0
 20
0.0
 30
0.0
  9
$PUCSYDIR
 10
0.0
 20
1.0
 30
0.0
  9
$USERI1
 70
     0
  9
$USERI2
 70
     0
  9
$USERI3
 70
     0
  9
$USERI4
 70
     0
  9
$USERI5
 70
     0
  9
$USERR1
 40
0.0
  9
$USERR2
 40
0.0
  9
$USERR3
 40
0.0
  9
$USERR4
 40
0.0
  9
$USERR5
 40
0.0
  9
$WORLDVIEW
 70
     1
  9
$SHADEDGE
 70
     3
  9
$SHADEDIF
 70
    70
  9
$TILEMODE
 70
     1
  9
$MAXACTVP
 70
    48
  9
$PINSBASE
 10
0.0
 20
0.0
 30
0.0
  9
$PLIMCHECK
 70
     0
  9
$PEXTMIN
 10
0.0
 20
0.0
 30
0.0
  9
$PEXTMAX
 10
0.0
 20
0.0
 30
0.0
  9
$PLIMMIN
 10
0.0
 20
0.0
  9
$PLIMMAX
 10
12.0
 20
9.0
  9
$UNITMODE
 70
     0
  9
$VISRETAIN
 70
     1
  9
$PLINEGEN
 70
     0
  9
$PSLTSCALE
 70
     1
  9
$TREEDEPTH
 70
  3020
  9
$PICKSTYLE
 70
     1
  9
$CMLSTYLE
  2
STANDARD
  9
$CMLJUST
 70
     0
  9
$CMLSCALE
 40
1.0
  9
$PROXYGRAPHICS
 70
     1
  9
$MEASUREMENT
 70
     0
  0
ENDSEC
  0
SECTION
  2
CLASSES
  0
CLASS
  1
LWPOLYLINE
  2
AcDbPolyline
  3
ObjectDBX Classes
 90
       20
280
     0
281
     1
  0
CLASS
  1
IMAGE
  2
AcDbRasterImage
  3
ISM
 90
       21
280
     0
281
     1
  0
CLASS
  1
OLE2FRAME
  2
AcDbOle2Frame
  3
ObjectDBX Classes
 90
       21
280
     0
281
     1
  0
CLASS
  1
HATCH
  2
AcDbHatch
  3
ObjectDBX Classes
 90
       20
280
     0
281
     1
  0
CLASS
  1
DICTIONARYVAR
  2
AcDbDictionaryVar
  3
ObjectDBX Classes
 90
       20
280
     0
281
     0
  0
CLASS
  1
RASTERVARIABLES
  2
AcDbRasterVariables
  3
ISM
 90
       21
280
     0
281
     0
  0
CLASS
  1
IMAGEDEF
  2
AcDbRasterImageDef
  3
ISM
 90
       21
280
     0
281
     0
  0
CLASS
  1
IMAGEDEF_REACTOR
  2
AcDbRasterImageDefReactor
  3
ISM
 90
       21
280
     0
281
     0
  0
CLASS
  1
IDBUFFER
  2
AcDbIdBuffer
  3
ObjectDBX Classes
 90
       20
280
     0
281
     0
  0
CLASS
  1
SPATIAL_FILTER
  2
AcDbSpatialFilter
  3
ObjectDBX Classes
 90
       20
280
     0
281
     0
  0
CLASS
  1
XRECORD
  2
AcDbXrecord
  3
ObjectDBX Classes
 90
       21
280
     0
281
     0
  0
CLASS
  1
ACDBDICTIONARYWDFLT
  2
AcDbDictionaryWithDefault
  3
ObjectDBX Classes
 90
       22
280
     0
281
     0
  0
CLASS
  1
SCALE
  2
AcDbScale
  3
ObjectDBX Classes
 90
       27
280
     0
281
     0
  0
CLASS
  1
VISUALSTYLE
  2
AcDbVisualStyle
  3
ObjectDBX Classes
 90
       26
280
     0
281
     0
  0
CLASS
  1
MATERIAL
  2
AcDbMaterial
  3
ObjectDBX Classes
 90
       23
280
     0
281
     0
  0
CLASS
  1
TABLESTYLE
  2
AcDbTableStyle
  3
ObjectDBX Classes
 90
       25
280
     0
281
     0
  0
CLASS
  1
MLEADERSTYLE
  2
AcDbMLeaderStyle
  3
ACDB_MLEADERSTYLE_CLASS
 90
       27
280
     0
281
     0
  0
CLASS
  1
SORTENTSTABLE
  2
AcDbSortentsTable
  3
"AutoCAD"
 90
        0
280
     0
281
     0
  0
CLASS
  1
LAYER_INDEX
  2
AcDbLayerIndex
  3
"Acad"
 90
        0
280
     0
281
     0
  0
CLASS
  1
SPATIAL_INDEX
  2
AcDbSpatialIndex
  3
"Acad"
 90
        0
280
     0
281
     0
  0
CLASS
  1
OBJECT_PTR
  2
CAseDLPNTableRecord
  3
"ASE-LPNTableRecord"
 90
        1
280
     0
281
     0
  0
CLASS
  1
LAYOUT
  2
AcDbLayout
  3
"AutoCAD 2000"
 90
        1
280
     0
281
     0
  0
CLASS
  1
PLOTSETTINGS
  2
AcDbPlotsettings
  3
"AutoCAD 2000"
 90
        1
280
     0
281
     0
  0
CLASS
  1
ACDBPLACEHOLDER
  2
AcDbPlaceholder
  3
"AutoCAD 2000"
 90
        1
280
     0
281
     0
  0
CLASS
  1
VBA_PROJECT
  2
AcDbVbaProject
  3
"AutoCAD 2000"
 90
        1
280
     0
281
     0
  0
CLASS
  1
WIPEOUT
  2
AcDbWipeout
  3
"AutoCAD 2000"
 90
        1
280
     0
281
     1
  0
CLASS
  1
WIPEOUTVARIABLES
  2
AcDbWipeoutVariables
  3
"AutoCAD 2000"
 90
        1
280
     0
281
     0
  0
CLASS
  1
RTEXT
  2
RText
  3
RText|AutoCAD Express Tool|expresstools@autodesk.com
 90
        1
280
     0
281
     1
  0
CLASS
  1
ARCALIGNEDTEXT
  2
AcDbArcAlignedText
  3
RText|AutoCAD Express Tool|expresstools@autodesk.com
 90
        1
280
     0
281
     1
  0
ENDSEC
  0
SECTION
  2
TABLES
  0
TABLE
  2
VPORT
  5
8
100
AcDbSymbolTable
 70
     1
  0
VPORT
  5
25
100
AcDbSymbolTableRecord
100
AcDbViewportTableRecord
  2
*ACTIVE
 70
     0
 10
0.0
 20
0.0
 11
1.0
 21
1.0
 12
148.5
 22
105.0
 13
0.0
 23
0.0
 14
0.5
 24
0.5
 15
0.5
 25
0.5
 16
0.0
 26
0.0
 36
1.0
 17
0.0
 27
0.0
 37
0.0
 40
210.0
 41
1.414286
 42
50.0
 43
0.0
 44
0.0
 50
0.0
 51
0.0
 71
     0
 72
   100
 73
     1
 74
     1
 75
     0
 76
     0
 77
     0
 78
     0
  0
ENDTAB
  0
TABLE
  2
LTYPE
  5
5
100
AcDbSymbolTable
 70
     4
  0
LTYPE
  5
12
100
AcDbSymbolTableRecord
100
AcDbLinetypeTableRecord
  2
BYBLOCK
 70
     0
  3

 72
    65
 73
     0
 40
0.0
  0
LTYPE
  5
13
100
AcDbSymbolTableRecord
100
AcDbLinetypeTableRecord
  2
BYLAYER
 70
     0
  3

 72
    65
 73
     0
 40
0.0
  0
LTYPE
  5
14
100
AcDbSymbolTableRecord
100
AcDbLinetypeTableRecord
  2
CONTINUOUS
 70
     0
  3
Solid line
 72
    65
 73
     0
 40
0.0
  0
LTYPE
  5
142
100
AcDbSymbolTableRecord
100
AcDbLinetypeTableRecord
  2
DASHDOT
 70
     0
  3
DASHDOT
 72
    65
 73
     4
 40
1.0
 49
0.5
 74
     0
 49
-0.25
 74
     0
 49
0.0
 74
     0
 49
-0.25
 74
     0
  0
ENDTAB
  0
TABLE
  2
LAYER
  5
2
100
AcDbSymbolTable
 70
     6
  0
LAYER
  5
E
100
AcDbSymbolTableRecord
100
AcDbLayerTableRecord
  2
0
 70
     0
 62
     7
  6
CONTINUOUS
  0
LAYER
  5
75
100
AcDbSymbolTableRecord
100
AcDbLayerTableRecord
  2
GR2_01
 70
     0
 62
     7
  6
CONTINUOUS
  0
LAYER
  5
7B
100
AcDbSymbolTableRecord
100
AcDbLayerTableRecord
  2
GR1_01
 70
     0
 62
     7
  6
CONTINUOUS
  0
LAYER
  5
214
100
AcDbSymbolTableRecord
100
AcDbLayerTableRecord
  2
\U+5E73\U+9762\U+56F3_\U+4F5C\U+56F3
 70
     0
 62
     7
  6
CONTINUOUS
  0
LAYER
  5
409
100
AcDbSymbolTableRecord
100
AcDbLayerTableRecord
  2
GR2-1
 70
     0
 62
     7
  6
CONTINUOUS
  0
LAYER
  5
559
100
AcDbSymbolTableRecord
100
AcDbLayerTableRecord
  2
\U+53F3\U+5074\U+9762\U+56F3_\U+4F5C\U+56F3
 70
     0
 62
     7
  6
CONTINUOUS
  0
ENDTAB
  0
TABLE
  2
STYLE
  5
3
100
AcDbSymbolTable
 70
     2
  0
STYLE
  5
F
100
AcDbSymbolTableRecord
100
AcDbTextStyleTableRecord
  2
STANDARD
 70
     0
 40
0.0
 41
1.0
 50
0.0
 71
     0
 42
0.2
  3
txt.shx
  4

  0
STYLE
  5
74
100
AcDbSymbolTableRecord
100
AcDbTextStyleTableRecord
  2
HORIZONTALBIGFONT
 70
     0
 40
0.0
 41
1.0
 50
0.0
 71
     0
 42
0.2
  3
txt.shx
  4
bigfont.shx
  0
ENDTAB
  0
TABLE
  2
VIEW
  5
6
100
AcDbSymbolTable
 70
     0
  0
ENDTAB
  0
TABLE
  2
UCS
  5
7
100
AcDbSymbolTable
 70
     0
  0
ENDTAB
  0
TABLE
  2
APPID
  5
9
100
AcDbSymbolTable
 70
     1
  0
APPID
  5
10
100
AcDbSymbolTableRecord
100
AcDbRegAppTableRecord
  2
ACAD
 70
     0
  0
ENDTAB
  0
TABLE
  2
DIMSTYLE
  5
A
100
AcDbSymbolTable
 70
     1
  0
DIMSTYLE
105
1D
100
AcDbSymbolTableRecord
100
AcDbDimStyleTableRecord
  2
STANDARD
 70
     0
  3

  4

  5

  6

  7

 40
1.0
 41
0.18
 42
0.0625
 43
0.38
 44
0.18
 45
0.0
 46
0.0
 47
0.0
 48
0.0
 71
     0
 72
     0
 73
     1
 74
     1
 75
     0
 76
     0
 77
     0
 78
     0
140
0.18
141
0.09
142
0.0
143
25.4
144
1.0
145
0.0
146
1.0
147
0.09
170
     0
171
     2
172
     0
173
     0
174
     0
175
     0
176
     0
177
     0
178
     0
270
     2
271
     4
272
     4
273
     2
274
     2
275
     0
280
     0
281
     0
282
     0
283
     1
284
     0
285
     0
286
     0
287
     3
288
     0
340
F
  0
ENDTAB
  0
TABLE
  2
BLOCK_RECORD
  5
1
100
AcDbSymbolTable
 70
     0
  0
BLOCK_RECORD
  5
18
100
AcDbSymbolTableRecord
100
AcDbBlockTableRecord
  2
*MODEL_SPACE
  0
BLOCK_RECORD
  5
15
100
AcDbSymbolTableRecord
100
AcDbBlockTableRecord
  2
*PAPER_SPACE
  0
ENDTAB
  0
ENDSEC
  0
SECTION
  2
BLOCKS
  0
BLOCK
  5
19
100
AcDbEntity
  8
0
100
AcDbBlockBegin
  2
*MODEL_SPACE
 70
     0
 10
0.0
 20
0.0
 30
0.0
  3
*MODEL_SPACE
  1

  0
ENDBLK
  5
1A
100
AcDbEntity
  8
0
100
AcDbBlockEnd
  0
BLOCK
  5
16
100
AcDbEntity
 67
     1
  8
0
100
AcDbBlockBegin
  2
*PAPER_SPACE
 70
     0
 10
0.0
 20
0.0
 30
0.0
  3
*PAPER_SPACE
  1

  0
ENDBLK
  5
17
100
AcDbEntity
 67
     1
  8
0
100
AcDbBlockEnd
  0
ENDSEC
  0
SECTION
  2
ENTITIES
  0
MTEXT
  5
76
100
AcDbEntity
  8
GR2_01
100
AcDbMText
 10
234.335144
 20
65.945544
 30
0.0
 40
1.818983
 41
18.826211
 71
     8
 72
     5
  1
\C94;\fＭＳ Ｐゴシック|b0|i0|;\H1.8189826607704;\M+18251\M+18254\fＭＳ ゴシック|b0|i0|;.\fＭＳ Ｐゴシック|b0|i0|;\M+18257
  7
HORIZONTALBIGFONT
  0
LINE
  5
77
100
AcDbEntity
  8
GR2_01
  6
CONTINUOUS
 62
     7
100
AcDbLine
 10
221.440527
 20
65.844091
 30
0.0
 11
247.229762
 21
65.844091
 31
0.0
  0
LINE
  5
78
100
AcDbEntity
  8
GR2_01
  6
CONTINUOUS
 62
     7
100
AcDbLine
 10
221.440527
 20
106.511373
 30
0.0
 11
221.440527
 21
64.131692
 31
0.0
  0
LINE
  5
79
100
AcDbEntity
  8
GR2_01
  6
CONTINUOUS
 62
     7
100
AcDbLine
 10
247.229762
 20
87.486394
 30
0.0
 11
247.229762
 21
55.052744
 31
0.0
  0
LINE
  5
7A
100
AcDbEntity
  8
GR2_01
  6
CONTINUOUS
 62
     7
100
AcDbLine
 10
182.840527
 20
122.407285
 30
0.0
 11
182.840527
 21
55.052744
 31
0.0
  0
MTEXT
  5
7C
100
AcDbEntity
  8
GR1_01
100
AcDbMText
 10
75.560571
 20
75.411274
 30
0.0
 40
1.818983
 41
15.551546
 71
     8
 72
     5
  1
\C94;\fMS ????|b0|i0|;\H1.8189826607704;\U+FF11\U+FF13\U+FF12
 11
1.0
 21
0.0
 31
0.0
  0
LINE
  5
7D
100
AcDbEntity
  8
GR1_01
  6
CONTINUOUS
 62
     7
100
AcDbLine
 10
9.560571
 20
75.044095
 30
0.0
 11
141.560571
 21
75.044095
 31
0.0
  0
LINE
  5
7E
100
AcDbEntity
  8
GR1_01
  6
CONTINUOUS
 62
     7
100
AcDbLine
 10
9.560571
 20
89.007285
 30
0.0
 11
9.560571
 21
72.763267
 31
0.0
  0
LINE
  5
7F
100
AcDbEntity
  8
GR1_01
  6
CONTINUOUS
 62
     7
100
AcDbLine
 10
141.560571
 20
89.007285
 30
0.0
 11
141.560571
 21
72.763267
 31
0.0
  0
MTEXT
  5
80
100
AcDbEntity
  8
GR1_01
100
AcDbMText
 10
167.62603
 20
126.107285
 30
0.0
 40
1.818983
 41
22.284768
 71
     8
 72
     5
  1
\C94;\fMS ????|b0|i0|;\H1.8189826607704;\U+FF17\U+FF14.\U+FF12
  7
HORIZONTALBIGFONT
 11
0.0
 21
1.0
 31
0.0
  0
LINE
  5
81
100
AcDbEntity
  8
GR1_01
  6
CONTINUOUS
 62
     7
100
AcDbLine
 10
168.285367
 20
89.007285
 30
0.0
 11
168.285367
 21
163.207285
 31
0.0
  0
LINE
  5
82
100
AcDbEntity
  8
GR1_01
  6
CONTINUOUS
 62
     7
100
AcDbLine
 10
141.560571
 20
89.007285
 30
0.0
 11
170.240524
 21
89.007285
 31
0.0
  0
LINE
  5
83
100
AcDbEntity
  8
GR1_01
  6
CONTINUOUS
 62
     7
100
AcDbLine
 10
141.560571
 20
163.207285
 30
0.0
 11
170.240524
 21
163.207285
 31
0.0
  0
MTEXT
  5
84
100
AcDbEntity
  8
GR1_01
100
AcDbMText
 10
168.281187
 20
78.10607
 30
0.0
 40
1.818983
 41
3.314394
 71
     8
 72
     5
  1
\C94;\fMS ????|b0|i0|;\H1.8189826607704;\U+FF15
 11
0.0
 21
1.0
 31
0.0
  0
LINE
  5
85
100
AcDbEntity
  8
GR1_01
  6
CONTINUOUS
 62
     7
100
AcDbLine
 10
168.285367
 20
75.131688
 30
0.0
 11
168.285367
 21
89.007285
 31
0.0
  0
LINE
  5
86
100
AcDbEntity
  8
GR1_01
  6
CONTINUOUS
 62
     7
100
AcDbLine
 10
77.225048
 20
84.007285
 30
0.0
 11
170.240524
 21
84.007285
 31
0.0
  0
MTEXT
  5
87
100
AcDbEntity
  8
GR1_01
100
AcDbMText
 10
158.803028
 20
126.107285
 30
0.0
 40
1.818983
 41
19.784768
 71
     8
 72
     5
  1
\C94;\fMS ????|b0|i0|;\H1.8189826607704;\U+FF16\U+FF15.\U+FF12
  7
HORIZONTALBIGFONT
 11
0.0
 21
1.0
 31
0.0
  0
LINE
  5
88
100
AcDbEntity
  8
GR1_01
  6
CONTINUOUS
 62
     7
100
AcDbLine
 10
159.193479
 20
93.507285
 30
0.0
 11
159.193479
 21
158.707285
 31
0.0
  0
LINE
  5
89
100
AcDbEntity
  8
GR1_01
  6
CONTINUOUS
 62
     7
100
AcDbLine
 10
20.060571
 20
93.507285
 30
0.0
 11
160.707192
 21
93.507285
 31
0.0
  0
LINE
  5
8A
100
AcDbEntity
  8
GR1_01
  6
CONTINUOUS
 62
     7
100
AcDbLine
 10
143.003762
 20
158.707285
 30
0.0
 11
160.633384
 21
158.707285
 31
0.0
  0
MTEXT
  5
8B
100
AcDbEntity
  8
GR1_01
100
AcDbMText
 10
262.832382
 20
79.905477
 30
0.0
 40
1.818983
 41
13.715585
 71
     8
 72
     5
  1
\C94;\fMS ????|b0|i0|;\H1.8189826607704;\U+FF18.\U+FF15
  7
HORIZONTALBIGFONT
 11
0.0
 21
1.0
 31
0.0
  0
LINE
  5
8C
100
AcDbEntity
  8
GR1_01
  6
CONTINUOUS
 62
     7
100
AcDbLine
 10
263.040527
 20
89.007285
 30
0.0
 11
263.040527
 21
97.507285
 31
0.0
  0
LINE
  5
8D
100
AcDbEntity
  8
GR1_01
  6
CONTINUOUS
 62
     7
100
AcDbLine
 10
248.229762
 20
89.007285
 30
0.0
 11
264.040527
 21
89.007285
 31
0.0
  0
LINE
  5
8E
100
AcDbEntity
  8
GR1_01
  6
CONTINUOUS
 62
     7
100
AcDbLine
 10
248.229762
 20
97.507285
 30
0.0
 11
264.040527
 21
97.507285
 31
0.0
  0
LINE
  5
8F
100
AcDbEntity
  8
GR1_01
  6
CONTINUOUS
 62
     7
100
AcDbLine
 10
263.040527
 20
73.638269
 30
0.0
 11
263.040527
 21
89.007285
 31
0.0
  0
MTEXT
  5
90
100
AcDbEntity
  8
GR1_01
100
AcDbMText
 10
262.832382
 20
115.257285
 30
0.0
 40
1.818983
 41
17.122804
 71
     8
 72
     5
  1
\C94;\fMS ????|b0|i0|;\H1.8189826607704;\U+FF13\U+FF15.\U+FF15
  7
HORIZONTALBIGFONT
 11
0.0
 21
1.0
 31
0.0
  0
LINE
  5
91
100
AcDbEntity
  8
GR1_01
  6
CONTINUOUS
 62
     7
100
AcDbLine
 10
263.040527
 20
97.507285
 30
0.0
 11
263.040527
 21
133.007285
 31
0.0
  0
LINE
  5
92
100
AcDbEntity
  8
GR1_01
  6
CONTINUOUS
 62
     7
100
AcDbLine
 10
248.229762
 20
133.007285
 30
0.0
 11
264.040527
 21
133.007285
 31
0.0
  0
MTEXT
  5
93
100
AcDbEntity
  8
GR1_01
100
AcDbMText
 10
262.832382
 20
148.107285
 30
0.0
 40
1.818983
 41
25.866238
 71
     8
 72
     5
  1
\C94;\fＭＳ ゴシック|b0|i0|;\H1.8189826607704;(\U+FF13\U+FF10.\U+FF12)
  7
HORIZONTALBIGFONT
 11
0.0
 21
1.0
 31
0.0
  0
LINE
  5
94
100
AcDbEntity
  8
GR1_01
  6
CONTINUOUS
 62
     7
100
AcDbLine
 10
263.040527
 20
133.007285
 30
0.0
 11
263.040527
 21
163.207285
 31
0.0
  0
LINE
  5
95
100
AcDbEntity
  8
GR1_01
  6
CONTINUOUS
 62
     7
100
AcDbLine
 10
248.229762
 20
163.207285
 30
0.0
 11
264.040527
 21
163.207285
 31
0.0
  0
MTEXT
  5
96
100
AcDbEntity
  8
GR1_01
100
AcDbMText
 10
240.729762
 20
169.472641
 30
0.0
 40
1.818983
 41
8.564385
 71
     8
 72
     5
  1
\C94;\fMS ????|b0|i0|;\H1.8189826607704;\U+FF11\U+FF13
 11
1.0
 21
0.0
 31
0.0
  0
LINE
  5
97
100
AcDbEntity
  8
GR1_01
  6
CONTINUOUS
 62
     7
100
AcDbLine
 10
234.229762
 20
169.763265
 30
0.0
 11
247.229762
 21
169.763265
 31
0.0
  0
LINE
  5
98
100
AcDbEntity
  8
GR1_01
  6
CONTINUOUS
 62
     7
100
AcDbLine
 10
234.229762
 20
164.207285
 30
0.0
 11
234.229762
 21
171.006375
 31
0.0
  0
LINE
  5
99
100
AcDbEntity
  8
GR1_01
  6
CONTINUOUS
 62
     7
100
AcDbLine
 10
247.229762
 20
164.207285
 30
0.0
 11
247.229762
 21
171.006375
 31
0.0
  0
MTEXT
  5
9A
100
AcDbEntity
  8
GR2_01
100
AcDbMText
 10
167.804923
 20
169.472641
 30
0.0
 40
1.818983
 41
39.128789
 71
     8
 72
     5
  3
\C94;\fＭＳ Ｐゴシック|b0|i0|;\H1.8189826607704;\M+18251\fＭＳ ゴシック|b0|i0|;-\fＭＳ Ｐゴシック|b0|i0|;\M+183D3\M+18253\fＭＳ ゴシック|b0|i0|;.\fＭＳ Ｐゴシック|b0|i0|;\M+18254\fＭＳ ゴシック|b0|i0|;\M+1817E\fＭＳ Ｐゴシック|b0|i0|;\M+18254\fＭＳ �
  1
Sシック|b0|i0|;.\fＭＳ Ｐゴシック|b0|i0|;\M+18250\M+192B7\M+18C8A
  7
HORIZONTALBIGFONT
  0
LINE
  5
9B
100
AcDbEntity
  8
GR2_01
  6
CONTINUOUS
 62
     7
100
AcDbLine
 10
148.594204
 20
169.257299
 30
0.0
 11
187.368643
 21
169.257299
 31
0.0
  0
MTEXT
  5
9C
100
AcDbEntity
  8
GR2_01
100
AcDbMText
 10
149.781208
 20
148.813268
 30
0.0
 40
1.818983
 41
10.900005
 71
     8
 72
     5
  1
\C94;\fMS ????|b0|i0|;\H1.8189826607704;\U+FF14.\U+FF12
  7
HORIZONTALBIGFONT
 11
0.0
 21
1.0
 31
0.0
  0
LINE
  5
9D
100
AcDbEntity
  8
GR2_01
  6
CONTINUOUS
 62
     7
100
AcDbLine
 10
150.093479
 20
156.607285
 30
0.0
 11
150.093479
 21
160.807285
 31
0.0
  0
LINE
  5
9E
100
AcDbEntity
  8
GR2_01
  6
CONTINUOUS
 62
     7
100
AcDbLine
 10
138.868346
 20
156.607285
 30
0.0
 11
151.240529
 21
156.607285
 31
0.0
  0
LINE
  5
9F
100
AcDbEntity
  8
GR2_01
  6
CONTINUOUS
 62
     7
100
AcDbLine
 10
138.868346
 20
160.807285
 30
0.0
 11
151.240529
 21
160.807285
 31
0.0
  0
LINE
  5
A0
100
AcDbEntity
  8
GR2_01
  6
CONTINUOUS
 62
     7
100
AcDbLine
 10
150.093479
 20
160.807285
 30
0.0
 11
150.093479
 21
164.807285
 31
0.0
  0
LINE
  5
A1
100
AcDbEntity
  8
GR2_01
  6
CONTINUOUS
 62
     7
100
AcDbLine
 10
150.093479
 20
143.447476
 30
0.0
 11
150.093479
 21
156.607285
 31
0.0
  0
MTEXT
  5
A2
100
AcDbEntity
  8
GR1_01
100
AcDbMText
 10
238.379762
 20
74.945544
 30
0.0
 40
1.818983
 41
18.826211
 71
     8
 72
     5
  1
\C94;\fMS ????|b0|i0|;\H1.8189826607704;\U+FF11\U+FF17.\U+FF17
  7
HORIZONTALBIGFONT
 11
1.0
 21
0.0
 31
0.0
  0
LINE
  5
A3
100
AcDbEntity
  8
GR1_01
  6
CONTINUOUS
 62
     7
100
AcDbLine
 10
229.529762
 20
74.910314
 30
0.0
 11
247.229762
 21
74.910314
 31
0.0
  0
LINE
  5
A4
100
AcDbEntity
  8
GR1_01
  6
CONTINUOUS
 62
     7
100
AcDbLine
 10
229.529762
 20
89.007285
 30
0.0
 11
229.529762
 21
73.829935
 31
0.0
  0
LINE
  5
A5
100
AcDbEntity
  8
GR1_01
  6
CONTINUOUS
 62
     7
100
AcDbLine
 10
247.229762
 20
88.007285
 30
0.0
 11
247.229762
 21
76.330992
 31
0.0
  0
MTEXT
  5
A6
100
AcDbEntity
  8
GR1_01
100
AcDbMText
 10
149.876128
 20
177.472647
 30
0.0
 40
1.818983
 41
10.728792
 71
     8
 72
     5
  1
\C94;\fMS ????|b0|i0|;\H1.8189826607704;\U+FF14.\U+FF15
  7
HORIZONTALBIGFONT
 11
1.0
 21
0.0
 31
0.0
  0
LINE
  5
A7
100
AcDbEntity
  8
GR1_01
  6
CONTINUOUS
 62
     7
100
AcDbLine
 10
137.060571
 20
177.677862
 30
0.0
 11
141.560571
 21
177.677862
 31
0.0
  0
LINE
  5
A8
100
AcDbEntity
  8
GR1_01
  6
CONTINUOUS
 62
     7
100
AcDbLine
 10
137.060571
 20
165.329105
 30
0.0
 11
137.060571
 21
179.763275
 31
0.0
  0
LINE
  5
A9
100
AcDbEntity
  8
GR1_01
  6
CONTINUOUS
 62
     7
100
AcDbLine
 10
141.560571
 20
163.207285
 30
0.0
 11
141.560571
 21
179.763275
 31
0.0
  0
LINE
  5
AA
100
AcDbEntity
  8
GR1_01
  6
CONTINUOUS
 62
     7
100
AcDbLine
 10
141.560571
 20
177.677862
 30
0.0
 11
155.608945
 21
177.677862
 31
0.0
  0
MTEXT
  5
AB
100
AcDbEntity
  8
GR1_01
100
AcDbMText
 10
75.560571
 20
177.472647
 30
0.0
 40
1.818983
 41
13.257576
 71
     8
 72
     5
  1
\C94;\fMS ????|b0|i0|;\H1.8189826607704;\U+FF11\U+FF12\U+FF13
 11
1.0
 21
0.0
 31
0.0
  0
LINE
  5
AC
100
AcDbEntity
  8
GR1_01
  6
CONTINUOUS
 62
     7
100
AcDbLine
 10
14.060571
 20
177.677862
 30
0.0
 11
137.060571
 21
177.677862
 31
0.0
  0
LINE
  5
AD
100
AcDbEntity
  8
GR1_01
  6
CONTINUOUS
 62
     7
100
AcDbLine
 10
14.060571
 20
98.507285
 30
0.0
 11
14.060571
 21
179.92117
 31
0.0
  0
MTEXT
  5
AE
100
AcDbEntity
  8
GR2_01
100
AcDbMText
 10
215.053215
 20
56.945545
 30
0.0
 40
1.818983
 41
14.108138
 71
     8
 72
     5
  1
\C94;\fＭＳ Ｐゴシック|b0|i0|;\H1.8189826607704;\M+18255\M+18253\fＭＳ ゴシック|b0|i0|;.\fＭＳ Ｐゴシック|b0|i0|;\M+18253
  7
HORIZONTALBIGFONT
 11
1.0
 21
0.0
 31
0.0
  0
LINE
  5
AF
100
AcDbEntity
  8
GR2_01
  6
CONTINUOUS
 62
     7
100
AcDbLine
 10
182.840527
 20
56.677872
 30
0.0
 11
247.265903
 21
56.677872
 31
0.0
  0
LINE
  5
B1
102
{ACAD_REACTORS
330
B0
102
}
100
AcDbEntity
  8
GR2_01
  6
CONTINUOUS
100
AcDbLine
 10
182.840527
 20
56.677872
 30
0.0
 11
185.340527
 21
56.677872
 31
0.0
  0
LINE
  5
B2
102
{ACAD_REACTORS
330
B0
102
}
100
AcDbEntity
  8
GR2_01
  6
CONTINUOUS
100
AcDbLine
 10
182.840527
 20
56.677872
 30
0.0
 11
185.255341
 21
57.32492
 31
0.0
  0
LINE
  5
B3
102
{ACAD_REACTORS
330
B0
102
}
100
AcDbEntity
  8
GR2_01
  6
CONTINUOUS
100
AcDbLine
 10
182.840527
 20
56.677872
 30
0.0
 11
185.255341
 21
56.030825
 31
0.0
  0
LINE
  5
B5
102
{ACAD_REACTORS
330
B4
102
}
100
AcDbEntity
  8
GR2_01
  6
CONTINUOUS
100
AcDbLine
 10
247.265903
 20
56.677872
 30
0.0
 11
244.765903
 21
56.677872
 31
0.0
  0
LINE
  5
B6
102
{ACAD_REACTORS
330
B4
102
}
100
AcDbEntity
  8
GR2_01
  6
CONTINUOUS
100
AcDbLine
 10
247.265903
 20
56.677872
 30
0.0
 11
244.851088
 21
57.32492
 31
0.0
  0
LINE
  5
B7
102
{ACAD_REACTORS
330
B4
102
}
100
AcDbEntity
  8
GR2_01
  6
CONTINUOUS
100
AcDbLine
 10
247.265903
 20
56.677872
 30
0.0
 11
244.851088
 21
56.030825
 31
0.0
  0
LINE
  5
B9
102
{ACAD_REACTORS
330
B8
102
}
100
AcDbEntity
  8
GR1_01
  6
CONTINUOUS
100
AcDbLine
 10
14.060571
 20
177.677862
 30
0.0
 11
16.560571
 21
177.677862
 31
0.0
  0
LINE
  5
BA
102
{ACAD_REACTORS
330
B8
102
}
100
AcDbEntity
  8
GR1_01
  6
CONTINUOUS
100
AcDbLine
 10
14.060571
 20
177.677862
 30
0.0
 11
16.475386
 21
178.324909
 31
0.0
  0
LINE
  5
BB
102
{ACAD_REACTORS
330
B8
102
}
100
AcDbEntity
  8
GR1_01
  6
CONTINUOUS
100
AcDbLine
 10
14.060571
 20
177.677862
 30
0.0
 11
16.475386
 21
177.030814
 31
0.0
  0
LINE
  5
BD
102
{ACAD_REACTORS
330
BC
102
}
100
AcDbEntity
  8
GR1_01
  6
CONTINUOUS
100
AcDbLine
 10
137.060571
 20
177.677862
 30
0.0
 11
134.560571
 21
177.677862
 31
0.0
  0
LINE
  5
BE
102
{ACAD_REACTORS
330
BC
102
}
100
AcDbEntity
  8
GR1_01
  6
CONTINUOUS
100
AcDbLine
 10
137.060571
 20
177.677862
 30
0.0
 11
134.645757
 21
178.324909
 31
0.0
  0
LINE
  5
BF
102
{ACAD_REACTORS
330
BC
102
}
100
AcDbEntity
  8
GR1_01
  6
CONTINUOUS
100
AcDbLine
 10
137.060571
 20
177.677862
 30
0.0
 11
134.645757
 21
177.030814
 31
0.0
  0
LINE
  5
C1
102
{ACAD_REACTORS
330
C0
102
}
100
AcDbEntity
  8
GR1_01
  6
CONTINUOUS
100
AcDbLine
 10
141.560571
 20
177.677862
 30
0.0
 11
144.060571
 21
177.677862
 31
0.0
  0
LINE
  5
C2
102
{ACAD_REACTORS
330
C0
102
}
100
AcDbEntity
  8
GR1_01
  6
CONTINUOUS
100
AcDbLine
 10
141.560571
 20
177.677862
 30
0.0
 11
143.975386
 21
178.324909
 31
0.0
  0
LINE
  5
C3
102
{ACAD_REACTORS
330
C0
102
}
100
AcDbEntity
  8
GR1_01
  6
CONTINUOUS
100
AcDbLine
 10
141.560571
 20
177.677862
 30
0.0
 11
143.975386
 21
177.030814
 31
0.0
  0
LINE
  5
C5
102
{ACAD_REACTORS
330
C4
102
}
100
AcDbEntity
  8
GR2_01
  6
CONTINUOUS
100
AcDbLine
 10
150.093479
 20
160.807285
 30
0.0
 11
150.093479
 21
163.307285
 31
0.0
  0
LINE
  5
C6
102
{ACAD_REACTORS
330
C4
102
}
100
AcDbEntity
  8
GR2_01
  6
CONTINUOUS
100
AcDbLine
 10
150.093479
 20
160.807285
 30
0.0
 11
149.446431
 21
163.2221
 31
0.0
  0
LINE
  5
C7
102
{ACAD_REACTORS
330
C4
102
}
100
AcDbEntity
  8
GR2_01
  6
CONTINUOUS
100
AcDbLine
 10
150.093479
 20
160.807285
 30
0.0
 11
150.740526
 21
163.2221
 31
0.0
  0
LINE
  5
C9
102
{ACAD_REACTORS
330
C8
102
}
100
AcDbEntity
  8
GR1_01
  6
CONTINUOUS
100
AcDbLine
 10
159.193479
 20
158.707285
 30
0.0
 11
159.193479
 21
156.207285
 31
0.0
  0
LINE
  5
CA
102
{ACAD_REACTORS
330
C8
102
}
100
AcDbEntity
  8
GR1_01
  6
CONTINUOUS
100
AcDbLine
 10
159.193479
 20
158.707285
 30
0.0
 11
158.546431
 21
156.292471
 31
0.0
  0
LINE
  5
CB
102
{ACAD_REACTORS
330
C8
102
}
100
AcDbEntity
  8
GR1_01
  6
CONTINUOUS
100
AcDbLine
 10
159.193479
 20
158.707285
 30
0.0
 11
159.840526
 21
156.292471
 31
0.0
  0
LINE
  5
CD
102
{ACAD_REACTORS
330
CC
102
}
100
AcDbEntity
  8
GR2_01
  6
CONTINUOUS
100
AcDbLine
 10
150.093479
 20
156.607285
 30
0.0
 11
150.093479
 21
154.107285
 31
0.0
  0
LINE
  5
CE
102
{ACAD_REACTORS
330
CC
102
}
100
AcDbEntity
  8
GR2_01
  6
CONTINUOUS
100
AcDbLine
 10
150.093479
 20
156.607285
 30
0.0
 11
149.446431
 21
154.192471
 31
0.0
  0
LINE
  5
CF
102
{ACAD_REACTORS
330
CC
102
}
100
AcDbEntity
  8
GR2_01
  6
CONTINUOUS
100
AcDbLine
 10
150.093479
 20
156.607285
 30
0.0
 11
150.740526
 21
154.192471
 31
0.0
  0
LINE
  5
D1
102
{ACAD_REACTORS
330
D0
102
}
100
AcDbEntity
  8
GR1_01
  6
CONTINUOUS
100
AcDbLine
 10
168.285367
 20
163.207285
 30
0.0
 11
168.285367
 21
160.707285
 31
0.0
  0
LINE
  5
D2
102
{ACAD_REACTORS
330
D0
102
}
100
AcDbEntity
  8
GR1_01
  6
CONTINUOUS
100
AcDbLine
 10
168.285367
 20
163.207285
 30
0.0
 11
167.638319
 21
160.792471
 31
0.0
  0
LINE
  5
D3
102
{ACAD_REACTORS
330
D0
102
}
100
AcDbEntity
  8
GR1_01
  6
CONTINUOUS
100
AcDbLine
 10
168.285367
 20
163.207285
 30
0.0
 11
168.932414
 21
160.792471
 31
0.0
  0
LINE
  5
D5
102
{ACAD_REACTORS
330
D4
102
}
100
AcDbEntity
  8
GR1_01
  6
CONTINUOUS
100
AcDbLine
 10
159.193479
 20
93.507285
 30
0.0
 11
159.193479
 21
96.007285
 31
0.0
  0
LINE
  5
D6
102
{ACAD_REACTORS
330
D4
102
}
100
AcDbEntity
  8
GR1_01
  6
CONTINUOUS
100
AcDbLine
 10
159.193479
 20
93.507285
 30
0.0
 11
158.546431
 21
95.9221
 31
0.0
  0
LINE
  5
D7
102
{ACAD_REACTORS
330
D4
102
}
100
AcDbEntity
  8
GR1_01
  6
CONTINUOUS
100
AcDbLine
 10
159.193479
 20
93.507285
 30
0.0
 11
159.840526
 21
95.9221
 31
0.0
  0
LINE
  5
D9
102
{ACAD_REACTORS
330
D8
102
}
100
AcDbEntity
  8
GR1_01
  6
CONTINUOUS
100
AcDbLine
 10
168.285367
 20
89.007285
 30
0.0
 11
168.285367
 21
91.507285
 31
0.0
  0
LINE
  5
DA
102
{ACAD_REACTORS
330
D8
102
}
100
AcDbEntity
  8
GR1_01
  6
CONTINUOUS
100
AcDbLine
 10
168.285367
 20
89.007285
 30
0.0
 11
167.638319
 21
91.4221
 31
0.0
  0
LINE
  5
DB
102
{ACAD_REACTORS
330
D8
102
}
100
AcDbEntity
  8
GR1_01
  6
CONTINUOUS
100
AcDbLine
 10
168.285367
 20
89.007285
 30
0.0
 11
168.932414
 21
91.4221
 31
0.0
  0
LINE
  5
DD
102
{ACAD_REACTORS
330
DC
102
}
100
AcDbEntity
  8
GR1_01
  6
CONTINUOUS
100
AcDbLine
 10
168.285367
 20
84.007285
 30
0.0
 11
168.285367
 21
81.507285
 31
0.0
  0
LINE
  5
DE
102
{ACAD_REACTORS
330
DC
102
}
100
AcDbEntity
  8
GR1_01
  6
CONTINUOUS
100
AcDbLine
 10
168.285367
 20
84.007285
 30
0.0
 11
168.932414
 21
81.592471
 31
0.0
  0
LINE
  5
DF
102
{ACAD_REACTORS
330
DC
102
}
100
AcDbEntity
  8
GR1_01
  6
CONTINUOUS
100
AcDbLine
 10
168.285367
 20
84.007285
 30
0.0
 11
167.638319
 21
81.592471
 31
0.0
  0
LINE
  5
E1
102
{ACAD_REACTORS
330
E0
102
}
100
AcDbEntity
  8
GR1_01
  6
CONTINUOUS
100
AcDbLine
 10
141.560571
 20
75.044095
 30
0.0
 11
139.060571
 21
75.044095
 31
0.0
  0
LINE
  5
E2
102
{ACAD_REACTORS
330
E0
102
}
100
AcDbEntity
  8
GR1_01
  6
CONTINUOUS
100
AcDbLine
 10
141.560571
 20
75.044095
 30
0.0
 11
139.145757
 21
75.691143
 31
0.0
  0
LINE
  5
E3
102
{ACAD_REACTORS
330
E0
102
}
100
AcDbEntity
  8
GR1_01
  6
CONTINUOUS
100
AcDbLine
 10
141.560571
 20
75.044095
 30
0.0
 11
139.145757
 21
74.397048
 31
0.0
  0
LINE
  5
E5
102
{ACAD_REACTORS
330
E4
102
}
100
AcDbEntity
  8
GR1_01
  6
CONTINUOUS
100
AcDbLine
 10
9.560571
 20
75.044095
 30
0.0
 11
12.060571
 21
75.044095
 31
0.0
  0
LINE
  5
E6
102
{ACAD_REACTORS
330
E4
102
}
100
AcDbEntity
  8
GR1_01
  6
CONTINUOUS
100
AcDbLine
 10
9.560571
 20
75.044095
 30
0.0
 11
11.975386
 21
75.691143
 31
0.0
  0
LINE
  5
E7
102
{ACAD_REACTORS
330
E4
102
}
100
AcDbEntity
  8
GR1_01
  6
CONTINUOUS
100
AcDbLine
 10
9.560571
 20
75.044095
 30
0.0
 11
11.975386
 21
74.397048
 31
0.0
  0
LINE
  5
E9
102
{ACAD_REACTORS
330
E8
102
}
100
AcDbEntity
  8
GR2_01
  6
CONTINUOUS
100
AcDbLine
 10
247.229762
 20
65.844091
 30
0.0
 11
244.729762
 21
65.844091
 31
0.0
  0
LINE
  5
EA
102
{ACAD_REACTORS
330
E8
102
}
100
AcDbEntity
  8
GR2_01
  6
CONTINUOUS
100
AcDbLine
 10
247.229762
 20
65.844091
 30
0.0
 11
244.814947
 21
66.491138
 31
0.0
  0
LINE
  5
EB
102
{ACAD_REACTORS
330
E8
102
}
100
AcDbEntity
  8
GR2_01
  6
CONTINUOUS
100
AcDbLine
 10
247.229762
 20
65.844091
 30
0.0
 11
244.814947
 21
65.197043
 31
0.0
  0
LINE
  5
ED
102
{ACAD_REACTORS
330
EC
102
}
100
AcDbEntity
  8
GR2_01
  6
CONTINUOUS
100
AcDbLine
 10
221.440527
 20
65.844091
 30
0.0
 11
223.940527
 21
65.844091
 31
0.0
  0
LINE
  5
EE
102
{ACAD_REACTORS
330
EC
102
}
100
AcDbEntity
  8
GR2_01
  6
CONTINUOUS
100
AcDbLine
 10
221.440527
 20
65.844091
 30
0.0
 11
223.855341
 21
66.491138
 31
0.0
  0
LINE
  5
EF
102
{ACAD_REACTORS
330
EC
102
}
100
AcDbEntity
  8
GR2_01
  6
CONTINUOUS
100
AcDbLine
 10
221.440527
 20
65.844091
 30
0.0
 11
223.855341
 21
65.197043
 31
0.0
  0
LINE
  5
F1
102
{ACAD_REACTORS
330
F0
102
}
100
AcDbEntity
  8
GR1_01
  6
CONTINUOUS
100
AcDbLine
 10
229.529762
 20
74.910314
 30
0.0
 11
232.029762
 21
74.910314
 31
0.0
  0
LINE
  5
F2
102
{ACAD_REACTORS
330
F0
102
}
100
AcDbEntity
  8
GR1_01
  6
CONTINUOUS
100
AcDbLine
 10
229.529762
 20
74.910314
 30
0.0
 11
231.944577
 21
75.557362
 31
0.0
  0
LINE
  5
F3
102
{ACAD_REACTORS
330
F0
102
}
100
AcDbEntity
  8
GR1_01
  6
CONTINUOUS
100
AcDbLine
 10
229.529762
 20
74.910314
 30
0.0
 11
231.944577
 21
74.263267
 31
0.0
  0
LINE
  5
F5
102
{ACAD_REACTORS
330
F4
102
}
100
AcDbEntity
  8
GR1_01
  6
CONTINUOUS
100
AcDbLine
 10
247.229762
 20
74.910314
 30
0.0
 11
244.729762
 21
74.910314
 31
0.0
  0
LINE
  5
F6
102
{ACAD_REACTORS
330
F4
102
}
100
AcDbEntity
  8
GR1_01
  6
CONTINUOUS
100
AcDbLine
 10
247.229762
 20
74.910314
 30
0.0
 11
244.814947
 21
75.557362
 31
0.0
  0
LINE
  5
F7
102
{ACAD_REACTORS
330
F4
102
}
100
AcDbEntity
  8
GR1_01
  6
CONTINUOUS
100
AcDbLine
 10
247.229762
 20
74.910314
 30
0.0
 11
244.814947
 21
74.263267
 31
0.0
  0
LINE
  5
F9
102
{ACAD_REACTORS
330
F8
102
}
100
AcDbEntity
  8
GR1_01
  6
CONTINUOUS
100
AcDbLine
 10
263.040527
 20
89.007285
 30
0.0
 11
263.040527
 21
86.507285
 31
0.0
  0
LINE
  5
FA
102
{ACAD_REACTORS
330
F8
102
}
100
AcDbEntity
  8
GR1_01
  6
CONTINUOUS
100
AcDbLine
 10
263.040527
 20
89.007285
 30
0.0
 11
262.393479
 21
86.592471
 31
0.0
  0
LINE
  5
FB
102
{ACAD_REACTORS
330
F8
102
}
100
AcDbEntity
  8
GR1_01
  6
CONTINUOUS
100
AcDbLine
 10
263.040527
 20
89.007285
 30
0.0
 11
263.687575
 21
86.592471
 31
0.0
  0
LINE
  5
FD
102
{ACAD_REACTORS
330
FC
102
}
100
AcDbEntity
  8
GR1_01
  6
CONTINUOUS
100
AcDbLine
 10
263.040527
 20
97.507285
 30
0.0
 11
263.040527
 21
100.007285
 31
0.0
  0
LINE
  5
FE
102
{ACAD_REACTORS
330
FC
102
}
100
AcDbEntity
  8
GR1_01
  6
CONTINUOUS
100
AcDbLine
 10
263.040527
 20
97.507285
 30
0.0
 11
262.393479
 21
99.9221
 31
0.0
  0
LINE
  5
FF
102
{ACAD_REACTORS
330
FC
102
}
100
AcDbEntity
  8
GR1_01
  6
CONTINUOUS
100
AcDbLine
 10
263.040527
 20
97.507285
 30
0.0
 11
263.687575
 21
99.9221
 31
0.0
  0
LINE
  5
101
102
{ACAD_REACTORS
330
100
102
}
100
AcDbEntity
  8
GR1_01
  6
CONTINUOUS
100
AcDbLine
 10
263.040527
 20
133.007285
 30
0.0
 11
263.040527
 21
130.507285
 31
0.0
  0
LINE
  5
102
102
{ACAD_REACTORS
330
100
102
}
100
AcDbEntity
  8
GR1_01
  6
CONTINUOUS
100
AcDbLine
 10
263.040527
 20
133.007285
 30
0.0
 11
262.393479
 21
130.592471
 31
0.0
  0
LINE
  5
103
102
{ACAD_REACTORS
330
100
102
}
100
AcDbEntity
  8
GR1_01
  6
CONTINUOUS
100
AcDbLine
 10
263.040527
 20
133.007285
 30
0.0
 11
263.687575
 21
130.592471
 31
0.0
  0
LINE
  5
105
102
{ACAD_REACTORS
330
104
102
}
100
AcDbEntity
  8
GR1_01
  6
CONTINUOUS
100
AcDbLine
 10
263.040527
 20
133.007285
 30
0.0
 11
263.040527
 21
135.507285
 31
0.0
  0
LINE
  5
106
102
{ACAD_REACTORS
330
104
102
}
100
AcDbEntity
  8
GR1_01
  6
CONTINUOUS
100
AcDbLine
 10
263.040527
 20
133.007285
 30
0.0
 11
262.393479
 21
135.4221
 31
0.0
  0
LINE
  5
107
102
{ACAD_REACTORS
330
104
102
}
100
AcDbEntity
  8
GR1_01
  6
CONTINUOUS
100
AcDbLine
 10
263.040527
 20
133.007285
 30
0.0
 11
263.687575
 21
135.4221
 31
0.0
  0
LINE
  5
109
102
{ACAD_REACTORS
330
108
102
}
100
AcDbEntity
  8
GR1_01
  6
CONTINUOUS
100
AcDbLine
 10
263.040527
 20
163.207285
 30
0.0
 11
263.040527
 21
160.707285
 31
0.0
  0
LINE
  5
10A
102
{ACAD_REACTORS
330
108
102
}
100
AcDbEntity
  8
GR1_01
  6
CONTINUOUS
100
AcDbLine
 10
263.040527
 20
163.207285
 30
0.0
 11
262.393479
 21
160.792471
 31
0.0
  0
LINE
  5
10B
102
{ACAD_REACTORS
330
108
102
}
100
AcDbEntity
  8
GR1_01
  6
CONTINUOUS
100
AcDbLine
 10
263.040527
 20
163.207285
 30
0.0
 11
263.687575
 21
160.792471
 31
0.0
  0
LINE
  5
10D
102
{ACAD_REACTORS
330
10C
102
}
100
AcDbEntity
  8
GR1_01
  6
CONTINUOUS
100
AcDbLine
 10
247.229762
 20
169.763265
 30
0.0
 11
244.729762
 21
169.763265
 31
0.0
  0
LINE
  5
10E
102
{ACAD_REACTORS
330
10C
102
}
100
AcDbEntity
  8
GR1_01
  6
CONTINUOUS
100
AcDbLine
 10
247.229762
 20
169.763265
 30
0.0
 11
244.814947
 21
170.410313
 31
0.0
  0
LINE
  5
10F
102
{ACAD_REACTORS
330
10C
102
}
100
AcDbEntity
  8
GR1_01
  6
CONTINUOUS
100
AcDbLine
 10
247.229762
 20
169.763265
 30
0.0
 11
244.814947
 21
169.116218
 31
0.0
  0
LINE
  5
111
102
{ACAD_REACTORS
330
110
102
}
100
AcDbEntity
  8
GR1_01
  6
CONTINUOUS
100
AcDbLine
 10
234.229762
 20
169.763265
 30
0.0
 11
236.729762
 21
169.763265
 31
0.0
  0
LINE
  5
112
102
{ACAD_REACTORS
330
110
102
}
100
AcDbEntity
  8
GR1_01
  6
CONTINUOUS
100
AcDbLine
 10
234.229762
 20
169.763265
 30
0.0
 11
236.644577
 21
170.410313
 31
0.0
  0
LINE
  5
113
102
{ACAD_REACTORS
330
110
102
}
100
AcDbEntity
  8
GR1_01
  6
CONTINUOUS
100
AcDbLine
 10
234.229762
 20
169.763265
 30
0.0
 11
236.644577
 21
169.116218
 31
0.0
  0
LINE
  5
115
102
{ACAD_REACTORS
330
114
102
}
100
AcDbEntity
  8
GR2_01
  6
CONTINUOUS
 62
     7
100
AcDbLine
 10
139.086849
 20
159.763269
 30
0.0
 11
148.594204
 21
169.257299
 31
0.0
  0
LINE
  5
116
102
{ACAD_REACTORS
330
114
102
}
100
AcDbEntity
  8
GR2_01
  6
CONTINUOUS
100
AcDbLine
 10
139.086849
 20
159.763269
 30
0.0
 11
140.855855
 21
161.529796
 31
0.0
  0
LINE
  5
117
102
{ACAD_REACTORS
330
114
102
}
100
AcDbEntity
  8
GR2_01
  6
CONTINUOUS
100
AcDbLine
 10
139.086849
 20
159.763269
 30
0.0
 11
140.338367
 21
161.927455
 31
0.0
  0
LINE
  5
118
102
{ACAD_REACTORS
330
114
102
}
100
AcDbEntity
  8
GR2_01
  6
CONTINUOUS
100
AcDbLine
 10
139.086849
 20
159.763269
 30
0.0
 11
141.252788
 21
161.01175
 31
0.0
  0
LINE
  5
119
100
AcDbEntity
  8
GR2_01
  6
CONTINUOUS
100
AcDbLine
 10
246.726232
 20
132.955952
 30
0.0
 11
246.726232
 21
131.955952
 31
0.0
  0
LINE
  5
11A
100
AcDbEntity
  8
GR2_01
  6
CONTINUOUS
100
AcDbLine
 10
243.226232
 20
132.955952
 30
0.0
 11
247.226232
 21
132.955952
 31
0.0
  0
LINE
  5
11B
100
AcDbEntity
  8
GR2_01
  6
CONTINUOUS
100
AcDbLine
 10
244.326232
 20
132.955952
 30
0.0
 11
244.326232
 21
132.455952
 31
0.0
  0
LINE
  5
11C
100
AcDbEntity
  8
GR2_01
  6
CONTINUOUS
100
AcDbLine
 10
245.776232
 20
130.955952
 30
0.0
 11
246.026232
 21
130.955952
 31
0.0
  0
LINE
  5
11D
100
AcDbEntity
  8
GR2_01
  6
CONTINUOUS
100
AcDbLine
 10
244.326232
 20
132.455952
 30
0.0
 11
244.437725
 21
132.039853
 31
0.0
  0
LINE
  5
11E
100
AcDbEntity
  8
GR2_01
  6
CONTINUOUS
100
AcDbLine
 10
245.776232
 20
130.955952
 30
0.0
 11
244.437725
 21
132.039853
 31
0.0
  0
LINE
  5
11F
100
AcDbEntity
  8
GR2_01
  6
CONTINUOUS
100
AcDbLine
 10
247.226232
 20
163.155952
 30
0.0
 11
236.226232
 21
163.155952
 31
0.0
  0
LINE
  5
120
100
AcDbEntity
  8
GR2_01
  6
CONTINUOUS
100
AcDbLine
 10
247.226232
 20
88.955952
 30
0.0
 11
236.226232
 21
88.955952
 31
0.0
  0
LINE
  5
121
100
AcDbEntity
  8
GR2_01
  6
CONTINUOUS
100
AcDbLine
 10
247.226232
 20
97.455952
 30
0.0
 11
243.226232
 21
97.455952
 31
0.0
  0
LINE
  5
122
100
AcDbEntity
  8
GR2_01
  6
CONTINUOUS
100
AcDbLine
 10
247.226232
 20
88.955952
 30
0.0
 11
247.226232
 21
97.455952
 31
0.0
  0
LINE
  5
123
100
AcDbEntity
  8
GR2_01
  6
CONTINUOUS
100
AcDbLine
 10
235.726232
 20
162.655952
 30
0.0
 11
235.726232
 21
89.455952
 31
0.0
  0
LINE
  5
124
100
AcDbEntity
  8
GR2_01
  6
CONTINUOUS
100
AcDbLine
 10
247.226232
 20
132.955952
 30
0.0
 11
247.226232
 21
163.155952
 31
0.0
  0
LINE
  5
125
100
AcDbEntity
  8
GR2_01
  6
CONTINUOUS
100
AcDbLine
 10
243.226232
 20
132.955952
 30
0.0
 11
243.226232
 21
97.455952
 31
0.0
  0
LINE
  5
126
100
AcDbEntity
  8
GR2_01
  6
CONTINUOUS
100
AcDbLine
 10
235.726232
 20
162.655952
 30
0.0
 11
236.226232
 21
162.655952
 31
0.0
  0
LINE
  5
127
100
AcDbEntity
  8
GR2_01
  6
CONTINUOUS
100
AcDbLine
 10
236.226232
 20
89.455952
 30
0.0
 11
235.726232
 21
89.455952
 31
0.0
  0
LINE
  5
128
100
AcDbEntity
  8
GR2_01
  6
CONTINUOUS
100
AcDbLine
 10
236.226232
 20
163.155952
 30
0.0
 11
236.226232
 21
88.955952
 31
0.0
  0
LINE
  5
129
100
AcDbEntity
  8
GR2_01
  6
CONTINUOUS
100
AcDbLine
 10
246.726232
 20
131.955952
 30
0.0
 11
246.026232
 21
130.955952
 31
0.0
  0
ARC
  5
12A
100
AcDbEntity
  8
GR2_01
  6
CONTINUOUS
100
AcDbCircle
 10
242.592141
 20
128.955952
 30
0.0
 40
1.184091
100
AcDbArc
 50
302.378413
 51
57.621587
  0
LINE
  5
12B
100
AcDbEntity
  8
GR2_01
  6
CONTINUOUS
 62
     7
100
AcDbLine
 10
141.564164
 20
162.155952
 30
0.0
 11
141.564164
 21
89.955952
 31
0.0
  0
LINE
  5
12C
100
AcDbEntity
  8
GR2_01
  6
CONTINUOUS
 62
     7
100
AcDbLine
 10
10.564164
 20
163.155952
 30
0.0
 11
140.564164
 21
163.155952
 31
0.0
  0
ARC
  5
12D
100
AcDbEntity
  8
GR2_01
  6
CONTINUOUS
 62
     7
100
AcDbCircle
 10
140.564164
 20
89.955952
 30
0.0
 40
1.0
100
AcDbArc
 50
270.0
 51
0.0
  0
LINE
  5
12E
100
AcDbEntity
  8
GR2_01
  6
CONTINUOUS
 62
     7
100
AcDbLine
 10
9.564164
 20
162.155952
 30
0.0
 11
9.564164
 21
89.955952
 31
0.0
  0
ARC
  5
12F
100
AcDbEntity
  8
GR2_01
  6
CONTINUOUS
 62
     7
100
AcDbCircle
 10
10.564164
 20
162.155952
 30
0.0
 40
1.0
100
AcDbArc
 50
90.0
 51
180.0
  0
LINE
  5
130
100
AcDbEntity
  8
GR2_01
  6
CONTINUOUS
 62
     7
100
AcDbLine
 10
140.564164
 20
88.955952
 30
0.0
 11
10.564164
 21
88.955952
 31
0.0
  0
LINE
  5
131
100
AcDbEntity
  8
GR1_01
  6
CONTINUOUS
 62
     7
100
AcDbLine
 10
130.064164
 20
122.155952
 30
0.0
 11
64.164164
 21
122.155952
 31
0.0
  0
ARC
  5
132
100
AcDbEntity
  8
GR1_01
  6
CONTINUOUS
 62
     7
100
AcDbCircle
 10
10.564164
 20
89.955952
 30
0.0
 40
1.0
100
AcDbArc
 50
180.0
 51
270.0
  0
LINE
  5
133
100
AcDbEntity
  8
GR2_01
  6
CONTINUOUS
 62
     7
100
AcDbLine
 10
26.064164
 20
103.055952
 30
0.0
 11
35.664164
 21
103.055952
 31
0.0
  0
LINE
  5
134
100
AcDbEntity
  8
GR2_01
  6
CONTINUOUS
 62
     7
100
AcDbLine
 10
26.064164
 20
149.055952
 30
0.0
 11
26.064164
 21
103.055952
 31
0.0
  0
LINE
  5
135
100
AcDbEntity
  8
GR2_01
  6
CONTINUOUS
 62
     7
100
AcDbLine
 10
35.664164
 20
149.055952
 30
0.0
 11
35.664164
 21
103.055952
 31
0.0
  0
LINE
  5
136
100
AcDbEntity
  8
GR2_01
  6
CONTINUOUS
 62
     7
100
AcDbLine
 10
23.664164
 20
149.055952
 30
0.0
 11
14.064164
 21
149.055952
 31
0.0
  0
LINE
  5
137
100
AcDbEntity
  8
GR2_01
  6
CONTINUOUS
 62
     7
100
AcDbLine
 10
14.064164
 20
103.055952
 30
0.0
 11
23.664164
 21
103.055952
 31
0.0
  0
LINE
  5
138
100
AcDbEntity
  8
GR2_01
  6
CONTINUOUS
 62
     7
100
AcDbLine
 10
14.064164
 20
149.055952
 30
0.0
 11
14.064164
 21
103.055952
 31
0.0
  0
LINE
  5
139
100
AcDbEntity
  8
GR2_01
  6
CONTINUOUS
 62
     7
100
AcDbLine
 10
23.664164
 20
149.055952
 30
0.0
 11
23.664164
 21
103.055952
 31
0.0
  0
LINE
  5
13A
100
AcDbEntity
  8
GR2_01
  6
CONTINUOUS
 62
     7
100
AcDbLine
 10
35.664164
 20
149.055952
 30
0.0
 11
26.064164
 21
149.055952
 31
0.0
  0
LINE
  5
13B
100
AcDbEntity
  8
GR1_01
  6
CONTINUOUS
 62
     7
100
AcDbLine
 10
130.064164
 20
120.655952
 30
0.0
 11
64.164164
 21
120.655952
 31
0.0
  0
LINE
  5
13C
100
AcDbEntity
  8
GR2_01
  6
CONTINUOUS
 62
     7
100
AcDbLine
 10
130.064164
 20
106.555952
 30
0.0
 11
130.064164
 21
120.655952
 31
0.0
  0
LINE
  5
13D
100
AcDbEntity
  8
GR2_01
  6
CONTINUOUS
 62
     7
100
AcDbLine
 10
64.164164
 20
106.555952
 30
0.0
 11
64.164164
 21
120.655952
 31
0.0
  0
LINE
  5
13E
100
AcDbEntity
  8
0
  6
CONTINUOUS
 62
     7
100
AcDbLine
 10
14.564164
 20
148.505952
 30
0.0
 11
14.564164
 21
103.605952
 31
0.0
  0
LINE
  5
13F
100
AcDbEntity
  8
0
  6
CONTINUOUS
 62
     7
100
AcDbLine
 10
23.164164
 20
103.605952
 30
0.0
 11
23.164164
 21
148.505952
 31
0.0
  0
LINE
  5
140
100
AcDbEntity
  8
0
  6
CONTINUOUS
 62
     7
100
AcDbLine
 10
23.164164
 20
148.505952
 30
0.0
 11
14.564164
 21
148.505952
 31
0.0
  0
LINE
  5
141
100
AcDbEntity
  8
0
  6
CONTINUOUS
 62
     7
100
AcDbLine
 10
23.164164
 20
103.605952
 30
0.0
 11
14.564164
 21
103.605952
 31
0.0
  0
LINE
  5
143
100
AcDbEntity
  8
GR2_01
  6
DASHDOT
100
AcDbLine
 10
250.426232
 20
127.455952
 30
0.0
 11
250.426232
 21
103.455952
 31
0.0
  0
LINE
  5
144
100
AcDbEntity
  8
GR2_01
  6
DASHDOT
100
AcDbLine
 10
248.926232
 20
128.955952
 30
0.0
 11
245.380932
 21
128.955952
 31
0.0
  0
ARC
  5
145
100
AcDbEntity
  8
GR2_01
  6
DASHDOT
100
AcDbCircle
 10
248.926232
 20
127.455952
 30
0.0
 40
1.5
100
AcDbArc
 50
0.0
 51
90.0
  0
LINE
  5
146
100
AcDbEntity
  8
GR2_01
  6
CONTINUOUS
100
AcDbLine
 10
243.226232
 20
132.455952
 30
0.0
 11
243.226232
 21
127.955952
 31
0.0
  0
LINE
  5
147
100
AcDbEntity
  8
GR2_01
  6
DASHDOT
100
AcDbLine
 10
244.226232
 20
132.455952
 30
0.0
 11
244.226232
 21
130.955952
 31
0.0
  0
LINE
  5
148
100
AcDbEntity
  8
GR2_01
  6
DASHDOT
100
AcDbLine
 10
244.226232
 20
130.955952
 30
0.0
 11
245.380932
 21
128.955952
 31
0.0
  0
ARC
  5
149
100
AcDbEntity
  8
GR2_01
  6
DASHDOT
100
AcDbCircle
 10
243.726232
 20
132.455952
 30
0.0
 40
0.5
100
AcDbArc
 50
0.0
 51
180.0
  0
LINE
  5
14A
100
AcDbEntity
  8
GR2_01
  6
DASHDOT
100
AcDbLine
 10
248.426232
 20
127.455952
 30
0.0
 11
243.726232
 21
127.455952
 31
0.0
  0
ARC
  5
14B
100
AcDbEntity
  8
GR2_01
  6
DASHDOT
100
AcDbCircle
 10
243.726232
 20
127.955952
 30
0.0
 40
0.5
100
AcDbArc
 50
180.0
 51
270.0
  0
LINE
  5
14C
100
AcDbEntity
  8
GR2_01
  6
DASHDOT
100
AcDbLine
 10
248.926232
 20
126.955952
 30
0.0
 11
248.926232
 21
103.955952
 31
0.0
  0
ARC
  5
14D
100
AcDbEntity
  8
GR2_01
  6
DASHDOT
100
AcDbCircle
 10
248.426232
 20
126.955952
 30
0.0
 40
0.5
100
AcDbArc
 50
0.0
 51
90.0
  0
LINE
  5
14E
100
AcDbEntity
  8
GR2_01
  6
DASHDOT
100
AcDbLine
 10
248.926232
 20
101.955952
 30
0.0
 11
245.380932
 21
101.955952
 31
0.0
  0
ARC
  5
14F
100
AcDbEntity
  8
GR2_01
  6
DASHDOT
100
AcDbCircle
 10
248.926232
 20
103.455952
 30
0.0
 40
1.5
100
AcDbArc
 50
270.0
 51
0.0
  0
LINE
  5
150
100
AcDbEntity
  8
GR2_01
  6
CONTINUOUS
100
AcDbLine
 10
243.226232
 20
98.455952
 30
0.0
 11
243.226232
 21
102.955952
 31
0.0
  0
LINE
  5
151
100
AcDbEntity
  8
GR2_01
  6
DASHDOT
100
AcDbLine
 10
244.226232
 20
98.455952
 30
0.0
 11
244.226232
 21
99.955952
 31
0.0
  0
ARC
  5
152
100
AcDbEntity
  8
GR2_01
  6
DASHDOT
100
AcDbCircle
 10
243.726232
 20
98.455952
 30
0.0
 40
0.5
100
AcDbArc
 50
180.0
 51
0.0
  0
LINE
  5
153
100
AcDbEntity
  8
GR2_01
  6
DASHDOT
100
AcDbLine
 10
248.426232
 20
103.455952
 30
0.0
 11
243.726232
 21
103.455952
 31
0.0
  0
ARC
  5
154
100
AcDbEntity
  8
GR2_01
  6
DASHDOT
100
AcDbCircle
 10
243.726232
 20
102.955952
 30
0.0
 40
0.5
100
AcDbArc
 50
90.0
 51
180.0
  0
ARC
  5
155
100
AcDbEntity
  8
GR2_01
  6
DASHDOT
100
AcDbCircle
 10
248.426232
 20
103.955952
 30
0.0
 40
0.5
100
AcDbArc
 50
270.0
 51
0.0
  0
LINE
  5
156
100
AcDbEntity
  8
GR2_01
  6
DASHDOT
100
AcDbLine
 10
245.380932
 20
101.955952
 30
0.0
 11
244.226232
 21
99.955952
 31
0.0
  0
LINE
  5
157
100
AcDbEntity
  8
GR2_01
  6
CONTINUOUS
 62
     7
100
AcDbLine
 10
246.726232
 20
84.955952
 30
0.0
 11
242.726232
 21
84.955952
 31
0.0
  0
LINE
  5
158
100
AcDbEntity
  8
GR2_01
  6
CONTINUOUS
 62
     7
100
AcDbLine
 10
246.726232
 20
83.955952
 30
0.0
 11
246.726232
 21
88.955952
 31
0.0
  0
LINE
  5
159
100
AcDbEntity
  8
GR2_01
  6
CONTINUOUS
 62
     7
100
AcDbLine
 10
242.226232
 20
84.455952
 30
0.0
 11
242.226232
 21
88.955952
 31
0.0
  0
ARC
  5
15A
100
AcDbEntity
  8
GR2_01
  6
CONTINUOUS
 62
     7
100
AcDbCircle
 10
242.726232
 20
85.455952
 30
0.0
 40
0.5
100
AcDbArc
 50
180.0
 51
270.0
  0
LINE
  5
15B
100
AcDbEntity
  8
GR2_01
  6
CONTINUOUS
 62
     7
100
AcDbLine
 10
246.726232
 20
83.955952
 30
0.0
 11
242.726232
 21
83.955952
 31
0.0
  0
ARC
  5
15C
100
AcDbEntity
  8
GR2_01
  6
CONTINUOUS
 62
     7
100
AcDbCircle
 10
242.726232
 20
84.455952
 30
0.0
 40
0.5
100
AcDbArc
 50
180.0
 51
270.0
  0
LINE
  5
15D
100
AcDbEntity
  8
GR2_01
  6
CONTINUOUS
 62
     7
100
AcDbLine
 10
245.326232
 20
99.955952
 30
0.0
 11
244.76213
 21
99.955952
 31
0.0
  0
LINE
  5
15E
100
AcDbEntity
  8
GR2_01
  6
CONTINUOUS
 62
     7
100
AcDbLine
 10
245.326232
 20
99.955952
 30
0.0
 11
246.926232
 21
97.455952
 31
0.0
  0
LINE
  5
15F
100
AcDbEntity
  8
GR2_01
  6
CONTINUOUS
 62
     7
100
AcDbLine
 10
244.226232
 20
97.955952
 30
0.0
 11
243.226232
 21
97.955952
 31
0.0
  0
LINE
  5
160
100
AcDbEntity
  8
GR2_01
  6
CONTINUOUS
 62
     7
100
AcDbLine
 10
244.226232
 20
97.955952
 30
0.0
 11
244.76213
 21
99.955952
 31
0.0
  0
LINE
  5
161
100
AcDbEntity
  8
GR2_01
  6
CONTINUOUS
 62
     7
100
AcDbLine
 10
70.064164
 20
84.955952
 30
0.0
 11
73.218956
 21
84.955952
 31
0.0
  0
LINE
  5
162
100
AcDbEntity
  8
GR2_01
  6
CONTINUOUS
 62
     7
100
AcDbLine
 10
81.564164
 20
85.455952
 30
0.0
 11
81.564164
 21
88.955952
 31
0.0
  0
LINE
  5
163
100
AcDbEntity
  8
GR2_01
  6
CONTINUOUS
 62
     7
100
AcDbLine
 10
69.564164
 20
85.455952
 30
0.0
 11
69.564164
 21
88.955952
 31
0.0
  0
ARC
  5
164
100
AcDbEntity
  8
GR2_01
  6
CONTINUOUS
 62
     7
100
AcDbCircle
 10
81.064164
 20
85.455952
 30
0.0
 40
0.5
100
AcDbArc
 50
270.0
 51
0.0
  0
ARC
  5
165
100
AcDbEntity
  8
GR2_01
  6
CONTINUOUS
 62
     7
100
AcDbCircle
 10
70.064164
 20
85.455952
 30
0.0
 40
0.5
100
AcDbArc
 50
180.0
 51
270.0
  0
LINE
  5
166
100
AcDbEntity
  8
GR2_01
  6
CONTINUOUS
 62
     7
100
AcDbLine
 10
79.564164
 20
86.955952
 30
0.0
 11
79.564164
 21
88.455952
 31
0.0
  0
LINE
  5
167
100
AcDbEntity
  8
GR2_01
  6
CONTINUOUS
 62
     7
100
AcDbLine
 10
71.564164
 20
88.455952
 30
0.0
 11
79.564164
 21
88.455952
 31
0.0
  0
LINE
  5
168
100
AcDbEntity
  8
GR2_01
  6
CONTINUOUS
 62
     7
100
AcDbLine
 10
71.564164
 20
86.955952
 30
0.0
 11
71.564164
 21
88.455952
 31
0.0
  0
ARC
  5
169
100
AcDbEntity
  8
GR2_01
  6
CONTINUOUS
 62
     7
100
AcDbCircle
 10
75.564164
 20
87.205952
 30
0.0
 40
3.25
100
AcDbArc
 50
223.813061
 51
316.186939
  0
LINE
  5
16A
100
AcDbEntity
  8
GR2_01
  6
CONTINUOUS
 62
     7
100
AcDbLine
 10
77.909372
 20
84.955952
 30
0.0
 11
81.064164
 21
84.955952
 31
0.0
  0
LINE
  5
16B
100
AcDbEntity
  8
GR2_01
  6
CONTINUOUS
100
AcDbLine
 10
26.564164
 20
148.505952
 30
0.0
 11
26.564164
 21
103.605952
 31
0.0
  0
LINE
  5
16C
100
AcDbEntity
  8
GR2_01
  6
CONTINUOUS
100
AcDbLine
 10
35.164164
 20
103.605952
 30
0.0
 11
35.164164
 21
148.505952
 31
0.0
  0
LINE
  5
16D
100
AcDbEntity
  8
GR2_01
  6
CONTINUOUS
100
AcDbLine
 10
35.164164
 20
148.505952
 30
0.0
 11
26.564164
 21
148.505952
 31
0.0
  0
LINE
  5
16E
100
AcDbEntity
  8
GR2_01
  6
CONTINUOUS
100
AcDbLine
 10
35.164164
 20
103.605952
 30
0.0
 11
26.564164
 21
103.605952
 31
0.0
  0
LINE
  5
16F
100
AcDbEntity
  8
0
  6
CONTINUOUS
 62
     7
100
AcDbLine
 10
221.426232
 20
162.155952
 30
0.0
 11
221.426232
 21
107.555952
 31
0.0
  0
LINE
  5
170
100
AcDbEntity
  8
0
  6
CONTINUOUS
 62
     7
100
AcDbLine
 10
235.726232
 20
88.955952
 30
0.0
 11
230.491332
 21
89.166695
 31
0.0
  0
LINE
  5
171
100
AcDbEntity
  8
0
  6
CONTINUOUS
 62
     7
100
AcDbLine
 10
235.726232
 20
163.155952
 30
0.0
 11
235.726232
 21
88.955952
 31
0.0
  0
ARC
  5
172
100
AcDbEntity
  8
0
  6
CONTINUOUS
 62
     7
100
AcDbCircle
 10
230.526232
 20
90.166086
 30
0.0
 40
1.0
100
AcDbArc
 50
180.0
 51
268.0
  0
LINE
  5
173
100
AcDbEntity
  8
0
  6
CONTINUOUS
 62
     7
100
AcDbLine
 10
229.526232
 20
162.155952
 30
0.0
 11
229.526232
 21
90.166086
 31
0.0
  0
LINE
  5
174
100
AcDbEntity
  8
0
  6
CONTINUOUS
 62
     7
100
AcDbLine
 10
235.726232
 20
163.155952
 30
0.0
 11
222.426232
 21
163.155952
 31
0.0
  0
ARC
  5
175
100
AcDbEntity
  8
0
  6
CONTINUOUS
 62
     7
100
AcDbCircle
 10
230.526232
 20
162.155952
 30
0.0
 40
1.0
100
AcDbArc
 50
90.0
 51
180.0
  0
ARC
  5
176
100
AcDbEntity
  8
0
  6
CONTINUOUS
 62
     7
100
AcDbCircle
 10
222.426232
 20
107.555952
 30
0.0
 40
1.0
100
AcDbArc
 50
180.0
 51
270.0
  0
ARC
  5
177
100
AcDbEntity
  8
0
  6
CONTINUOUS
 62
     7
100
AcDbCircle
 10
222.426232
 20
162.155952
 30
0.0
 40
1.0
100
AcDbArc
 50
90.0
 51
180.0
  0
LINE
  5
178
100
AcDbEntity
  8
GR1_01
  6
CONTINUOUS
 62
     7
100
AcDbLine
 10
130.064164
 20
93.955952
 30
0.0
 11
61.064164
 21
93.955952
 31
0.0
  0
LINE
  5
179
100
AcDbEntity
  8
GR1_01
  6
CONTINUOUS
 62
     7
100
AcDbLine
 10
142.064164
 20
158.655952
 30
0.0
 11
132.064164
 21
158.655952
 31
0.0
  0
LINE
  5
17A
100
AcDbEntity
  8
GR1_01
  6
CONTINUOUS
 62
     7
100
AcDbLine
 10
137.064164
 20
163.655952
 30
0.0
 11
137.064164
 21
153.655952
 31
0.0
  0
ARC
  5
17B
100
AcDbEntity
  8
GR1_01
  6
CONTINUOUS
 62
     7
100
AcDbCircle
 10
38.164164
 20
162.155952
 30
0.0
 40
1.0
100
AcDbArc
 50
90.0
 51
180.0
  0
LINE
  5
17C
100
AcDbEntity
  8
GR1_01
  6
CONTINUOUS
 62
     7
100
AcDbLine
 10
222.426232
 20
106.555952
 30
0.0
 11
229.526232
 21
106.555952
 31
0.0
  0
LINE
  5
17D
100
AcDbEntity
  8
GR1_01
  6
CONTINUOUS
 62
     7
100
AcDbLine
 10
130.064164
 20
106.555952
 30
0.0
 11
130.064164
 21
93.955952
 31
0.0
  0
LINE
  5
17E
100
AcDbEntity
  8
GR1_01
  6
CONTINUOUS
 62
     7
100
AcDbLine
 10
61.064164
 20
106.555952
 30
0.0
 11
61.064164
 21
93.955952
 31
0.0
  0
LINE
  5
17F
100
AcDbEntity
  8
GR1_01
  6
CONTINUOUS
 62
     7
100
AcDbLine
 10
130.564164
 20
106.555952
 30
0.0
 11
38.164164
 21
106.555952
 31
0.0
  0
ARC
  5
180
100
AcDbEntity
  8
GR1_01
  6
CONTINUOUS
 62
     7
100
AcDbCircle
 10
130.564164
 20
107.555952
 30
0.0
 40
1.0
100
AcDbArc
 50
270.0
 51
0.0
  0
ARC
  5
181
100
AcDbEntity
  8
GR1_01
  6
CONTINUOUS
 62
     7
100
AcDbCircle
 10
38.164164
 20
107.555952
 30
0.0
 40
1.0
100
AcDbArc
 50
180.0
 51
270.0
  0
LINE
  5
182
100
AcDbEntity
  8
GR1_01
  6
CONTINUOUS
 62
     7
100
AcDbLine
 10
56.064164
 20
93.955952
 30
0.0
 11
42.064164
 21
93.955952
 31
0.0
  0
LINE
  5
183
100
AcDbEntity
  8
GR1_01
  6
CONTINUOUS
 62
     7
100
AcDbLine
 10
56.064164
 20
106.555952
 30
0.0
 11
56.064164
 21
93.955952
 31
0.0
  0
LINE
  5
184
100
AcDbEntity
  8
GR1_01
  6
CONTINUOUS
 62
     7
100
AcDbLine
 10
125.035834
 20
106.555952
 30
0.0
 11
125.035834
 21
108.055952
 31
0.0
  0
LINE
  5
185
100
AcDbEntity
  8
GR1_01
  6
CONTINUOUS
 62
     7
100
AcDbLine
 10
120.192494
 20
106.555952
 30
0.0
 11
120.192494
 21
108.055952
 31
0.0
  0
LINE
  5
186
100
AcDbEntity
  8
GR1_01
  6
CONTINUOUS
 62
     7
100
AcDbLine
 10
125.364164
 20
108.055952
 30
0.0
 11
119.864164
 21
108.055952
 31
0.0
  0
LINE
  5
187
100
AcDbEntity
  8
GR1_01
  6
CONTINUOUS
 62
     7
100
AcDbLine
 10
120.349717
 20
108.055952
 30
0.0
 11
120.349717
 21
108.755952
 31
0.0
  0
LINE
  5
188
100
AcDbEntity
  8
GR1_01
  6
CONTINUOUS
 62
     7
100
AcDbLine
 10
124.878611
 20
108.055952
 30
0.0
 11
124.878611
 21
108.755952
 31
0.0
  0
LINE
  5
189
100
AcDbEntity
  8
GR1_01
  6
CONTINUOUS
 62
     7
100
AcDbLine
 10
124.931018
 20
108.055952
 30
0.0
 11
124.931018
 21
108.755952
 31
0.0
  0
LINE
  5
18A
100
AcDbEntity
  8
GR1_01
  6
CONTINUOUS
 62
     7
100
AcDbLine
 10
120.297309
 20
108.055952
 30
0.0
 11
120.297309
 21
108.755952
 31
0.0
  0
LINE
  5
18B
100
AcDbEntity
  8
GR1_01
  6
CONTINUOUS
 62
     7
100
AcDbLine
 10
119.864164
 20
108.055952
 30
0.0
 11
119.864164
 21
108.755952
 31
0.0
  0
LINE
  5
18C
100
AcDbEntity
  8
GR1_01
  6
CONTINUOUS
 62
     7
100
AcDbLine
 10
125.364164
 20
108.055952
 30
0.0
 11
125.364164
 21
108.755952
 31
0.0
  0
LINE
  5
18D
100
AcDbEntity
  8
GR1_01
  6
CONTINUOUS
 62
     7
100
AcDbLine
 10
119.864164
 20
108.755952
 30
0.0
 11
125.364164
 21
108.755952
 31
0.0
  0
LINE
  5
18E
100
AcDbEntity
  8
GR1_01
  6
CONTINUOUS
 62
     7
100
AcDbLine
 10
108.035834
 20
106.555952
 30
0.0
 11
108.035834
 21
108.055952
 31
0.0
  0
LINE
  5
18F
100
AcDbEntity
  8
GR1_01
  6
CONTINUOUS
 62
     7
100
AcDbLine
 10
103.192494
 20
106.555952
 30
0.0
 11
103.192494
 21
108.055952
 31
0.0
  0
LINE
  5
190
100
AcDbEntity
  8
GR1_01
  6
CONTINUOUS
 62
     7
100
AcDbLine
 10
108.364164
 20
108.055952
 30
0.0
 11
102.864164
 21
108.055952
 31
0.0
  0
LINE
  5
191
100
AcDbEntity
  8
GR1_01
  6
CONTINUOUS
 62
     7
100
AcDbLine
 10
103.349717
 20
108.055952
 30
0.0
 11
103.349717
 21
108.755952
 31
0.0
  0
LINE
  5
192
100
AcDbEntity
  8
GR1_01
  6
CONTINUOUS
 62
     7
100
AcDbLine
 10
107.878611
 20
108.055952
 30
0.0
 11
107.878611
 21
108.755952
 31
0.0
  0
LINE
  5
193
100
AcDbEntity
  8
GR1_01
  6
CONTINUOUS
 62
     7
100
AcDbLine
 10
107.931018
 20
108.055952
 30
0.0
 11
107.931018
 21
108.755952
 31
0.0
  0
LINE
  5
194
100
AcDbEntity
  8
GR1_01
  6
CONTINUOUS
 62
     7
100
AcDbLine
 10
103.297309
 20
108.055952
 30
0.0
 11
103.297309
 21
108.755952
 31
0.0
  0
LINE
  5
195
100
AcDbEntity
  8
GR1_01
  6
CONTINUOUS
 62
     7
100
AcDbLine
 10
102.864164
 20
108.055952
 30
0.0
 11
102.864164
 21
108.755952
 31
0.0
  0
LINE
  5
196
100
AcDbEntity
  8
GR1_01
  6
CONTINUOUS
 62
     7
100
AcDbLine
 10
108.364164
 20
108.055952
 30
0.0
 11
108.364164
 21
108.755952
 31
0.0
  0
LINE
  5
197
100
AcDbEntity
  8
GR1_01
  6
CONTINUOUS
 62
     7
100
AcDbLine
 10
102.864164
 20
108.755952
 30
0.0
 11
108.364164
 21
108.755952
 31
0.0
  0
LINE
  5
198
100
AcDbEntity
  8
GR1_01
  6
CONTINUOUS
 62
     7
100
AcDbLine
 10
91.035834
 20
106.555952
 30
0.0
 11
91.035834
 21
108.055952
 31
0.0
  0
LINE
  5
199
100
AcDbEntity
  8
GR1_01
  6
CONTINUOUS
 62
     7
100
AcDbLine
 10
86.192494
 20
106.555952
 30
0.0
 11
86.192494
 21
108.055952
 31
0.0
  0
LINE
  5
19A
100
AcDbEntity
  8
GR1_01
  6
CONTINUOUS
 62
     7
100
AcDbLine
 10
91.364164
 20
108.055952
 30
0.0
 11
85.864164
 21
108.055952
 31
0.0
  0
LINE
  5
19B
100
AcDbEntity
  8
GR1_01
  6
CONTINUOUS
 62
     7
100
AcDbLine
 10
86.349717
 20
108.055952
 30
0.0
 11
86.349717
 21
108.755952
 31
0.0
  0
LINE
  5
19C
100
AcDbEntity
  8
GR1_01
  6
CONTINUOUS
 62
     7
100
AcDbLine
 10
90.878611
 20
108.055952
 30
0.0
 11
90.878611
 21
108.755952
 31
0.0
  0
LINE
  5
19D
100
AcDbEntity
  8
GR1_01
  6
CONTINUOUS
 62
     7
100
AcDbLine
 10
90.931018
 20
108.055952
 30
0.0
 11
90.931018
 21
108.755952
 31
0.0
  0
LINE
  5
19E
100
AcDbEntity
  8
GR1_01
  6
CONTINUOUS
 62
     7
100
AcDbLine
 10
86.297309
 20
108.055952
 30
0.0
 11
86.297309
 21
108.755952
 31
0.0
  0
LINE
  5
19F
100
AcDbEntity
  8
GR1_01
  6
CONTINUOUS
 62
     7
100
AcDbLine
 10
85.864164
 20
108.055952
 30
0.0
 11
85.864164
 21
108.755952
 31
0.0
  0
LINE
  5
1A0
100
AcDbEntity
  8
GR1_01
  6
CONTINUOUS
 62
     7
100
AcDbLine
 10
91.364164
 20
108.055952
 30
0.0
 11
91.364164
 21
108.755952
 31
0.0
  0
LINE
  5
1A1
100
AcDbEntity
  8
GR1_01
  6
CONTINUOUS
 62
     7
100
AcDbLine
 10
85.864164
 20
108.755952
 30
0.0
 11
91.364164
 21
108.755952
 31
0.0
  0
LINE
  5
1A2
100
AcDbEntity
  8
GR1_01
  6
CONTINUOUS
 62
     7
100
AcDbLine
 10
74.035834
 20
106.555952
 30
0.0
 11
74.035834
 21
108.055952
 31
0.0
  0
LINE
  5
1A3
100
AcDbEntity
  8
GR1_01
  6
CONTINUOUS
 62
     7
100
AcDbLine
 10
69.192494
 20
106.555952
 30
0.0
 11
69.192494
 21
108.055952
 31
0.0
  0
LINE
  5
1A4
100
AcDbEntity
  8
GR1_01
  6
CONTINUOUS
 62
     7
100
AcDbLine
 10
74.364164
 20
108.055952
 30
0.0
 11
68.864164
 21
108.055952
 31
0.0
  0
LINE
  5
1A5
100
AcDbEntity
  8
GR1_01
  6
CONTINUOUS
 62
     7
100
AcDbLine
 10
69.349717
 20
108.055952
 30
0.0
 11
69.349717
 21
108.755952
 31
0.0
  0
LINE
  5
1A6
100
AcDbEntity
  8
GR1_01
  6
CONTINUOUS
 62
     7
100
AcDbLine
 10
73.878611
 20
108.055952
 30
0.0
 11
73.878611
 21
108.755952
 31
0.0
  0
LINE
  5
1A7
100
AcDbEntity
  8
GR1_01
  6
CONTINUOUS
 62
     7
100
AcDbLine
 10
73.931018
 20
108.055952
 30
0.0
 11
73.931018
 21
108.755952
 31
0.0
  0
LINE
  5
1A8
100
AcDbEntity
  8
GR1_01
  6
CONTINUOUS
 62
     7
100
AcDbLine
 10
69.297309
 20
108.055952
 30
0.0
 11
69.297309
 21
108.755952
 31
0.0
  0
LINE
  5
1A9
100
AcDbEntity
  8
GR1_01
  6
CONTINUOUS
 62
     7
100
AcDbLine
 10
68.864164
 20
108.055952
 30
0.0
 11
68.864164
 21
108.755952
 31
0.0
  0
LINE
  5
1AA
100
AcDbEntity
  8
GR1_01
  6
CONTINUOUS
 62
     7
100
AcDbLine
 10
74.364164
 20
108.055952
 30
0.0
 11
74.364164
 21
108.755952
 31
0.0
  0
LINE
  5
1AB
100
AcDbEntity
  8
GR1_01
  6
CONTINUOUS
 62
     7
100
AcDbLine
 10
68.864164
 20
108.755952
 30
0.0
 11
74.364164
 21
108.755952
 31
0.0
  0
LINE
  5
1AC
100
AcDbEntity
  8
GR1_01
  6
CONTINUOUS
 62
     7
100
AcDbLine
 10
42.064164
 20
106.555952
 30
0.0
 11
42.064164
 21
93.955952
 31
0.0
  0
CIRCLE
  5
1AD
100
AcDbEntity
  8
GR1_01
  6
CONTINUOUS
100
AcDbCircle
 10
67.864164
 20
109.775952
 30
0.0
 40
0.32
  0
ARC
  5
1AE
100
AcDbEntity
  8
GR1_01
  6
CONTINUOUS
100
AcDbCircle
 10
67.864164
 20
109.775952
 30
0.0
 40
0.52
100
AcDbArc
 50
163.566306
 51
16.433694
  0
LINE
  5
1AF
100
AcDbEntity
  8
GR1_01
  6
CONTINUOUS
100
AcDbLine
 10
67.664164
 20
111.735952
 30
0.0
 11
68.064164
 21
111.735952
 31
0.0
  0
LINE
  5
1B0
100
AcDbEntity
  8
GR1_01
  6
CONTINUOUS
100
AcDbLine
 10
68.064164
 20
110.935952
 30
0.0
 11
67.664164
 21
110.935952
 31
0.0
  0
LINE
  5
1B1
100
AcDbEntity
  8
GR1_01
  6
CONTINUOUS
100
AcDbLine
 10
67.664164
 20
111.735952
 30
0.0
 11
67.664164
 21
110.935952
 31
0.0
  0
LINE
  5
1B2
100
AcDbEntity
  8
GR1_01
  6
CONTINUOUS
100
AcDbLine
 10
68.064164
 20
110.935952
 30
0.0
 11
68.064164
 21
111.735952
 31
0.0
  0
LINE
  5
1B3
100
AcDbEntity
  8
GR1_01
  6
CONTINUOUS
100
AcDbLine
 10
67.664164
 20
110.935952
 30
0.0
 11
67.365407
 21
109.923063
 31
0.0
  0
LINE
  5
1B4
100
AcDbEntity
  8
GR1_01
  6
CONTINUOUS
100
AcDbLine
 10
68.064164
 20
110.935952
 30
0.0
 11
68.362921
 21
109.923063
 31
0.0
  0
MTEXT
  5
1B5
100
AcDbEntity
  8
GR2_01
100
AcDbMText
 10
68.864158
 20
108.946033
 30
0.0
 40
1.893924
 41
7.102273
 71
     7
 72
     5
  1
\C7;\fMS ????|b0|i0|;\H1.8939235806465;\U+FF32\U+FF2A\U+FF23
  0
CIRCLE
  5
1B6
100
AcDbEntity
  8
GR1_01
  6
CONTINUOUS
100
AcDbCircle
 10
84.864164
 20
109.775952
 30
0.0
 40
0.32
  0
ARC
  5
1B7
100
AcDbEntity
  8
GR1_01
  6
CONTINUOUS
100
AcDbCircle
 10
84.864164
 20
109.775952
 30
0.0
 40
0.52
100
AcDbArc
 50
163.566306
 51
16.433694
  0
LINE
  5
1B8
100
AcDbEntity
  8
GR1_01
  6
CONTINUOUS
100
AcDbLine
 10
84.664164
 20
111.735952
 30
0.0
 11
85.064164
 21
111.735952
 31
0.0
  0
LINE
  5
1B9
100
AcDbEntity
  8
GR1_01
  6
CONTINUOUS
100
AcDbLine
 10
85.064164
 20
110.935952
 30
0.0
 11
84.664164
 21
110.935952
 31
0.0
  0
LINE
  5
1BA
100
AcDbEntity
  8
GR1_01
  6
CONTINUOUS
100
AcDbLine
 10
84.664164
 20
111.735952
 30
0.0
 11
84.664164
 21
110.935952
 31
0.0
  0
LINE
  5
1BB
100
AcDbEntity
  8
GR1_01
  6
CONTINUOUS
100
AcDbLine
 10
85.064164
 20
110.935952
 30
0.0
 11
85.064164
 21
111.735952
 31
0.0
  0
LINE
  5
1BC
100
AcDbEntity
  8
GR1_01
  6
CONTINUOUS
100
AcDbLine
 10
84.664164
 20
110.935952
 30
0.0
 11
84.365407
 21
109.923063
 31
0.0
  0
LINE
  5
1BD
100
AcDbEntity
  8
GR1_01
  6
CONTINUOUS
100
AcDbLine
 10
85.064164
 20
110.935952
 30
0.0
 11
85.362921
 21
109.923063
 31
0.0
  0
MTEXT
  5
1BE
100
AcDbEntity
  8
GR2_01
100
AcDbMText
 10
85.864143
 20
108.946033
 30
0.0
 40
1.893924
 41
7.102273
 71
     7
 72
     5
  1
\C7;\fMS ????|b0|i0|;\H1.8939235806465;\U+FF32\U+FF2A\U+FF23
  0
CIRCLE
  5
1BF
100
AcDbEntity
  8
GR1_01
  6
CONTINUOUS
100
AcDbCircle
 10
101.864164
 20
109.775952
 30
0.0
 40
0.32
  0
ARC
  5
1C0
100
AcDbEntity
  8
GR1_01
  6
CONTINUOUS
100
AcDbCircle
 10
101.864164
 20
109.775952
 30
0.0
 40
0.52
100
AcDbArc
 50
163.566306
 51
16.433694
  0
LINE
  5
1C1
100
AcDbEntity
  8
GR1_01
  6
CONTINUOUS
100
AcDbLine
 10
101.664164
 20
111.735952
 30
0.0
 11
102.064164
 21
111.735952
 31
0.0
  0
LINE
  5
1C2
100
AcDbEntity
  8
GR1_01
  6
CONTINUOUS
100
AcDbLine
 10
102.064164
 20
110.935952
 30
0.0
 11
101.664164
 21
110.935952
 31
0.0
  0
LINE
  5
1C3
100
AcDbEntity
  8
GR1_01
  6
CONTINUOUS
100
AcDbLine
 10
101.664164
 20
111.735952
 30
0.0
 11
101.664164
 21
110.935952
 31
0.0
  0
LINE
  5
1C4
100
AcDbEntity
  8
GR1_01
  6
CONTINUOUS
100
AcDbLine
 10
102.064164
 20
110.935952
 30
0.0
 11
102.064164
 21
111.735952
 31
0.0
  0
LINE
  5
1C5
100
AcDbEntity
  8
GR1_01
  6
CONTINUOUS
100
AcDbLine
 10
101.664164
 20
110.935952
 30
0.0
 11
101.365407
 21
109.923063
 31
0.0
  0
LINE
  5
1C6
100
AcDbEntity
  8
GR1_01
  6
CONTINUOUS
100
AcDbLine
 10
102.064164
 20
110.935952
 30
0.0
 11
102.362921
 21
109.923063
 31
0.0
  0
MTEXT
  5
1C7
100
AcDbEntity
  8
GR2_01
100
AcDbMText
 10
102.864143
 20
108.946033
 30
0.0
 40
1.893924
 41
7.102273
 71
     7
 72
     5
  1
\C7;\fMS ????|b0|i0|;\H1.8939235806465;\U+FF32\U+FF2A\U+FF23
  0
CIRCLE
  5
1C8
100
AcDbEntity
  8
GR1_01
  6
CONTINUOUS
100
AcDbCircle
 10
118.864164
 20
109.775952
 30
0.0
 40
0.32
  0
ARC
  5
1C9
100
AcDbEntity
  8
GR1_01
  6
CONTINUOUS
100
AcDbCircle
 10
118.864164
 20
109.775952
 30
0.0
 40
0.52
100
AcDbArc
 50
163.566306
 51
16.433694
  0
LINE
  5
1CA
100
AcDbEntity
  8
GR1_01
  6
CONTINUOUS
100
AcDbLine
 10
118.664164
 20
111.735952
 30
0.0
 11
119.064164
 21
111.735952
 31
0.0
  0
LINE
  5
1CB
100
AcDbEntity
  8
GR1_01
  6
CONTINUOUS
100
AcDbLine
 10
119.064164
 20
110.935952
 30
0.0
 11
118.664164
 21
110.935952
 31
0.0
  0
LINE
  5
1CC
100
AcDbEntity
  8
GR1_01
  6
CONTINUOUS
100
AcDbLine
 10
118.664164
 20
111.735952
 30
0.0
 11
118.664164
 21
110.935952
 31
0.0
  0
LINE
  5
1CD
100
AcDbEntity
  8
GR1_01
  6
CONTINUOUS
100
AcDbLine
 10
119.064164
 20
110.935952
 30
0.0
 11
119.064164
 21
111.735952
 31
0.0
  0
LINE
  5
1CE
100
AcDbEntity
  8
GR1_01
  6
CONTINUOUS
100
AcDbLine
 10
118.664164
 20
110.935952
 30
0.0
 11
118.365407
 21
109.923063
 31
0.0
  0
LINE
  5
1CF
100
AcDbEntity
  8
GR1_01
  6
CONTINUOUS
100
AcDbLine
 10
119.064164
 20
110.935952
 30
0.0
 11
119.362921
 21
109.923063
 31
0.0
  0
MTEXT
  5
1D0
100
AcDbEntity
  8
GR2_01
100
AcDbMText
 10
119.864143
 20
108.946033
 30
0.0
 40
1.893924
 41
7.102273
 71
     7
 72
     5
  1
\C7;\fMS ????|b0|i0|;\H1.8939235806465;\U+FF32\U+FF2A\U+FF23
  0
MTEXT
  5
1D1
100
AcDbEntity
  8
GR2_01
100
AcDbMText
 10
18.864162
 20
150.184053
 30
0.0
 40
2.272708
 41
11.363636
 71
     8
 72
     5
  1
\C94;\fMS ????|b0|i0|;\H2.2727082967758;\U+FF23\U+FF2F\U+FF2E\U+FF11
  0
MTEXT
  5
1D2
100
AcDbEntity
  8
GR2_01
100
AcDbMText
 10
30.864174
 20
150.184053
 30
0.0
 40
2.272708
 41
11.363636
 71
     8
 72
     5
  1
\C94;\fMS ????|b0|i0|;\H2.2727082967758;\U+FF23\U+FF2F\U+FF2E\U+FF12
  0
CIRCLE
  5
1D3
100
AcDbEntity
  8
0
  6
CONTINUOUS
 62
     7
100
AcDbCircle
 10
136.564164
 20
126.055952
 30
0.0
 40
1.0
  0
LINE
  5
1D4
100
AcDbEntity
  8
GR2_01
  6
CONTINUOUS
100
AcDbLine
 10
134.564164
 20
129.180952
 30
0.0
 11
138.564164
 21
129.180952
 31
0.0
  0
LINE
  5
1D5
100
AcDbEntity
  8
GR2_01
  6
CONTINUOUS
100
AcDbLine
 10
133.564164
 20
131.930952
 30
0.0
 11
133.564164
 21
130.180952
 31
0.0
  0
MTEXT
  5
1D6
100
AcDbEntity
  8
GR2_01
100
AcDbMText
 10
136.564155
 20
129.620836
 30
0.0
 40
1.74246
 41
4.356061
 71
     8
 72
     5
  1
\C7;\fMS ????|b0|i0|;\H1.742459654808;\U+FF30\U+FF37
  0
ARC
  5
1D7
100
AcDbEntity
  8
GR2_01
  6
CONTINUOUS
100
AcDbCircle
 10
134.564164
 20
131.930952
 30
0.0
 40
1.0
100
AcDbArc
 50
90.0
 51
180.0
  0
ARC
  5
1D8
100
AcDbEntity
  8
GR2_01
  6
CONTINUOUS
100
AcDbCircle
 10
134.564164
 20
130.180952
 30
0.0
 40
1.0
100
AcDbArc
 50
180.0
 51
270.0
  0
ARC
  5
1D9
100
AcDbEntity
  8
GR2_01
  6
CONTINUOUS
100
AcDbCircle
 10
138.564164
 20
130.180952
 30
0.0
 40
1.0
100
AcDbArc
 50
270.0
 51
0.0
  0
ARC
  5
1DA
100
AcDbEntity
  8
GR2_01
  6
CONTINUOUS
100
AcDbCircle
 10
138.564164
 20
131.930952
 30
0.0
 40
1.0
100
AcDbArc
 50
0.0
 51
90.0
  0
LINE
  5
1DB
100
AcDbEntity
  8
GR2_01
  6
CONTINUOUS
100
AcDbLine
 10
139.564164
 20
131.930952
 30
0.0
 11
139.564164
 21
130.180952
 31
0.0
  0
LINE
  5
1DC
100
AcDbEntity
  8
GR2_01
  6
CONTINUOUS
100
AcDbLine
 10
134.564164
 20
132.930952
 30
0.0
 11
138.564164
 21
132.930952
 31
0.0
  0
LINE
  5
1DD
100
AcDbEntity
  8
0
  6
CONTINUOUS
 62
     7
100
AcDbLine
 10
55.564164
 20
99.061949
 30
0.0
 11
42.634164
 21
99.061949
 31
0.0
  0
LINE
  5
1DE
100
AcDbEntity
  8
0
  6
CONTINUOUS
 62
     7
100
AcDbLine
 10
55.564164
 20
102.155952
 30
0.0
 11
42.634164
 21
102.155952
 31
0.0
  0
LINE
  5
1DF
100
AcDbEntity
  8
0
  6
CONTINUOUS
 62
     7
100
AcDbLine
 10
53.584164
 20
97.540467
 30
0.0
 11
55.564164
 21
97.540467
 31
0.0
  0
LINE
  5
1E0
100
AcDbEntity
  8
0
  6
CONTINUOUS
 62
     7
100
AcDbLine
 10
53.584164
 20
98.742548
 30
0.0
 11
50.734164
 21
98.742548
 31
0.0
  0
LINE
  5
1E1
100
AcDbEntity
  8
0
  6
CONTINUOUS
 62
     7
100
AcDbLine
 10
49.774164
 20
97.540467
 30
0.0
 11
50.734164
 21
97.540467
 31
0.0
  0
LINE
  5
1E2
100
AcDbEntity
  8
0
  6
CONTINUOUS
 62
     7
100
AcDbLine
 10
49.774164
 20
98.742548
 30
0.0
 11
46.924164
 21
98.742548
 31
0.0
  0
LINE
  5
1E3
100
AcDbEntity
  8
0
  6
CONTINUOUS
 62
     7
100
AcDbLine
 10
45.964164
 20
97.540467
 30
0.0
 11
46.924164
 21
97.540467
 31
0.0
  0
LINE
  5
1E4
100
AcDbEntity
  8
0
  6
CONTINUOUS
 62
     7
100
AcDbLine
 10
45.964164
 20
98.742548
 30
0.0
 11
43.114164
 21
98.742548
 31
0.0
  0
LINE
  5
1E5
100
AcDbEntity
  8
0
  6
CONTINUOUS
 62
     7
100
AcDbLine
 10
42.634164
 20
97.540467
 30
0.0
 11
43.114164
 21
97.540467
 31
0.0
  0
LINE
  5
1E6
100
AcDbEntity
  8
0
  6
CONTINUOUS
 62
     7
100
AcDbLine
 10
43.114164
 20
98.201719
 30
0.0
 11
45.964164
 21
98.201719
 31
0.0
  0
LINE
  5
1E7
100
AcDbEntity
  8
0
  6
CONTINUOUS
 62
     7
100
AcDbLine
 10
46.924164
 20
98.201719
 30
0.0
 11
49.774164
 21
98.201719
 31
0.0
  0
LINE
  5
1E8
100
AcDbEntity
  8
0
  6
CONTINUOUS
 62
     7
100
AcDbLine
 10
50.734164
 20
98.201719
 30
0.0
 11
53.584164
 21
98.201719
 31
0.0
  0
LINE
  5
1E9
100
AcDbEntity
  8
0
  6
CONTINUOUS
 62
     7
100
AcDbLine
 10
55.564164
 20
97.045492
 30
0.0
 11
53.654164
 21
97.045492
 31
0.0
  0
LINE
  5
1EA
100
AcDbEntity
  8
0
  6
CONTINUOUS
 62
     7
100
AcDbLine
 10
46.034164
 20
97.045492
 30
0.0
 11
46.444164
 21
97.045492
 31
0.0
  0
LINE
  5
1EB
100
AcDbEntity
  8
0
  6
CONTINUOUS
 62
     7
100
AcDbLine
 10
46.034164
 20
97.222269
 30
0.0
 11
42.634164
 21
97.222269
 31
0.0
  0
LINE
  5
1EC
100
AcDbEntity
  8
0
  6
CONTINUOUS
 62
     7
100
AcDbLine
 10
53.654164
 20
97.222269
 30
0.0
 11
50.254164
 21
97.222269
 31
0.0
  0
LINE
  5
1ED
100
AcDbEntity
  8
0
  6
CONTINUOUS
 62
     7
100
AcDbLine
 10
49.844164
 20
97.045492
 30
0.0
 11
50.254164
 21
97.045492
 31
0.0
  0
LINE
  5
1EE
100
AcDbEntity
  8
0
  6
CONTINUOUS
 62
     7
100
AcDbLine
 10
49.844164
 20
97.222269
 30
0.0
 11
46.444164
 21
97.222269
 31
0.0
  0
LINE
  5
1EF
100
AcDbEntity
  8
0
  6
CONTINUOUS
 62
     7
100
AcDbLine
 10
43.114164
 20
97.299879
 30
0.0
 11
45.964164
 21
97.299879
 31
0.0
  0
LINE
  5
1F0
100
AcDbEntity
  8
0
  6
CONTINUOUS
 62
     7
100
AcDbLine
 10
46.924164
 20
97.299879
 30
0.0
 11
49.774164
 21
97.299879
 31
0.0
  0
LINE
  5
1F1
100
AcDbEntity
  8
0
  6
CONTINUOUS
 62
     7
100
AcDbLine
 10
50.734164
 20
97.299879
 30
0.0
 11
53.584164
 21
97.299879
 31
0.0
  0
LINE
  5
1F2
100
AcDbEntity
  8
0
  6
CONTINUOUS
 62
     7
100
AcDbLine
 10
50.654164
 20
94.588296
 30
0.0
 11
50.654164
 21
96.851038
 31
0.0
  0
LINE
  5
1F3
100
AcDbEntity
  8
0
  6
CONTINUOUS
 62
     7
100
AcDbLine
 10
53.654164
 20
94.588296
 30
0.0
 11
50.654164
 21
94.588296
 31
0.0
  0
LINE
  5
1F4
100
AcDbEntity
  8
0
  6
CONTINUOUS
 62
     7
100
AcDbLine
 10
46.844164
 20
94.588296
 30
0.0
 11
46.844164
 21
96.851038
 31
0.0
  0
LINE
  5
1F5
100
AcDbEntity
  8
0
  6
CONTINUOUS
 62
     7
100
AcDbLine
 10
49.844164
 20
94.588296
 30
0.0
 11
46.844164
 21
94.588296
 31
0.0
  0
LINE
  5
1F6
100
AcDbEntity
  8
0
  6
CONTINUOUS
 62
     7
100
AcDbLine
 10
43.034164
 20
94.588296
 30
0.0
 11
43.034164
 21
96.851038
 31
0.0
  0
LINE
  5
1F7
100
AcDbEntity
  8
0
  6
CONTINUOUS
 62
     7
100
AcDbLine
 10
46.034164
 20
94.588296
 30
0.0
 11
43.034164
 21
94.588296
 31
0.0
  0
LINE
  5
1F8
100
AcDbEntity
  8
0
  6
CONTINUOUS
 62
     7
100
AcDbLine
 10
42.634164
 20
104.155952
 30
0.0
 11
55.564164
 21
104.155952
 31
0.0
  0
LINE
  5
1F9
100
AcDbEntity
  8
0
  6
CONTINUOUS
 62
     7
100
AcDbLine
 10
42.634164
 20
106.455952
 30
0.0
 11
55.564164
 21
106.455952
 31
0.0
  0
LINE
  5
1FA
100
AcDbEntity
  8
0
  6
CONTINUOUS
 62
     7
100
AcDbLine
 10
50.654164
 20
95.648956
 30
0.0
 11
50.96801
 21
96.851038
 31
0.0
  0
LINE
  5
1FB
100
AcDbEntity
  8
0
  6
CONTINUOUS
 62
     7
100
AcDbLine
 10
43.034164
 20
95.648956
 30
0.0
 11
43.34801
 21
96.851038
 31
0.0
  0
LINE
  5
1FC
100
AcDbEntity
  8
0
  6
CONTINUOUS
 62
     7
100
AcDbLine
 10
46.844164
 20
95.648956
 30
0.0
 11
47.15801
 21
96.851038
 31
0.0
  0
LINE
  5
1FD
100
AcDbEntity
  8
0
  6
CONTINUOUS
 62
     7
100
AcDbLine
 10
45.720318
 20
96.851038
 30
0.0
 11
46.034164
 21
95.648956
 31
0.0
  0
LINE
  5
1FE
100
AcDbEntity
  8
0
  6
CONTINUOUS
 62
     7
100
AcDbLine
 10
53.340318
 20
96.851038
 30
0.0
 11
53.654164
 21
95.648956
 31
0.0
  0
LINE
  5
1FF
100
AcDbEntity
  8
0
  6
CONTINUOUS
 62
     7
100
AcDbLine
 10
49.530318
 20
96.851038
 30
0.0
 11
49.844164
 21
95.648956
 31
0.0
  0
LINE
  5
200
100
AcDbEntity
  8
0
  6
CONTINUOUS
 62
     7
100
AcDbLine
 10
46.034164
 20
95.648956
 30
0.0
 11
43.034164
 21
95.648956
 31
0.0
  0
LINE
  5
201
100
AcDbEntity
  8
0
  6
CONTINUOUS
 62
     7
100
AcDbLine
 10
49.844164
 20
95.648956
 30
0.0
 11
46.844164
 21
95.648956
 31
0.0
  0
LINE
  5
202
100
AcDbEntity
  8
0
  6
CONTINUOUS
 62
     7
100
AcDbLine
 10
53.654164
 20
95.648956
 30
0.0
 11
50.654164
 21
95.648956
 31
0.0
  0
LINE
  5
203
100
AcDbEntity
  8
0
  6
CONTINUOUS
 62
     7
100
AcDbLine
 10
55.564164
 20
106.455952
 30
0.0
 11
55.564164
 21
94.455952
 31
0.0
  0
LINE
  5
204
100
AcDbEntity
  8
0
  6
CONTINUOUS
 62
     7
100
AcDbLine
 10
42.634164
 20
106.455952
 30
0.0
 11
42.634164
 21
94.455952
 31
0.0
  0
LINE
  5
205
100
AcDbEntity
  8
0
  6
CONTINUOUS
 62
     7
100
AcDbLine
 10
53.584164
 20
98.742548
 30
0.0
 11
53.584164
 21
97.299879
 31
0.0
  0
LINE
  5
206
100
AcDbEntity
  8
0
  6
CONTINUOUS
 62
     7
100
AcDbLine
 10
50.734164
 20
98.742548
 30
0.0
 11
50.734164
 21
97.299879
 31
0.0
  0
LINE
  5
207
100
AcDbEntity
  8
0
  6
CONTINUOUS
 62
     7
100
AcDbLine
 10
49.774164
 20
98.742548
 30
0.0
 11
49.774164
 21
97.299879
 31
0.0
  0
LINE
  5
208
100
AcDbEntity
  8
0
  6
CONTINUOUS
 62
     7
100
AcDbLine
 10
46.924164
 20
98.742548
 30
0.0
 11
46.924164
 21
97.299879
 31
0.0
  0
LINE
  5
209
100
AcDbEntity
  8
0
  6
CONTINUOUS
 62
     7
100
AcDbLine
 10
45.964164
 20
98.742548
 30
0.0
 11
45.964164
 21
97.299879
 31
0.0
  0
LINE
  5
20A
100
AcDbEntity
  8
0
  6
CONTINUOUS
 62
     7
100
AcDbLine
 10
43.114164
 20
98.742548
 30
0.0
 11
43.114164
 21
97.299879
 31
0.0
  0
LINE
  5
20B
100
AcDbEntity
  8
0
  6
CONTINUOUS
 62
     7
100
AcDbLine
 10
55.564164
 20
94.455952
 30
0.0
 11
42.634164
 21
94.455952
 31
0.0
  0
LINE
  5
20C
100
AcDbEntity
  8
0
  6
CONTINUOUS
 62
     7
100
AcDbLine
 10
53.654164
 20
94.455952
 30
0.0
 11
53.654164
 21
97.222269
 31
0.0
  0
LINE
  5
20D
100
AcDbEntity
  8
0
  6
CONTINUOUS
 62
     7
100
AcDbLine
 10
46.444164
 20
97.222269
 30
0.0
 11
46.444164
 21
94.455952
 31
0.0
  0
LINE
  5
20E
100
AcDbEntity
  8
0
  6
CONTINUOUS
 62
     7
100
AcDbLine
 10
46.034164
 20
94.455952
 30
0.0
 11
46.034164
 21
97.222269
 31
0.0
  0
LINE
  5
20F
100
AcDbEntity
  8
0
  6
CONTINUOUS
 62
     7
100
AcDbLine
 10
49.844164
 20
94.455952
 30
0.0
 11
49.844164
 21
97.222269
 31
0.0
  0
LINE
  5
210
100
AcDbEntity
  8
0
  6
CONTINUOUS
 62
     7
100
AcDbLine
 10
50.254164
 20
94.455952
 30
0.0
 11
50.254164
 21
97.222269
 31
0.0
  0
LINE
  5
211
100
AcDbEntity
  8
0
  6
CONTINUOUS
 62
     7
100
AcDbLine
 10
50.654164
 20
96.851038
 30
0.0
 11
53.654164
 21
96.851038
 31
0.0
  0
LINE
  5
212
100
AcDbEntity
  8
0
  6
CONTINUOUS
 62
     7
100
AcDbLine
 10
46.844164
 20
96.851038
 30
0.0
 11
49.844164
 21
96.851038
 31
0.0
  0
LINE
  5
213
100
AcDbEntity
  8
0
  6
CONTINUOUS
 62
     7
100
AcDbLine
 10
43.034164
 20
96.851038
 30
0.0
 11
46.034164
 21
96.851038
 31
0.0
  0
LINE
  5
215
100
AcDbEntity
  8
\U+5E73\U+9762\U+56F3_\U+4F5C\U+56F3
  6
CONTINUOUS
100
AcDbLine
 10
49.774164
 20
98.44077
 30
0.0
 11
46.924164
 21
98.44077
 31
0.0
  0
LINE
  5
216
100
AcDbEntity
  8
\U+5E73\U+9762\U+56F3_\U+4F5C\U+56F3
  6
CONTINUOUS
100
AcDbLine
 10
53.584164
 20
98.44077
 30
0.0
 11
50.734164
 21
98.44077
 31
0.0
  0
LINE
  5
217
100
AcDbEntity
  8
\U+5E73\U+9762\U+56F3_\U+4F5C\U+56F3
  6
CONTINUOUS
100
AcDbLine
 10
45.964164
 20
98.44077
 30
0.0
 11
43.114164
 21
98.44077
 31
0.0
  0
LINE
  5
218
100
AcDbEntity
  8
\U+5E73\U+9762\U+56F3_\U+4F5C\U+56F3
  6
CONTINUOUS
100
AcDbLine
 10
45.964164
 20
97.466346
 30
0.0
 11
43.114164
 21
97.466346
 31
0.0
  0
LINE
  5
219
100
AcDbEntity
  8
\U+5E73\U+9762\U+56F3_\U+4F5C\U+56F3
  6
CONTINUOUS
100
AcDbLine
 10
49.774164
 20
97.466346
 30
0.0
 11
46.924164
 21
97.466346
 31
0.0
  0
LINE
  5
21A
100
AcDbEntity
  8
\U+5E73\U+9762\U+56F3_\U+4F5C\U+56F3
  6
CONTINUOUS
100
AcDbLine
 10
53.584164
 20
97.466346
 30
0.0
 11
50.734164
 21
97.466346
 31
0.0
  0
LINE
  5
21B
100
AcDbEntity
  8
\U+5E73\U+9762\U+56F3_\U+4F5C\U+56F3
  6
CONTINUOUS
100
AcDbLine
 10
43.034164
 20
97.222269
 30
0.0
 11
43.034164
 21
96.851038
 31
0.0
  0
LINE
  5
21C
100
AcDbEntity
  8
\U+5E73\U+9762\U+56F3_\U+4F5C\U+56F3
  6
CONTINUOUS
100
AcDbLine
 10
46.844164
 20
97.222269
 30
0.0
 11
46.844164
 21
96.851038
 31
0.0
  0
LINE
  5
21D
100
AcDbEntity
  8
\U+5E73\U+9762\U+56F3_\U+4F5C\U+56F3
  6
CONTINUOUS
100
AcDbLine
 10
50.654164
 20
97.222269
 30
0.0
 11
50.654164
 21
96.851038
 31
0.0
  0
LINE
  5
21E
100
AcDbEntity
  8
\U+5E73\U+9762\U+56F3_\U+4F5C\U+56F3
  6
CONTINUOUS
100
AcDbLine
 10
50.734164
 20
97.666346
 30
0.0
 11
53.584164
 21
97.666346
 31
0.0
  0
LINE
  5
21F
100
AcDbEntity
  8
\U+5E73\U+9762\U+56F3_\U+4F5C\U+56F3
  6
CONTINUOUS
100
AcDbLine
 10
43.114164
 20
97.666346
 30
0.0
 11
45.964164
 21
97.666346
 31
0.0
  0
LINE
  5
220
100
AcDbEntity
  8
\U+5E73\U+9762\U+56F3_\U+4F5C\U+56F3
  6
CONTINUOUS
100
AcDbLine
 10
46.924164
 20
97.666346
 30
0.0
 11
49.774164
 21
97.666346
 31
0.0
  0
CIRCLE
  5
221
100
AcDbEntity
  8
0
  6
CONTINUOUS
 62
     7
100
AcDbCircle
 10
52.254164
 20
103.155952
 30
0.0
 40
0.6
  0
CIRCLE
  5
222
100
AcDbEntity
  8
0
  6
CONTINUOUS
 62
     7
100
AcDbCircle
 10
48.444164
 20
103.155952
 30
0.0
 40
0.6
  0
CIRCLE
  5
223
100
AcDbEntity
  8
0
  6
CONTINUOUS
 62
     7
100
AcDbCircle
 10
44.634164
 20
103.155952
 30
0.0
 40
0.6
  0
LINE
  5
224
100
AcDbEntity
  8
GR1_01
  6
CONTINUOUS
 62
     7
100
AcDbLine
 10
62.664164
 20
162.195624
 30
0.0
 11
62.664164
 21
106.555952
 31
0.0
  0
LINE
  5
225
100
AcDbEntity
  8
GR1_01
  6
CONTINUOUS
 62
     7
100
AcDbLine
 10
37.164164
 20
162.155952
 30
0.0
 11
37.164164
 21
107.555952
 31
0.0
  0
LINE
  5
226
100
AcDbEntity
  8
GR2_01
  6
CONTINUOUS
 62
     7
100
AcDbLine
 10
64.164164
 20
161.655952
 30
0.0
 11
130.064164
 21
161.655952
 31
0.0
  0
LINE
  5
227
100
AcDbEntity
  8
GR1_01
  6
CONTINUOUS
 62
     7
100
AcDbLine
 10
131.564164
 20
162.155952
 30
0.0
 11
131.564164
 21
107.555952
 31
0.0
  0
ARC
  5
228
100
AcDbEntity
  8
GR1_01
  6
CONTINUOUS
 62
     7
100
AcDbCircle
 10
130.564164
 20
162.155952
 30
0.0
 40
1.0
100
AcDbArc
 50
0.0
 51
90.0
  0
LINE
  5
229
100
AcDbEntity
  8
GR1_01
  6
CONTINUOUS
 62
     7
100
AcDbLine
 10
130.064164
 20
161.655952
 30
0.0
 11
130.064164
 21
122.155952
 31
0.0
  0
LINE
  5
22A
100
AcDbEntity
  8
GR1_01
  6
CONTINUOUS
 62
     7
100
AcDbLine
 10
64.164164
 20
161.655952
 30
0.0
 11
64.164164
 21
122.155952
 31
0.0
  0
LINE
  5
22B
100
AcDbEntity
  8
GR2_01
  6
CONTINUOUS
100
AcDbLine
 10
128.114164
 20
163.155952
 30
0.0
 11
128.114164
 21
161.655952
 31
0.0
  0
LINE
  5
22C
100
AcDbEntity
  8
GR2_01
  6
CONTINUOUS
100
AcDbLine
 10
121.114164
 20
163.155952
 30
0.0
 11
121.114164
 21
161.655952
 31
0.0
  0
LINE
  5
22D
100
AcDbEntity
  8
GR2_01
  6
CONTINUOUS
100
AcDbLine
 10
128.114164
 20
122.155952
 30
0.0
 11
128.114164
 21
120.655952
 31
0.0
  0
LINE
  5
22E
100
AcDbEntity
  8
GR2_01
  6
CONTINUOUS
100
AcDbLine
 10
121.114164
 20
122.155952
 30
0.0
 11
121.114164
 21
120.655952
 31
0.0
  0
LINE
  5
22F
100
AcDbEntity
  8
GR2_01
  6
CONTINUOUS
100
AcDbLine
 10
111.114164
 20
163.155952
 30
0.0
 11
111.114164
 21
161.655952
 31
0.0
  0
LINE
  5
230
100
AcDbEntity
  8
GR2_01
  6
CONTINUOUS
100
AcDbLine
 10
104.114164
 20
163.155952
 30
0.0
 11
104.114164
 21
161.655952
 31
0.0
  0
LINE
  5
231
100
AcDbEntity
  8
GR2_01
  6
CONTINUOUS
100
AcDbLine
 10
111.114164
 20
122.155952
 30
0.0
 11
111.114164
 21
120.655952
 31
0.0
  0
LINE
  5
232
100
AcDbEntity
  8
GR2_01
  6
CONTINUOUS
100
AcDbLine
 10
104.114164
 20
122.155952
 30
0.0
 11
104.114164
 21
120.655952
 31
0.0
  0
LINE
  5
233
100
AcDbEntity
  8
GR2_01
  6
CONTINUOUS
100
AcDbLine
 10
94.114164
 20
163.155952
 30
0.0
 11
94.114164
 21
161.655952
 31
0.0
  0
LINE
  5
234
100
AcDbEntity
  8
GR2_01
  6
CONTINUOUS
100
AcDbLine
 10
87.114164
 20
163.155952
 30
0.0
 11
87.114164
 21
161.655952
 31
0.0
  0
LINE
  5
235
100
AcDbEntity
  8
GR2_01
  6
CONTINUOUS
100
AcDbLine
 10
94.114164
 20
122.155952
 30
0.0
 11
94.114164
 21
120.655952
 31
0.0
  0
LINE
  5
236
100
AcDbEntity
  8
GR2_01
  6
CONTINUOUS
100
AcDbLine
 10
87.114164
 20
122.155952
 30
0.0
 11
87.114164
 21
120.655952
 31
0.0
  0
LINE
  5
237
100
AcDbEntity
  8
GR2_01
  6
CONTINUOUS
100
AcDbLine
 10
77.114164
 20
163.155952
 30
0.0
 11
77.114164
 21
161.655952
 31
0.0
  0
LINE
  5
238
100
AcDbEntity
  8
GR2_01
  6
CONTINUOUS
100
AcDbLine
 10
70.114164
 20
163.155952
 30
0.0
 11
70.114164
 21
161.655952
 31
0.0
  0
LINE
  5
239
100
AcDbEntity
  8
GR2_01
  6
CONTINUOUS
100
AcDbLine
 10
77.114164
 20
122.155952
 30
0.0
 11
77.114164
 21
120.655952
 31
0.0
  0
LINE
  5
23A
100
AcDbEntity
  8
GR2_01
  6
CONTINUOUS
100
AcDbLine
 10
70.114164
 20
122.155952
 30
0.0
 11
70.114164
 21
120.655952
 31
0.0
  0
LINE
  5
23B
100
AcDbEntity
  8
GR2_01
  6
CONTINUOUS
 62
     7
100
AcDbLine
 10
117.464164
 20
122.155952
 30
0.0
 11
117.464164
 21
120.655952
 31
0.0
  0
LINE
  5
23C
100
AcDbEntity
  8
GR2_01
  6
CONTINUOUS
 62
     7
100
AcDbLine
 10
118.464164
 20
120.655952
 30
0.0
 11
118.464164
 21
122.155952
 31
0.0
  0
LINE
  5
23D
100
AcDbEntity
  8
GR2_01
  6
CONTINUOUS
 62
     7
100
AcDbLine
 10
117.464164
 20
120.655952
 30
0.0
 11
118.464164
 21
120.655952
 31
0.0
  0
LINE
  5
23E
100
AcDbEntity
  8
GR2_01
  6
CONTINUOUS
 62
     7
100
AcDbLine
 10
100.464164
 20
122.155952
 30
0.0
 11
100.464164
 21
120.655952
 31
0.0
  0
LINE
  5
23F
100
AcDbEntity
  8
GR2_01
  6
CONTINUOUS
 62
     7
100
AcDbLine
 10
101.464164
 20
120.655952
 30
0.0
 11
101.464164
 21
122.155952
 31
0.0
  0
LINE
  5
240
100
AcDbEntity
  8
GR2_01
  6
CONTINUOUS
 62
     7
100
AcDbLine
 10
100.464164
 20
120.655952
 30
0.0
 11
101.464164
 21
120.655952
 31
0.0
  0
LINE
  5
241
100
AcDbEntity
  8
GR2_01
  6
CONTINUOUS
 62
     7
100
AcDbLine
 10
83.464164
 20
122.155952
 30
0.0
 11
83.464164
 21
120.655952
 31
0.0
  0
LINE
  5
242
100
AcDbEntity
  8
GR2_01
  6
CONTINUOUS
 62
     7
100
AcDbLine
 10
84.464164
 20
120.655952
 30
0.0
 11
84.464164
 21
122.155952
 31
0.0
  0
LINE
  5
243
100
AcDbEntity
  8
GR2_01
  6
CONTINUOUS
 62
     7
100
AcDbLine
 10
83.464164
 20
120.655952
 30
0.0
 11
84.464164
 21
120.655952
 31
0.0
  0
LINE
  5
244
100
AcDbEntity
  8
GR2_01
  6
CONTINUOUS
 62
     7
100
AcDbLine
 10
66.464164
 20
122.155952
 30
0.0
 11
66.464164
 21
120.655952
 31
0.0
  0
LINE
  5
245
100
AcDbEntity
  8
GR2_01
  6
CONTINUOUS
 62
     7
100
AcDbLine
 10
67.464164
 20
120.655952
 30
0.0
 11
67.464164
 21
122.155952
 31
0.0
  0
LINE
  5
246
100
AcDbEntity
  8
GR2_01
  6
CONTINUOUS
 62
     7
100
AcDbLine
 10
66.464164
 20
120.655952
 30
0.0
 11
67.464164
 21
120.655952
 31
0.0
  0
LINE
  5
247
100
AcDbEntity
  8
GR2_01
  6
CONTINUOUS
 62
     7
100
AcDbLine
 10
115.464164
 20
123.155952
 30
0.0
 11
115.464164
 21
124.155952
 31
0.0
  0
LINE
  5
248
100
AcDbEntity
  8
GR2_01
  6
CONTINUOUS
 62
     7
100
AcDbLine
 10
116.464164
 20
123.655952
 30
0.0
 11
114.964164
 21
123.655952
 31
0.0
  0
LINE
  5
249
100
AcDbEntity
  8
GR2_01
  6
CONTINUOUS
 62
     7
100
AcDbLine
 10
114.964164
 20
123.655952
 30
0.0
 11
114.964164
 21
124.155952
 31
0.0
  0
LINE
  5
24A
100
AcDbEntity
  8
GR2_01
  6
CONTINUOUS
 62
     7
100
AcDbLine
 10
115.464164
 20
122.155952
 30
0.0
 11
115.464164
 21
123.155952
 31
0.0
  0
LINE
  5
24B
100
AcDbEntity
  8
GR2_01
  6
CONTINUOUS
 62
     7
100
AcDbLine
 10
115.464164
 20
123.155952
 30
0.0
 11
112.864164
 21
123.155952
 31
0.0
  0
LINE
  5
24C
100
AcDbEntity
  8
GR2_01
  6
CONTINUOUS
 62
     7
100
AcDbLine
 10
112.864164
 20
124.155952
 30
0.0
 11
116.464164
 21
124.155952
 31
0.0
  0
LINE
  5
24D
100
AcDbEntity
  8
GR2_01
  6
CONTINUOUS
 62
     7
100
AcDbLine
 10
116.464164
 20
122.155952
 30
0.0
 11
116.464164
 21
124.155952
 31
0.0
  0
LINE
  5
24E
100
AcDbEntity
  8
GR2_01
  6
CONTINUOUS
 62
     7
100
AcDbLine
 10
115.347004
 20
160.155952
 30
0.0
 11
114.964164
 21
160.155952
 31
0.0
  0
LINE
  5
24F
100
AcDbEntity
  8
GR2_01
  6
CONTINUOUS
 62
     7
100
AcDbLine
 10
114.964164
 20
160.155952
 30
0.0
 11
114.964164
 21
159.655952
 31
0.0
  0
LINE
  5
250
100
AcDbEntity
  8
GR2_01
  6
CONTINUOUS
 62
     7
100
AcDbLine
 10
112.864164
 20
123.155952
 30
0.0
 11
112.864164
 21
160.655952
 31
0.0
  0
LINE
  5
251
100
AcDbEntity
  8
GR2_01
  6
CONTINUOUS
 62
     7
100
AcDbLine
 10
115.464164
 20
161.655952
 30
0.0
 11
115.464164
 21
160.795624
 31
0.0
  0
LINE
  5
252
100
AcDbEntity
  8
GR2_01
  6
CONTINUOUS
 62
     7
100
AcDbLine
 10
115.365186
 20
160.655952
 30
0.0
 11
112.864164
 21
160.655952
 31
0.0
  0
LINE
  5
253
100
AcDbEntity
  8
GR2_01
  6
CONTINUOUS
 62
     7
100
AcDbLine
 10
112.864164
 20
159.655952
 30
0.0
 11
115.383368
 21
159.655952
 31
0.0
  0
LINE
  5
254
100
AcDbEntity
  8
GR2_01
  6
CONTINUOUS
 62
     7
100
AcDbLine
 10
116.464164
 20
161.655952
 30
0.0
 11
116.464164
 21
161.431987
 31
0.0
  0
LINE
  5
255
100
AcDbEntity
  8
GR2_01
  6
CONTINUOUS
 62
     7
100
AcDbLine
 10
114.364164
 20
124.155952
 30
0.0
 11
114.364164
 21
159.655952
 31
0.0
  0
LINE
  5
256
100
AcDbEntity
  8
GR2_01
  6
CONTINUOUS
 62
     7
100
AcDbLine
 10
98.364164
 20
123.655952
 30
0.0
 11
97.964164
 21
123.655952
 31
0.0
  0
LINE
  5
257
100
AcDbEntity
  8
GR2_01
  6
CONTINUOUS
 62
     7
100
AcDbLine
 10
97.964164
 20
123.655952
 30
0.0
 11
97.964164
 21
124.155952
 31
0.0
  0
LINE
  5
258
100
AcDbEntity
  8
GR2_01
  6
CONTINUOUS
 62
     7
100
AcDbLine
 10
98.464164
 20
122.155952
 30
0.0
 11
98.464164
 21
122.959259
 31
0.0
  0
LINE
  5
259
100
AcDbEntity
  8
GR2_01
  6
CONTINUOUS
 62
     7
100
AcDbLine
 10
98.401549
 20
123.155952
 30
0.0
 11
95.864164
 21
123.155952
 31
0.0
  0
LINE
  5
25A
100
AcDbEntity
  8
GR2_01
  6
CONTINUOUS
 62
     7
100
AcDbLine
 10
95.864164
 20
124.155952
 30
0.0
 11
98.364164
 21
124.155952
 31
0.0
  0
LINE
  5
25B
100
AcDbEntity
  8
GR2_01
  6
CONTINUOUS
 62
     7
100
AcDbLine
 10
99.464164
 20
122.155952
 30
0.0
 11
99.464164
 21
122.359259
 31
0.0
  0
LINE
  5
25C
100
AcDbEntity
  8
GR2_01
  6
CONTINUOUS
 62
     7
100
AcDbLine
 10
98.365186
 20
160.155952
 30
0.0
 11
97.964164
 21
160.155952
 31
0.0
  0
LINE
  5
25D
100
AcDbEntity
  8
GR2_01
  6
CONTINUOUS
 62
     7
100
AcDbLine
 10
97.964164
 20
160.155952
 30
0.0
 11
97.964164
 21
159.655952
 31
0.0
  0
LINE
  5
25E
100
AcDbEntity
  8
GR2_01
  6
CONTINUOUS
 62
     7
100
AcDbLine
 10
95.864164
 20
123.155952
 30
0.0
 11
95.864164
 21
160.655952
 31
0.0
  0
LINE
  5
25F
100
AcDbEntity
  8
GR2_01
  6
CONTINUOUS
 62
     7
100
AcDbLine
 10
98.464164
 20
161.655952
 30
0.0
 11
98.464164
 21
160.850169
 31
0.0
  0
LINE
  5
260
100
AcDbEntity
  8
GR2_01
  6
CONTINUOUS
 62
     7
100
AcDbLine
 10
98.365186
 20
160.655952
 30
0.0
 11
95.864164
 21
160.655952
 31
0.0
  0
LINE
  5
261
100
AcDbEntity
  8
GR2_01
  6
CONTINUOUS
 62
     7
100
AcDbLine
 10
95.864164
 20
159.655952
 30
0.0
 11
98.365186
 21
159.655952
 31
0.0
  0
LINE
  5
262
100
AcDbEntity
  8
GR2_01
  6
CONTINUOUS
 62
     7
100
AcDbLine
 10
99.464164
 20
161.655952
 30
0.0
 11
99.464164
 21
161.431987
 31
0.0
  0
LINE
  5
263
100
AcDbEntity
  8
GR2_01
  6
CONTINUOUS
 62
     7
100
AcDbLine
 10
97.364164
 20
124.155952
 30
0.0
 11
97.364164
 21
159.655952
 31
0.0
  0
LINE
  5
264
100
AcDbEntity
  8
GR2_01
  6
CONTINUOUS
 62
     7
100
AcDbLine
 10
81.383367
 20
123.655952
 30
0.0
 11
80.964164
 21
123.655952
 31
0.0
  0
LINE
  5
265
100
AcDbEntity
  8
GR2_01
  6
CONTINUOUS
 62
     7
100
AcDbLine
 10
80.964164
 20
123.655952
 30
0.0
 11
80.964164
 21
124.155952
 31
0.0
  0
LINE
  5
266
100
AcDbEntity
  8
GR2_01
  6
CONTINUOUS
 62
     7
100
AcDbLine
 10
81.464164
 20
122.155952
 30
0.0
 11
81.464164
 21
122.941077
 31
0.0
  0
LINE
  5
267
100
AcDbEntity
  8
GR2_01
  6
CONTINUOUS
 62
     7
100
AcDbLine
 10
81.365185
 20
123.155952
 30
0.0
 11
78.864164
 21
123.155952
 31
0.0
  0
LINE
  5
268
100
AcDbEntity
  8
GR2_01
  6
CONTINUOUS
 62
     7
100
AcDbLine
 10
78.864164
 20
124.155952
 30
0.0
 11
81.347003
 21
124.155952
 31
0.0
  0
LINE
  5
269
100
AcDbEntity
  8
GR2_01
  6
CONTINUOUS
 62
     7
100
AcDbLine
 10
82.464164
 20
122.155952
 30
0.0
 11
82.464164
 21
122.341077
 31
0.0
  0
LINE
  5
26A
100
AcDbEntity
  8
GR2_01
  6
CONTINUOUS
 62
     7
100
AcDbLine
 10
81.383367
 20
160.155952
 30
0.0
 11
80.964164
 21
160.155952
 31
0.0
  0
LINE
  5
26B
100
AcDbEntity
  8
GR2_01
  6
CONTINUOUS
 62
     7
100
AcDbLine
 10
80.964164
 20
160.155952
 30
0.0
 11
80.964164
 21
159.655952
 31
0.0
  0
LINE
  5
26C
100
AcDbEntity
  8
GR2_01
  6
CONTINUOUS
 62
     7
100
AcDbLine
 10
78.864164
 20
123.155952
 30
0.0
 11
78.864164
 21
160.655952
 31
0.0
  0
LINE
  5
26D
100
AcDbEntity
  8
GR2_01
  6
CONTINUOUS
 62
     7
100
AcDbLine
 10
81.464164
 20
161.655952
 30
0.0
 11
81.464164
 21
160.795624
 31
0.0
  0
LINE
  5
26E
100
AcDbEntity
  8
GR2_01
  6
CONTINUOUS
 62
     7
100
AcDbLine
 10
81.383367
 20
160.655952
 30
0.0
 11
78.864164
 21
160.655952
 31
0.0
  0
LINE
  5
26F
100
AcDbEntity
  8
GR2_01
  6
CONTINUOUS
 62
     7
100
AcDbLine
 10
78.864164
 20
159.655952
 30
0.0
 11
81.383367
 21
159.655952
 31
0.0
  0
LINE
  5
270
100
AcDbEntity
  8
GR2_01
  6
CONTINUOUS
 62
     7
100
AcDbLine
 10
82.464164
 20
161.655952
 30
0.0
 11
82.464164
 21
161.450169
 31
0.0
  0
LINE
  5
271
100
AcDbEntity
  8
GR2_01
  6
CONTINUOUS
 62
     7
100
AcDbLine
 10
80.364164
 20
124.155952
 30
0.0
 11
80.364164
 21
159.655952
 31
0.0
  0
LINE
  5
272
100
AcDbEntity
  8
GR2_01
  6
CONTINUOUS
 62
     7
100
AcDbLine
 10
14.064164
 20
88.26822
 30
0.0
 11
14.064164
 21
98.439159
 31
0.0
  0
LINE
  5
273
100
AcDbEntity
  8
GR2_01
  6
CONTINUOUS
 62
     7
100
AcDbLine
 10
19.064164
 20
93.455952
 30
0.0
 11
8.620973
 21
93.455952
 31
0.0
  0
ARC
  5
274
100
AcDbEntity
  8
GR2_01
  6
CONTINUOUS
 62
     7
100
AcDbCircle
 10
14.064164
 20
93.455952
 30
0.0
 40
2.25
100
AcDbArc
 50
111.03947
 51
248.96053
  0
ARC
  5
275
100
AcDbEntity
  8
GR1_01
  6
CONTINUOUS
 62
     7
100
AcDbCircle
 10
14.064164
 20
93.455952
 30
0.0
 40
4.5
100
AcDbArc
 50
0.0
 51
90.0
  0
LINE
  5
276
100
AcDbEntity
  8
GR1_01
  6
CONTINUOUS
 62
     7
100
AcDbLine
 10
14.064164
 20
97.955952
 30
0.0
 11
9.564164
 21
97.955952
 31
0.0
  0
LINE
  5
277
100
AcDbEntity
  8
GR1_01
  6
CONTINUOUS
 62
     7
100
AcDbLine
 10
18.564164
 20
93.455952
 30
0.0
 11
18.564164
 21
88.955952
 31
0.0
  0
LINE
  5
278
100
AcDbEntity
  8
GR2_01
  6
CONTINUOUS
 62
     7
100
AcDbLine
 10
13.256389
 20
95.555952
 30
0.0
 11
14.871939
 21
95.555952
 31
0.0
  0
LINE
  5
279
100
AcDbEntity
  8
GR2_01
  6
CONTINUOUS
 62
     7
100
AcDbLine
 10
13.256389
 20
91.355952
 30
0.0
 11
14.871939
 21
91.355952
 31
0.0
  0
ARC
  5
27A
100
AcDbEntity
  8
GR2_01
  6
CONTINUOUS
 62
     7
100
AcDbCircle
 10
14.064164
 20
93.455952
 30
0.0
 40
2.25
100
AcDbArc
 50
291.03947
 51
68.96053
  0
ARC
  5
27B
100
AcDbEntity
  8
GR2_01
  6
CONTINUOUS
 62
     7
100
AcDbCircle
 10
140.564164
 20
162.155952
 30
0.0
 40
1.0
100
AcDbArc
 50
0.0
 51
90.0
  0
ARC
  5
27C
100
AcDbEntity
  8
GR2_01
  6
CONTINUOUS
 62
     7
100
AcDbCircle
 10
137.064164
 20
158.655952
 30
0.0
 40
2.25
100
AcDbArc
 50
111.03947
 51
248.96053
  0
ARC
  5
27D
100
AcDbEntity
  8
GR1_01
  6
CONTINUOUS
 62
     7
100
AcDbCircle
 10
137.064164
 20
158.655952
 30
0.0
 40
4.5
100
AcDbArc
 50
180.0
 51
270.0
  0
LINE
  5
27E
100
AcDbEntity
  8
GR1_01
  6
CONTINUOUS
 62
     7
100
AcDbLine
 10
137.064164
 20
154.155952
 30
0.0
 11
141.564164
 21
154.155952
 31
0.0
  0
LINE
  5
27F
100
AcDbEntity
  8
GR1_01
  6
CONTINUOUS
 62
     7
100
AcDbLine
 10
132.564164
 20
158.655952
 30
0.0
 11
132.564164
 21
163.155952
 31
0.0
  0
LINE
  5
280
100
AcDbEntity
  8
GR2_01
  6
CONTINUOUS
 62
     7
100
AcDbLine
 10
136.256389
 20
160.755952
 30
0.0
 11
137.871939
 21
160.755952
 31
0.0
  0
LINE
  5
281
100
AcDbEntity
  8
GR2_01
  6
CONTINUOUS
 62
     7
100
AcDbLine
 10
136.256389
 20
156.555952
 30
0.0
 11
137.871939
 21
156.555952
 31
0.0
  0
ARC
  5
282
100
AcDbEntity
  8
GR2_01
  6
CONTINUOUS
 62
     7
100
AcDbCircle
 10
137.064164
 20
158.655952
 30
0.0
 40
2.25
100
AcDbArc
 50
291.03947
 51
68.96053
  0
LINE
  5
283
100
AcDbEntity
  8
0
  6
CONTINUOUS
 62
     7
100
AcDbLine
 10
129.564164
 20
99.061949
 30
0.0
 11
112.824164
 21
99.061949
 31
0.0
  0
LINE
  5
284
100
AcDbEntity
  8
0
  6
CONTINUOUS
 62
     7
100
AcDbLine
 10
129.564164
 20
102.155952
 30
0.0
 11
112.824164
 21
102.155952
 31
0.0
  0
LINE
  5
285
100
AcDbEntity
  8
0
  6
CONTINUOUS
 62
     7
100
AcDbLine
 10
127.584164
 20
97.540467
 30
0.0
 11
129.564164
 21
97.540467
 31
0.0
  0
LINE
  5
286
100
AcDbEntity
  8
0
  6
CONTINUOUS
 62
     7
100
AcDbLine
 10
127.584164
 20
98.742548
 30
0.0
 11
124.734164
 21
98.742548
 31
0.0
  0
LINE
  5
287
100
AcDbEntity
  8
0
  6
CONTINUOUS
 62
     7
100
AcDbLine
 10
123.774164
 20
97.540467
 30
0.0
 11
124.734164
 21
97.540467
 31
0.0
  0
LINE
  5
288
100
AcDbEntity
  8
0
  6
CONTINUOUS
 62
     7
100
AcDbLine
 10
123.774164
 20
98.742548
 30
0.0
 11
120.924164
 21
98.742548
 31
0.0
  0
LINE
  5
289
100
AcDbEntity
  8
0
  6
CONTINUOUS
 62
     7
100
AcDbLine
 10
119.964164
 20
97.540467
 30
0.0
 11
120.924164
 21
97.540467
 31
0.0
  0
LINE
  5
28A
100
AcDbEntity
  8
0
  6
CONTINUOUS
 62
     7
100
AcDbLine
 10
119.964164
 20
97.540467
 30
0.0
 11
120.924164
 21
97.540467
 31
0.0
  0
LINE
  5
28B
100
AcDbEntity
  8
0
  6
CONTINUOUS
 62
     7
100
AcDbLine
 10
119.964164
 20
98.742548
 30
0.0
 11
117.114164
 21
98.742548
 31
0.0
  0
LINE
  5
28C
100
AcDbEntity
  8
0
  6
CONTINUOUS
 62
     7
100
AcDbLine
 10
116.154164
 20
97.540467
 30
0.0
 11
117.114164
 21
97.540467
 31
0.0
  0
LINE
  5
28D
100
AcDbEntity
  8
0
  6
CONTINUOUS
 62
     7
100
AcDbLine
 10
116.154164
 20
98.742548
 30
0.0
 11
113.304164
 21
98.742548
 31
0.0
  0
LINE
  5
28E
100
AcDbEntity
  8
0
  6
CONTINUOUS
 62
     7
100
AcDbLine
 10
112.824164
 20
97.540467
 30
0.0
 11
113.304164
 21
97.540467
 31
0.0
  0
LINE
  5
28F
100
AcDbEntity
  8
0
  6
CONTINUOUS
 62
     7
100
AcDbLine
 10
113.304164
 20
98.201719
 30
0.0
 11
116.154164
 21
98.201719
 31
0.0
  0
LINE
  5
290
100
AcDbEntity
  8
0
  6
CONTINUOUS
 62
     7
100
AcDbLine
 10
117.114164
 20
98.201719
 30
0.0
 11
119.964164
 21
98.201719
 31
0.0
  0
LINE
  5
291
100
AcDbEntity
  8
0
  6
CONTINUOUS
 62
     7
100
AcDbLine
 10
120.924164
 20
98.201719
 30
0.0
 11
123.774164
 21
98.201719
 31
0.0
  0
LINE
  5
292
100
AcDbEntity
  8
0
  6
CONTINUOUS
 62
     7
100
AcDbLine
 10
124.734164
 20
98.201719
 30
0.0
 11
127.584164
 21
98.201719
 31
0.0
  0
LINE
  5
293
100
AcDbEntity
  8
0
  6
CONTINUOUS
 62
     7
100
AcDbLine
 10
120.034164
 20
97.045492
 30
0.0
 11
120.444164
 21
97.045492
 31
0.0
  0
LINE
  5
294
100
AcDbEntity
  8
0
  6
CONTINUOUS
 62
     7
100
AcDbLine
 10
129.564164
 20
97.045492
 30
0.0
 11
127.654164
 21
97.045492
 31
0.0
  0
LINE
  5
295
100
AcDbEntity
  8
0
  6
CONTINUOUS
 62
     7
100
AcDbLine
 10
116.224164
 20
97.045492
 30
0.0
 11
116.634164
 21
97.045492
 31
0.0
  0
LINE
  5
296
100
AcDbEntity
  8
0
  6
CONTINUOUS
 62
     7
100
AcDbLine
 10
123.844164
 20
97.222269
 30
0.0
 11
120.444164
 21
97.222269
 31
0.0
  0
LINE
  5
297
100
AcDbEntity
  8
0
  6
CONTINUOUS
 62
     7
100
AcDbLine
 10
120.034164
 20
97.045492
 30
0.0
 11
120.444164
 21
97.045492
 31
0.0
  0
LINE
  5
298
100
AcDbEntity
  8
0
  6
CONTINUOUS
 62
     7
100
AcDbLine
 10
120.034164
 20
97.222269
 30
0.0
 11
116.634164
 21
97.222269
 31
0.0
  0
LINE
  5
299
100
AcDbEntity
  8
0
  6
CONTINUOUS
 62
     7
100
AcDbLine
 10
116.224164
 20
97.222269
 30
0.0
 11
112.824164
 21
97.222269
 31
0.0
  0
LINE
  5
29A
100
AcDbEntity
  8
0
  6
CONTINUOUS
 62
     7
100
AcDbLine
 10
127.654164
 20
97.222269
 30
0.0
 11
124.254164
 21
97.222269
 31
0.0
  0
LINE
  5
29B
100
AcDbEntity
  8
0
  6
CONTINUOUS
 62
     7
100
AcDbLine
 10
123.844164
 20
97.045492
 30
0.0
 11
124.254164
 21
97.045492
 31
0.0
  0
LINE
  5
29C
100
AcDbEntity
  8
0
  6
CONTINUOUS
 62
     7
100
AcDbLine
 10
123.844164
 20
97.222269
 30
0.0
 11
120.444164
 21
97.222269
 31
0.0
  0
LINE
  5
29D
100
AcDbEntity
  8
0
  6
CONTINUOUS
 62
     7
100
AcDbLine
 10
113.304164
 20
97.299879
 30
0.0
 11
116.154164
 21
97.299879
 31
0.0
  0
LINE
  5
29E
100
AcDbEntity
  8
0
  6
CONTINUOUS
 62
     7
100
AcDbLine
 10
117.114164
 20
97.299879
 30
0.0
 11
119.964164
 21
97.299879
 31
0.0
  0
LINE
  5
29F
100
AcDbEntity
  8
0
  6
CONTINUOUS
 62
     7
100
AcDbLine
 10
120.924164
 20
97.299879
 30
0.0
 11
123.774164
 21
97.299879
 31
0.0
  0
LINE
  5
2A0
100
AcDbEntity
  8
0
  6
CONTINUOUS
 62
     7
100
AcDbLine
 10
124.734164
 20
97.299879
 30
0.0
 11
127.584164
 21
97.299879
 31
0.0
  0
LINE
  5
2A1
100
AcDbEntity
  8
0
  6
CONTINUOUS
 62
     7
100
AcDbLine
 10
124.654164
 20
94.588296
 30
0.0
 11
124.654164
 21
96.851038
 31
0.0
  0
LINE
  5
2A2
100
AcDbEntity
  8
0
  6
CONTINUOUS
 62
     7
100
AcDbLine
 10
127.654164
 20
94.588296
 30
0.0
 11
124.654164
 21
94.588296
 31
0.0
  0
LINE
  5
2A3
100
AcDbEntity
  8
0
  6
CONTINUOUS
 62
     7
100
AcDbLine
 10
120.844164
 20
94.588296
 30
0.0
 11
120.844164
 21
96.851038
 31
0.0
  0
LINE
  5
2A4
100
AcDbEntity
  8
0
  6
CONTINUOUS
 62
     7
100
AcDbLine
 10
123.844164
 20
94.588296
 30
0.0
 11
120.844164
 21
94.588296
 31
0.0
  0
LINE
  5
2A5
100
AcDbEntity
  8
0
  6
CONTINUOUS
 62
     7
100
AcDbLine
 10
113.224164
 20
94.588296
 30
0.0
 11
113.224164
 21
96.851038
 31
0.0
  0
LINE
  5
2A6
100
AcDbEntity
  8
0
  6
CONTINUOUS
 62
     7
100
AcDbLine
 10
116.224164
 20
94.588296
 30
0.0
 11
113.224164
 21
94.588296
 31
0.0
  0
LINE
  5
2A7
100
AcDbEntity
  8
0
  6
CONTINUOUS
 62
     7
100
AcDbLine
 10
117.034164
 20
94.588296
 30
0.0
 11
117.034164
 21
96.851038
 31
0.0
  0
LINE
  5
2A8
100
AcDbEntity
  8
0
  6
CONTINUOUS
 62
     7
100
AcDbLine
 10
120.034164
 20
94.588296
 30
0.0
 11
117.034164
 21
94.588296
 31
0.0
  0
LINE
  5
2A9
100
AcDbEntity
  8
0
  6
CONTINUOUS
 62
     7
100
AcDbLine
 10
112.824164
 20
104.155952
 30
0.0
 11
129.564164
 21
104.155952
 31
0.0
  0
LINE
  5
2AA
100
AcDbEntity
  8
0
  6
CONTINUOUS
 62
     7
100
AcDbLine
 10
112.824164
 20
106.455952
 30
0.0
 11
129.564164
 21
106.455952
 31
0.0
  0
LINE
  5
2AB
100
AcDbEntity
  8
0
  6
CONTINUOUS
 62
     7
100
AcDbLine
 10
124.654164
 20
95.648956
 30
0.0
 11
124.96801
 21
96.851038
 31
0.0
  0
LINE
  5
2AC
100
AcDbEntity
  8
0
  6
CONTINUOUS
 62
     7
100
AcDbLine
 10
113.224164
 20
95.648956
 30
0.0
 11
113.53801
 21
96.851038
 31
0.0
  0
LINE
  5
2AD
100
AcDbEntity
  8
0
  6
CONTINUOUS
 62
     7
100
AcDbLine
 10
117.034164
 20
95.648956
 30
0.0
 11
117.34801
 21
96.851038
 31
0.0
  0
LINE
  5
2AE
100
AcDbEntity
  8
0
  6
CONTINUOUS
 62
     7
100
AcDbLine
 10
120.844164
 20
95.648956
 30
0.0
 11
121.15801
 21
96.851038
 31
0.0
  0
LINE
  5
2AF
100
AcDbEntity
  8
0
  6
CONTINUOUS
 62
     7
100
AcDbLine
 10
115.910318
 20
96.851038
 30
0.0
 11
116.224164
 21
95.648956
 31
0.0
  0
LINE
  5
2B0
100
AcDbEntity
  8
0
  6
CONTINUOUS
 62
     7
100
AcDbLine
 10
119.720318
 20
96.851038
 30
0.0
 11
120.034164
 21
95.648956
 31
0.0
  0
LINE
  5
2B1
100
AcDbEntity
  8
0
  6
CONTINUOUS
 62
     7
100
AcDbLine
 10
127.340318
 20
96.851038
 30
0.0
 11
127.654164
 21
95.648956
 31
0.0
  0
LINE
  5
2B2
100
AcDbEntity
  8
0
  6
CONTINUOUS
 62
     7
100
AcDbLine
 10
123.530318
 20
96.851038
 30
0.0
 11
123.844164
 21
95.648956
 31
0.0
  0
LINE
  5
2B3
100
AcDbEntity
  8
0
  6
CONTINUOUS
 62
     7
100
AcDbLine
 10
116.224164
 20
95.648956
 30
0.0
 11
113.224164
 21
95.648956
 31
0.0
  0
LINE
  5
2B4
100
AcDbEntity
  8
0
  6
CONTINUOUS
 62
     7
100
AcDbLine
 10
123.844164
 20
95.648956
 30
0.0
 11
120.844164
 21
95.648956
 31
0.0
  0
LINE
  5
2B5
100
AcDbEntity
  8
0
  6
CONTINUOUS
 62
     7
100
AcDbLine
 10
127.654164
 20
95.648956
 30
0.0
 11
124.654164
 21
95.648956
 31
0.0
  0
LINE
  5
2B6
100
AcDbEntity
  8
0
  6
CONTINUOUS
 62
     7
100
AcDbLine
 10
120.034164
 20
95.648956
 30
0.0
 11
117.034164
 21
95.648956
 31
0.0
  0
LINE
  5
2B7
100
AcDbEntity
  8
0
  6
CONTINUOUS
 62
     7
100
AcDbLine
 10
129.564164
 20
106.455952
 30
0.0
 11
129.564164
 21
94.455952
 31
0.0
  0
LINE
  5
2B8
100
AcDbEntity
  8
0
  6
CONTINUOUS
 62
     7
100
AcDbLine
 10
112.824164
 20
106.455952
 30
0.0
 11
112.824164
 21
94.455952
 31
0.0
  0
LINE
  5
2B9
100
AcDbEntity
  8
0
  6
CONTINUOUS
 62
     7
100
AcDbLine
 10
127.584164
 20
98.742548
 30
0.0
 11
127.584164
 21
97.299879
 31
0.0
  0
LINE
  5
2BA
100
AcDbEntity
  8
0
  6
CONTINUOUS
 62
     7
100
AcDbLine
 10
124.734164
 20
98.742548
 30
0.0
 11
124.734164
 21
97.299879
 31
0.0
  0
LINE
  5
2BB
100
AcDbEntity
  8
0
  6
CONTINUOUS
 62
     7
100
AcDbLine
 10
123.774164
 20
98.742548
 30
0.0
 11
123.774164
 21
97.299879
 31
0.0
  0
LINE
  5
2BC
100
AcDbEntity
  8
0
  6
CONTINUOUS
 62
     7
100
AcDbLine
 10
120.924164
 20
98.742548
 30
0.0
 11
120.924164
 21
97.299879
 31
0.0
  0
LINE
  5
2BD
100
AcDbEntity
  8
0
  6
CONTINUOUS
 62
     7
100
AcDbLine
 10
119.964164
 20
98.742548
 30
0.0
 11
119.964164
 21
97.299879
 31
0.0
  0
LINE
  5
2BE
100
AcDbEntity
  8
0
  6
CONTINUOUS
 62
     7
100
AcDbLine
 10
117.114164
 20
98.742548
 30
0.0
 11
117.114164
 21
97.299879
 31
0.0
  0
LINE
  5
2BF
100
AcDbEntity
  8
0
  6
CONTINUOUS
 62
     7
100
AcDbLine
 10
116.154164
 20
98.742548
 30
0.0
 11
116.154164
 21
97.299879
 31
0.0
  0
LINE
  5
2C0
100
AcDbEntity
  8
0
  6
CONTINUOUS
 62
     7
100
AcDbLine
 10
113.304164
 20
98.742548
 30
0.0
 11
113.304164
 21
97.299879
 31
0.0
  0
LINE
  5
2C1
100
AcDbEntity
  8
0
  6
CONTINUOUS
 62
     7
100
AcDbLine
 10
129.564164
 20
94.455952
 30
0.0
 11
112.824164
 21
94.455952
 31
0.0
  0
LINE
  5
2C2
100
AcDbEntity
  8
0
  6
CONTINUOUS
 62
     7
100
AcDbLine
 10
120.444164
 20
97.222269
 30
0.0
 11
120.444164
 21
94.455952
 31
0.0
  0
LINE
  5
2C3
100
AcDbEntity
  8
0
  6
CONTINUOUS
 62
     7
100
AcDbLine
 10
127.654164
 20
94.455952
 30
0.0
 11
127.654164
 21
97.222269
 31
0.0
  0
LINE
  5
2C4
100
AcDbEntity
  8
0
  6
CONTINUOUS
 62
     7
100
AcDbLine
 10
116.634164
 20
97.222269
 30
0.0
 11
116.634164
 21
94.455952
 31
0.0
  0
LINE
  5
2C5
100
AcDbEntity
  8
0
  6
CONTINUOUS
 62
     7
100
AcDbLine
 10
116.224164
 20
94.455952
 30
0.0
 11
116.224164
 21
97.222269
 31
0.0
  0
LINE
  5
2C6
100
AcDbEntity
  8
0
  6
CONTINUOUS
 62
     7
100
AcDbLine
 10
123.844164
 20
94.455952
 30
0.0
 11
123.844164
 21
97.222269
 31
0.0
  0
LINE
  5
2C7
100
AcDbEntity
  8
0
  6
CONTINUOUS
 62
     7
100
AcDbLine
 10
120.444164
 20
94.455952
 30
0.0
 11
120.444164
 21
97.222269
 31
0.0
  0
LINE
  5
2C8
100
AcDbEntity
  8
0
  6
CONTINUOUS
 62
     7
100
AcDbLine
 10
120.034164
 20
94.455952
 30
0.0
 11
120.034164
 21
97.222269
 31
0.0
  0
LINE
  5
2C9
100
AcDbEntity
  8
0
  6
CONTINUOUS
 62
     7
100
AcDbLine
 10
124.254164
 20
94.455952
 30
0.0
 11
124.254164
 21
97.222269
 31
0.0
  0
LINE
  5
2CA
100
AcDbEntity
  8
0
  6
CONTINUOUS
 62
     7
100
AcDbLine
 10
124.654164
 20
96.851038
 30
0.0
 11
127.654164
 21
96.851038
 31
0.0
  0
LINE
  5
2CB
100
AcDbEntity
  8
0
  6
CONTINUOUS
 62
     7
100
AcDbLine
 10
120.844164
 20
96.851038
 30
0.0
 11
123.844164
 21
96.851038
 31
0.0
  0
LINE
  5
2CC
100
AcDbEntity
  8
0
  6
CONTINUOUS
 62
     7
100
AcDbLine
 10
113.224164
 20
96.851038
 30
0.0
 11
116.224164
 21
96.851038
 31
0.0
  0
LINE
  5
2CD
100
AcDbEntity
  8
0
  6
CONTINUOUS
 62
     7
100
AcDbLine
 10
117.034164
 20
96.851038
 30
0.0
 11
120.034164
 21
96.851038
 31
0.0
  0
LINE
  5
2CE
100
AcDbEntity
  8
\U+5E73\U+9762\U+56F3_\U+4F5C\U+56F3
  6
CONTINUOUS
100
AcDbLine
 10
123.774164
 20
98.44077
 30
0.0
 11
120.924164
 21
98.44077
 31
0.0
  0
LINE
  5
2CF
100
AcDbEntity
  8
\U+5E73\U+9762\U+56F3_\U+4F5C\U+56F3
  6
CONTINUOUS
100
AcDbLine
 10
127.584164
 20
98.44077
 30
0.0
 11
124.734164
 21
98.44077
 31
0.0
  0
LINE
  5
2D0
100
AcDbEntity
  8
\U+5E73\U+9762\U+56F3_\U+4F5C\U+56F3
  6
CONTINUOUS
100
AcDbLine
 10
116.154164
 20
98.44077
 30
0.0
 11
113.304164
 21
98.44077
 31
0.0
  0
LINE
  5
2D1
100
AcDbEntity
  8
\U+5E73\U+9762\U+56F3_\U+4F5C\U+56F3
  6
CONTINUOUS
100
AcDbLine
 10
119.964164
 20
98.44077
 30
0.0
 11
117.114164
 21
98.44077
 31
0.0
  0
LINE
  5
2D2
100
AcDbEntity
  8
\U+5E73\U+9762\U+56F3_\U+4F5C\U+56F3
  6
CONTINUOUS
100
AcDbLine
 10
116.154164
 20
97.466346
 30
0.0
 11
113.304164
 21
97.466346
 31
0.0
  0
LINE
  5
2D3
100
AcDbEntity
  8
\U+5E73\U+9762\U+56F3_\U+4F5C\U+56F3
  6
CONTINUOUS
100
AcDbLine
 10
119.964164
 20
97.466346
 30
0.0
 11
117.114164
 21
97.466346
 31
0.0
  0
LINE
  5
2D4
100
AcDbEntity
  8
\U+5E73\U+9762\U+56F3_\U+4F5C\U+56F3
  6
CONTINUOUS
100
AcDbLine
 10
123.774164
 20
97.466346
 30
0.0
 11
120.924164
 21
97.466346
 31
0.0
  0
LINE
  5
2D5
100
AcDbEntity
  8
\U+5E73\U+9762\U+56F3_\U+4F5C\U+56F3
  6
CONTINUOUS
100
AcDbLine
 10
127.584164
 20
97.466346
 30
0.0
 11
124.734164
 21
97.466346
 31
0.0
  0
LINE
  5
2D6
100
AcDbEntity
  8
\U+5E73\U+9762\U+56F3_\U+4F5C\U+56F3
  6
CONTINUOUS
100
AcDbLine
 10
113.224164
 20
97.222269
 30
0.0
 11
113.224164
 21
96.851038
 31
0.0
  0
LINE
  5
2D7
100
AcDbEntity
  8
\U+5E73\U+9762\U+56F3_\U+4F5C\U+56F3
  6
CONTINUOUS
100
AcDbLine
 10
120.844164
 20
97.222269
 30
0.0
 11
120.844164
 21
96.851038
 31
0.0
  0
LINE
  5
2D8
100
AcDbEntity
  8
\U+5E73\U+9762\U+56F3_\U+4F5C\U+56F3
  6
CONTINUOUS
100
AcDbLine
 10
124.654164
 20
97.222269
 30
0.0
 11
124.654164
 21
96.851038
 31
0.0
  0
LINE
  5
2D9
100
AcDbEntity
  8
\U+5E73\U+9762\U+56F3_\U+4F5C\U+56F3
  6
CONTINUOUS
100
AcDbLine
 10
117.034164
 20
97.222269
 30
0.0
 11
117.034164
 21
96.851038
 31
0.0
  0
LINE
  5
2DA
100
AcDbEntity
  8
\U+5E73\U+9762\U+56F3_\U+4F5C\U+56F3
  6
CONTINUOUS
100
AcDbLine
 10
117.114164
 20
97.666346
 30
0.0
 11
119.964164
 21
97.666346
 31
0.0
  0
LINE
  5
2DB
100
AcDbEntity
  8
\U+5E73\U+9762\U+56F3_\U+4F5C\U+56F3
  6
CONTINUOUS
100
AcDbLine
 10
124.734164
 20
97.666346
 30
0.0
 11
127.584164
 21
97.666346
 31
0.0
  0
LINE
  5
2DC
100
AcDbEntity
  8
\U+5E73\U+9762\U+56F3_\U+4F5C\U+56F3
  6
CONTINUOUS
100
AcDbLine
 10
113.304164
 20
97.666346
 30
0.0
 11
116.154164
 21
97.666346
 31
0.0
  0
LINE
  5
2DD
100
AcDbEntity
  8
\U+5E73\U+9762\U+56F3_\U+4F5C\U+56F3
  6
CONTINUOUS
100
AcDbLine
 10
120.924164
 20
97.666346
 30
0.0
 11
123.774164
 21
97.666346
 31
0.0
  0
CIRCLE
  5
2DE
100
AcDbEntity
  8
0
  6
CONTINUOUS
 62
     7
100
AcDbCircle
 10
126.254164
 20
103.155952
 30
0.0
 40
0.6
  0
CIRCLE
  5
2DF
100
AcDbEntity
  8
0
  6
CONTINUOUS
 62
     7
100
AcDbCircle
 10
122.444164
 20
103.155952
 30
0.0
 40
0.6
  0
CIRCLE
  5
2E0
100
AcDbEntity
  8
0
  6
CONTINUOUS
 62
     7
100
AcDbCircle
 10
114.824164
 20
103.155952
 30
0.0
 40
0.6
  0
CIRCLE
  5
2E1
100
AcDbEntity
  8
0
  6
CONTINUOUS
 62
     7
100
AcDbCircle
 10
118.634164
 20
103.155952
 30
0.0
 40
0.6
  0
LINE
  5
2E2
100
AcDbEntity
  8
0
  6
CONTINUOUS
 62
     7
100
AcDbLine
 10
112.564164
 20
99.061949
 30
0.0
 11
95.824164
 21
99.061949
 31
0.0
  0
LINE
  5
2E3
100
AcDbEntity
  8
0
  6
CONTINUOUS
 62
     7
100
AcDbLine
 10
112.564164
 20
102.155952
 30
0.0
 11
95.824164
 21
102.155952
 31
0.0
  0
LINE
  5
2E4
100
AcDbEntity
  8
0
  6
CONTINUOUS
 62
     7
100
AcDbLine
 10
110.584164
 20
97.540467
 30
0.0
 11
112.564164
 21
97.540467
 31
0.0
  0
LINE
  5
2E5
100
AcDbEntity
  8
0
  6
CONTINUOUS
 62
     7
100
AcDbLine
 10
110.584164
 20
98.742548
 30
0.0
 11
107.734164
 21
98.742548
 31
0.0
  0
LINE
  5
2E6
100
AcDbEntity
  8
0
  6
CONTINUOUS
 62
     7
100
AcDbLine
 10
106.774164
 20
97.540467
 30
0.0
 11
107.734164
 21
97.540467
 31
0.0
  0
LINE
  5
2E7
100
AcDbEntity
  8
0
  6
CONTINUOUS
 62
     7
100
AcDbLine
 10
106.774164
 20
98.742548
 30
0.0
 11
103.924164
 21
98.742548
 31
0.0
  0
LINE
  5
2E8
100
AcDbEntity
  8
0
  6
CONTINUOUS
 62
     7
100
AcDbLine
 10
102.964164
 20
97.540467
 30
0.0
 11
103.924164
 21
97.540467
 31
0.0
  0
LINE
  5
2E9
100
AcDbEntity
  8
0
  6
CONTINUOUS
 62
     7
100
AcDbLine
 10
102.964164
 20
97.540467
 30
0.0
 11
103.924164
 21
97.540467
 31
0.0
  0
LINE
  5
2EA
100
AcDbEntity
  8
0
  6
CONTINUOUS
 62
     7
100
AcDbLine
 10
102.964164
 20
98.742548
 30
0.0
 11
100.114164
 21
98.742548
 31
0.0
  0
LINE
  5
2EB
100
AcDbEntity
  8
0
  6
CONTINUOUS
 62
     7
100
AcDbLine
 10
99.154164
 20
97.540467
 30
0.0
 11
100.114164
 21
97.540467
 31
0.0
  0
LINE
  5
2EC
100
AcDbEntity
  8
0
  6
CONTINUOUS
 62
     7
100
AcDbLine
 10
99.154164
 20
98.742548
 30
0.0
 11
96.304164
 21
98.742548
 31
0.0
  0
LINE
  5
2ED
100
AcDbEntity
  8
0
  6
CONTINUOUS
 62
     7
100
AcDbLine
 10
95.824164
 20
97.540467
 30
0.0
 11
96.304164
 21
97.540467
 31
0.0
  0
LINE
  5
2EE
100
AcDbEntity
  8
0
  6
CONTINUOUS
 62
     7
100
AcDbLine
 10
96.304164
 20
98.201719
 30
0.0
 11
99.154164
 21
98.201719
 31
0.0
  0
LINE
  5
2EF
100
AcDbEntity
  8
0
  6
CONTINUOUS
 62
     7
100
AcDbLine
 10
100.114164
 20
98.201719
 30
0.0
 11
102.964164
 21
98.201719
 31
0.0
  0
LINE
  5
2F0
100
AcDbEntity
  8
0
  6
CONTINUOUS
 62
     7
100
AcDbLine
 10
103.924164
 20
98.201719
 30
0.0
 11
106.774164
 21
98.201719
 31
0.0
  0
LINE
  5
2F1
100
AcDbEntity
  8
0
  6
CONTINUOUS
 62
     7
100
AcDbLine
 10
107.734164
 20
98.201719
 30
0.0
 11
110.584164
 21
98.201719
 31
0.0
  0
LINE
  5
2F2
100
AcDbEntity
  8
0
  6
CONTINUOUS
 62
     7
100
AcDbLine
 10
103.034164
 20
97.045492
 30
0.0
 11
103.444164
 21
97.045492
 31
0.0
  0
LINE
  5
2F3
100
AcDbEntity
  8
0
  6
CONTINUOUS
 62
     7
100
AcDbLine
 10
112.564164
 20
97.045492
 30
0.0
 11
110.654164
 21
97.045492
 31
0.0
  0
LINE
  5
2F4
100
AcDbEntity
  8
0
  6
CONTINUOUS
 62
     7
100
AcDbLine
 10
99.224164
 20
97.045492
 30
0.0
 11
99.634164
 21
97.045492
 31
0.0
  0
LINE
  5
2F5
100
AcDbEntity
  8
0
  6
CONTINUOUS
 62
     7
100
AcDbLine
 10
106.844164
 20
97.222269
 30
0.0
 11
103.444164
 21
97.222269
 31
0.0
  0
LINE
  5
2F6
100
AcDbEntity
  8
0
  6
CONTINUOUS
 62
     7
100
AcDbLine
 10
103.034164
 20
97.045492
 30
0.0
 11
103.444164
 21
97.045492
 31
0.0
  0
LINE
  5
2F7
100
AcDbEntity
  8
0
  6
CONTINUOUS
 62
     7
100
AcDbLine
 10
103.034164
 20
97.222269
 30
0.0
 11
99.634164
 21
97.222269
 31
0.0
  0
LINE
  5
2F8
100
AcDbEntity
  8
0
  6
CONTINUOUS
 62
     7
100
AcDbLine
 10
99.224164
 20
97.222269
 30
0.0
 11
95.824164
 21
97.222269
 31
0.0
  0
LINE
  5
2F9
100
AcDbEntity
  8
0
  6
CONTINUOUS
 62
     7
100
AcDbLine
 10
110.654164
 20
97.222269
 30
0.0
 11
107.254164
 21
97.222269
 31
0.0
  0
LINE
  5
2FA
100
AcDbEntity
  8
0
  6
CONTINUOUS
 62
     7
100
AcDbLine
 10
106.844164
 20
97.045492
 30
0.0
 11
107.254164
 21
97.045492
 31
0.0
  0
LINE
  5
2FB
100
AcDbEntity
  8
0
  6
CONTINUOUS
 62
     7
100
AcDbLine
 10
106.844164
 20
97.222269
 30
0.0
 11
103.444164
 21
97.222269
 31
0.0
  0
LINE
  5
2FC
100
AcDbEntity
  8
0
  6
CONTINUOUS
 62
     7
100
AcDbLine
 10
96.304164
 20
97.299879
 30
0.0
 11
99.154164
 21
97.299879
 31
0.0
  0
LINE
  5
2FD
100
AcDbEntity
  8
0
  6
CONTINUOUS
 62
     7
100
AcDbLine
 10
100.114164
 20
97.299879
 30
0.0
 11
102.964164
 21
97.299879
 31
0.0
  0
LINE
  5
2FE
100
AcDbEntity
  8
0
  6
CONTINUOUS
 62
     7
100
AcDbLine
 10
103.924164
 20
97.299879
 30
0.0
 11
106.774164
 21
97.299879
 31
0.0
  0
LINE
  5
2FF
100
AcDbEntity
  8
0
  6
CONTINUOUS
 62
     7
100
AcDbLine
 10
107.734164
 20
97.299879
 30
0.0
 11
110.584164
 21
97.299879
 31
0.0
  0
LINE
  5
300
100
AcDbEntity
  8
0
  6
CONTINUOUS
 62
     7
100
AcDbLine
 10
107.654164
 20
94.588296
 30
0.0
 11
107.654164
 21
96.851038
 31
0.0
  0
LINE
  5
301
100
AcDbEntity
  8
0
  6
CONTINUOUS
 62
     7
100
AcDbLine
 10
110.654164
 20
94.588296
 30
0.0
 11
107.654164
 21
94.588296
 31
0.0
  0
LINE
  5
302
100
AcDbEntity
  8
0
  6
CONTINUOUS
 62
     7
100
AcDbLine
 10
103.844164
 20
94.588296
 30
0.0
 11
103.844164
 21
96.851038
 31
0.0
  0
LINE
  5
303
100
AcDbEntity
  8
0
  6
CONTINUOUS
 62
     7
100
AcDbLine
 10
106.844164
 20
94.588296
 30
0.0
 11
103.844164
 21
94.588296
 31
0.0
  0
LINE
  5
304
100
AcDbEntity
  8
0
  6
CONTINUOUS
 62
     7
100
AcDbLine
 10
96.224164
 20
94.588296
 30
0.0
 11
96.224164
 21
96.851038
 31
0.0
  0
LINE
  5
305
100
AcDbEntity
  8
0
  6
CONTINUOUS
 62
     7
100
AcDbLine
 10
99.224164
 20
94.588296
 30
0.0
 11
96.224164
 21
94.588296
 31
0.0
  0
LINE
  5
306
100
AcDbEntity
  8
0
  6
CONTINUOUS
 62
     7
100
AcDbLine
 10
100.034164
 20
94.588296
 30
0.0
 11
100.034164
 21
96.851038
 31
0.0
  0
LINE
  5
307
100
AcDbEntity
  8
0
  6
CONTINUOUS
 62
     7
100
AcDbLine
 10
103.034164
 20
94.588296
 30
0.0
 11
100.034164
 21
94.588296
 31
0.0
  0
LINE
  5
308
100
AcDbEntity
  8
0
  6
CONTINUOUS
 62
     7
100
AcDbLine
 10
95.824164
 20
104.155952
 30
0.0
 11
112.564164
 21
104.155952
 31
0.0
  0
LINE
  5
309
100
AcDbEntity
  8
0
  6
CONTINUOUS
 62
     7
100
AcDbLine
 10
95.824164
 20
106.455952
 30
0.0
 11
112.564164
 21
106.455952
 31
0.0
  0
LINE
  5
30A
100
AcDbEntity
  8
0
  6
CONTINUOUS
 62
     7
100
AcDbLine
 10
107.654164
 20
95.648956
 30
0.0
 11
107.96801
 21
96.851038
 31
0.0
  0
LINE
  5
30B
100
AcDbEntity
  8
0
  6
CONTINUOUS
 62
     7
100
AcDbLine
 10
96.224164
 20
95.648956
 30
0.0
 11
96.53801
 21
96.851038
 31
0.0
  0
LINE
  5
30C
100
AcDbEntity
  8
0
  6
CONTINUOUS
 62
     7
100
AcDbLine
 10
100.034164
 20
95.648956
 30
0.0
 11
100.34801
 21
96.851038
 31
0.0
  0
LINE
  5
30D
100
AcDbEntity
  8
0
  6
CONTINUOUS
 62
     7
100
AcDbLine
 10
103.844164
 20
95.648956
 30
0.0
 11
104.15801
 21
96.851038
 31
0.0
  0
LINE
  5
30E
100
AcDbEntity
  8
0
  6
CONTINUOUS
 62
     7
100
AcDbLine
 10
98.910318
 20
96.851038
 30
0.0
 11
99.224164
 21
95.648956
 31
0.0
  0
LINE
  5
30F
100
AcDbEntity
  8
0
  6
CONTINUOUS
 62
     7
100
AcDbLine
 10
102.720318
 20
96.851038
 30
0.0
 11
103.034164
 21
95.648956
 31
0.0
  0
LINE
  5
310
100
AcDbEntity
  8
0
  6
CONTINUOUS
 62
     7
100
AcDbLine
 10
110.340318
 20
96.851038
 30
0.0
 11
110.654164
 21
95.648956
 31
0.0
  0
LINE
  5
311
100
AcDbEntity
  8
0
  6
CONTINUOUS
 62
     7
100
AcDbLine
 10
106.530318
 20
96.851038
 30
0.0
 11
106.844164
 21
95.648956
 31
0.0
  0
LINE
  5
312
100
AcDbEntity
  8
0
  6
CONTINUOUS
 62
     7
100
AcDbLine
 10
99.224164
 20
95.648956
 30
0.0
 11
96.224164
 21
95.648956
 31
0.0
  0
LINE
  5
313
100
AcDbEntity
  8
0
  6
CONTINUOUS
 62
     7
100
AcDbLine
 10
106.844164
 20
95.648956
 30
0.0
 11
103.844164
 21
95.648956
 31
0.0
  0
LINE
  5
314
100
AcDbEntity
  8
0
  6
CONTINUOUS
 62
     7
100
AcDbLine
 10
110.654164
 20
95.648956
 30
0.0
 11
107.654164
 21
95.648956
 31
0.0
  0
LINE
  5
315
100
AcDbEntity
  8
0
  6
CONTINUOUS
 62
     7
100
AcDbLine
 10
103.034164
 20
95.648956
 30
0.0
 11
100.034164
 21
95.648956
 31
0.0
  0
LINE
  5
316
100
AcDbEntity
  8
0
  6
CONTINUOUS
 62
     7
100
AcDbLine
 10
112.564164
 20
106.455952
 30
0.0
 11
112.564164
 21
94.455952
 31
0.0
  0
LINE
  5
317
100
AcDbEntity
  8
0
  6
CONTINUOUS
 62
     7
100
AcDbLine
 10
95.824164
 20
106.455952
 30
0.0
 11
95.824164
 21
94.455952
 31
0.0
  0
LINE
  5
318
100
AcDbEntity
  8
0
  6
CONTINUOUS
 62
     7
100
AcDbLine
 10
110.584164
 20
98.742548
 30
0.0
 11
110.584164
 21
97.299879
 31
0.0
  0
LINE
  5
319
100
AcDbEntity
  8
0
  6
CONTINUOUS
 62
     7
100
AcDbLine
 10
107.734164
 20
98.742548
 30
0.0
 11
107.734164
 21
97.299879
 31
0.0
  0
LINE
  5
31A
100
AcDbEntity
  8
0
  6
CONTINUOUS
 62
     7
100
AcDbLine
 10
106.774164
 20
98.742548
 30
0.0
 11
106.774164
 21
97.299879
 31
0.0
  0
LINE
  5
31B
100
AcDbEntity
  8
0
  6
CONTINUOUS
 62
     7
100
AcDbLine
 10
103.924164
 20
98.742548
 30
0.0
 11
103.924164
 21
97.299879
 31
0.0
  0
LINE
  5
31C
100
AcDbEntity
  8
0
  6
CONTINUOUS
 62
     7
100
AcDbLine
 10
102.964164
 20
98.742548
 30
0.0
 11
102.964164
 21
97.299879
 31
0.0
  0
LINE
  5
31D
100
AcDbEntity
  8
0
  6
CONTINUOUS
 62
     7
100
AcDbLine
 10
100.114164
 20
98.742548
 30
0.0
 11
100.114164
 21
97.299879
 31
0.0
  0
LINE
  5
31E
100
AcDbEntity
  8
0
  6
CONTINUOUS
 62
     7
100
AcDbLine
 10
99.154164
 20
98.742548
 30
0.0
 11
99.154164
 21
97.299879
 31
0.0
  0
LINE
  5
31F
100
AcDbEntity
  8
0
  6
CONTINUOUS
 62
     7
100
AcDbLine
 10
96.304164
 20
98.742548
 30
0.0
 11
96.304164
 21
97.299879
 31
0.0
  0
LINE
  5
320
100
AcDbEntity
  8
0
  6
CONTINUOUS
 62
     7
100
AcDbLine
 10
112.564164
 20
94.455952
 30
0.0
 11
95.824164
 21
94.455952
 31
0.0
  0
LINE
  5
321
100
AcDbEntity
  8
0
  6
CONTINUOUS
 62
     7
100
AcDbLine
 10
103.444164
 20
97.222269
 30
0.0
 11
103.444164
 21
94.455952
 31
0.0
  0
LINE
  5
322
100
AcDbEntity
  8
0
  6
CONTINUOUS
 62
     7
100
AcDbLine
 10
110.654164
 20
94.455952
 30
0.0
 11
110.654164
 21
97.222269
 31
0.0
  0
LINE
  5
323
100
AcDbEntity
  8
0
  6
CONTINUOUS
 62
     7
100
AcDbLine
 10
99.634164
 20
97.222269
 30
0.0
 11
99.634164
 21
94.455952
 31
0.0
  0
LINE
  5
324
100
AcDbEntity
  8
0
  6
CONTINUOUS
 62
     7
100
AcDbLine
 10
99.224164
 20
94.455952
 30
0.0
 11
99.224164
 21
97.222269
 31
0.0
  0
LINE
  5
325
100
AcDbEntity
  8
0
  6
CONTINUOUS
 62
     7
100
AcDbLine
 10
106.844164
 20
94.455952
 30
0.0
 11
106.844164
 21
97.222269
 31
0.0
  0
LINE
  5
326
100
AcDbEntity
  8
0
  6
CONTINUOUS
 62
     7
100
AcDbLine
 10
103.444164
 20
94.455952
 30
0.0
 11
103.444164
 21
97.222269
 31
0.0
  0
LINE
  5
327
100
AcDbEntity
  8
0
  6
CONTINUOUS
 62
     7
100
AcDbLine
 10
103.034164
 20
94.455952
 30
0.0
 11
103.034164
 21
97.222269
 31
0.0
  0
LINE
  5
328
100
AcDbEntity
  8
0
  6
CONTINUOUS
 62
     7
100
AcDbLine
 10
107.254164
 20
94.455952
 30
0.0
 11
107.254164
 21
97.222269
 31
0.0
  0
LINE
  5
329
100
AcDbEntity
  8
0
  6
CONTINUOUS
 62
     7
100
AcDbLine
 10
107.654164
 20
96.851038
 30
0.0
 11
110.654164
 21
96.851038
 31
0.0
  0
LINE
  5
32A
100
AcDbEntity
  8
0
  6
CONTINUOUS
 62
     7
100
AcDbLine
 10
103.844164
 20
96.851038
 30
0.0
 11
106.844164
 21
96.851038
 31
0.0
  0
LINE
  5
32B
100
AcDbEntity
  8
0
  6
CONTINUOUS
 62
     7
100
AcDbLine
 10
96.224164
 20
96.851038
 30
0.0
 11
99.224164
 21
96.851038
 31
0.0
  0
LINE
  5
32C
100
AcDbEntity
  8
0
  6
CONTINUOUS
 62
     7
100
AcDbLine
 10
100.034164
 20
96.851038
 30
0.0
 11
103.034164
 21
96.851038
 31
0.0
  0
LINE
  5
32D
100
AcDbEntity
  8
\U+5E73\U+9762\U+56F3_\U+4F5C\U+56F3
  6
CONTINUOUS
100
AcDbLine
 10
106.774164
 20
98.44077
 30
0.0
 11
103.924164
 21
98.44077
 31
0.0
  0
LINE
  5
32E
100
AcDbEntity
  8
\U+5E73\U+9762\U+56F3_\U+4F5C\U+56F3
  6
CONTINUOUS
100
AcDbLine
 10
110.584164
 20
98.44077
 30
0.0
 11
107.734164
 21
98.44077
 31
0.0
  0
LINE
  5
32F
100
AcDbEntity
  8
\U+5E73\U+9762\U+56F3_\U+4F5C\U+56F3
  6
CONTINUOUS
100
AcDbLine
 10
99.154164
 20
98.44077
 30
0.0
 11
96.304164
 21
98.44077
 31
0.0
  0
LINE
  5
330
100
AcDbEntity
  8
\U+5E73\U+9762\U+56F3_\U+4F5C\U+56F3
  6
CONTINUOUS
100
AcDbLine
 10
102.964164
 20
98.44077
 30
0.0
 11
100.114164
 21
98.44077
 31
0.0
  0
LINE
  5
331
100
AcDbEntity
  8
\U+5E73\U+9762\U+56F3_\U+4F5C\U+56F3
  6
CONTINUOUS
100
AcDbLine
 10
99.154164
 20
97.466346
 30
0.0
 11
96.304164
 21
97.466346
 31
0.0
  0
LINE
  5
332
100
AcDbEntity
  8
\U+5E73\U+9762\U+56F3_\U+4F5C\U+56F3
  6
CONTINUOUS
100
AcDbLine
 10
102.964164
 20
97.466346
 30
0.0
 11
100.114164
 21
97.466346
 31
0.0
  0
LINE
  5
333
100
AcDbEntity
  8
\U+5E73\U+9762\U+56F3_\U+4F5C\U+56F3
  6
CONTINUOUS
100
AcDbLine
 10
106.774164
 20
97.466346
 30
0.0
 11
103.924164
 21
97.466346
 31
0.0
  0
LINE
  5
334
100
AcDbEntity
  8
\U+5E73\U+9762\U+56F3_\U+4F5C\U+56F3
  6
CONTINUOUS
100
AcDbLine
 10
110.584164
 20
97.466346
 30
0.0
 11
107.734164
 21
97.466346
 31
0.0
  0
LINE
  5
335
100
AcDbEntity
  8
\U+5E73\U+9762\U+56F3_\U+4F5C\U+56F3
  6
CONTINUOUS
100
AcDbLine
 10
96.224164
 20
97.222269
 30
0.0
 11
96.224164
 21
96.851038
 31
0.0
  0
LINE
  5
336
100
AcDbEntity
  8
\U+5E73\U+9762\U+56F3_\U+4F5C\U+56F3
  6
CONTINUOUS
100
AcDbLine
 10
103.844164
 20
97.222269
 30
0.0
 11
103.844164
 21
96.851038
 31
0.0
  0
LINE
  5
337
100
AcDbEntity
  8
\U+5E73\U+9762\U+56F3_\U+4F5C\U+56F3
  6
CONTINUOUS
100
AcDbLine
 10
107.654164
 20
97.222269
 30
0.0
 11
107.654164
 21
96.851038
 31
0.0
  0
LINE
  5
338
100
AcDbEntity
  8
\U+5E73\U+9762\U+56F3_\U+4F5C\U+56F3
  6
CONTINUOUS
100
AcDbLine
 10
100.034164
 20
97.222269
 30
0.0
 11
100.034164
 21
96.851038
 31
0.0
  0
LINE
  5
339
100
AcDbEntity
  8
\U+5E73\U+9762\U+56F3_\U+4F5C\U+56F3
  6
CONTINUOUS
100
AcDbLine
 10
100.114164
 20
97.666346
 30
0.0
 11
102.964164
 21
97.666346
 31
0.0
  0
LINE
  5
33A
100
AcDbEntity
  8
\U+5E73\U+9762\U+56F3_\U+4F5C\U+56F3
  6
CONTINUOUS
100
AcDbLine
 10
107.734164
 20
97.666346
 30
0.0
 11
110.584164
 21
97.666346
 31
0.0
  0
LINE
  5
33B
100
AcDbEntity
  8
\U+5E73\U+9762\U+56F3_\U+4F5C\U+56F3
  6
CONTINUOUS
100
AcDbLine
 10
96.304164
 20
97.666346
 30
0.0
 11
99.154164
 21
97.666346
 31
0.0
  0
LINE
  5
33C
100
AcDbEntity
  8
\U+5E73\U+9762\U+56F3_\U+4F5C\U+56F3
  6
CONTINUOUS
100
AcDbLine
 10
103.924164
 20
97.666346
 30
0.0
 11
106.774164
 21
97.666346
 31
0.0
  0
CIRCLE
  5
33D
100
AcDbEntity
  8
0
  6
CONTINUOUS
 62
     7
100
AcDbCircle
 10
109.254164
 20
103.155952
 30
0.0
 40
0.6
  0
CIRCLE
  5
33E
100
AcDbEntity
  8
0
  6
CONTINUOUS
 62
     7
100
AcDbCircle
 10
105.444164
 20
103.155952
 30
0.0
 40
0.6
  0
CIRCLE
  5
33F
100
AcDbEntity
  8
0
  6
CONTINUOUS
 62
     7
100
AcDbCircle
 10
97.824164
 20
103.155952
 30
0.0
 40
0.6
  0
CIRCLE
  5
340
100
AcDbEntity
  8
0
  6
CONTINUOUS
 62
     7
100
AcDbCircle
 10
101.634164
 20
103.155952
 30
0.0
 40
0.6
  0
LINE
  5
341
100
AcDbEntity
  8
0
  6
CONTINUOUS
 62
     7
100
AcDbLine
 10
95.564164
 20
99.061949
 30
0.0
 11
78.824164
 21
99.061949
 31
0.0
  0
LINE
  5
342
100
AcDbEntity
  8
0
  6
CONTINUOUS
 62
     7
100
AcDbLine
 10
95.564164
 20
102.155952
 30
0.0
 11
78.824164
 21
102.155952
 31
0.0
  0
LINE
  5
343
100
AcDbEntity
  8
0
  6
CONTINUOUS
 62
     7
100
AcDbLine
 10
93.584164
 20
97.540467
 30
0.0
 11
95.564164
 21
97.540467
 31
0.0
  0
LINE
  5
344
100
AcDbEntity
  8
0
  6
CONTINUOUS
 62
     7
100
AcDbLine
 10
93.584164
 20
98.742548
 30
0.0
 11
90.734164
 21
98.742548
 31
0.0
  0
LINE
  5
345
100
AcDbEntity
  8
0
  6
CONTINUOUS
 62
     7
100
AcDbLine
 10
89.774164
 20
97.540467
 30
0.0
 11
90.734164
 21
97.540467
 31
0.0
  0
LINE
  5
346
100
AcDbEntity
  8
0
  6
CONTINUOUS
 62
     7
100
AcDbLine
 10
89.774164
 20
98.742548
 30
0.0
 11
86.924164
 21
98.742548
 31
0.0
  0
LINE
  5
347
100
AcDbEntity
  8
0
  6
CONTINUOUS
 62
     7
100
AcDbLine
 10
85.964164
 20
97.540467
 30
0.0
 11
86.924164
 21
97.540467
 31
0.0
  0
LINE
  5
348
100
AcDbEntity
  8
0
  6
CONTINUOUS
 62
     7
100
AcDbLine
 10
85.964164
 20
97.540467
 30
0.0
 11
86.924164
 21
97.540467
 31
0.0
  0
LINE
  5
349
100
AcDbEntity
  8
0
  6
CONTINUOUS
 62
     7
100
AcDbLine
 10
85.964164
 20
98.742548
 30
0.0
 11
83.114164
 21
98.742548
 31
0.0
  0
LINE
  5
34A
100
AcDbEntity
  8
0
  6
CONTINUOUS
 62
     7
100
AcDbLine
 10
82.154164
 20
97.540467
 30
0.0
 11
83.114164
 21
97.540467
 31
0.0
  0
LINE
  5
34B
100
AcDbEntity
  8
0
  6
CONTINUOUS
 62
     7
100
AcDbLine
 10
82.154164
 20
98.742548
 30
0.0
 11
79.304164
 21
98.742548
 31
0.0
  0
LINE
  5
34C
100
AcDbEntity
  8
0
  6
CONTINUOUS
 62
     7
100
AcDbLine
 10
78.824164
 20
97.540467
 30
0.0
 11
79.304164
 21
97.540467
 31
0.0
  0
LINE
  5
34D
100
AcDbEntity
  8
0
  6
CONTINUOUS
 62
     7
100
AcDbLine
 10
79.304164
 20
98.201719
 30
0.0
 11
82.154164
 21
98.201719
 31
0.0
  0
LINE
  5
34E
100
AcDbEntity
  8
0
  6
CONTINUOUS
 62
     7
100
AcDbLine
 10
83.114164
 20
98.201719
 30
0.0
 11
85.964164
 21
98.201719
 31
0.0
  0
LINE
  5
34F
100
AcDbEntity
  8
0
  6
CONTINUOUS
 62
     7
100
AcDbLine
 10
86.924164
 20
98.201719
 30
0.0
 11
89.774164
 21
98.201719
 31
0.0
  0
LINE
  5
350
100
AcDbEntity
  8
0
  6
CONTINUOUS
 62
     7
100
AcDbLine
 10
90.734164
 20
98.201719
 30
0.0
 11
93.584164
 21
98.201719
 31
0.0
  0
LINE
  5
351
100
AcDbEntity
  8
0
  6
CONTINUOUS
 62
     7
100
AcDbLine
 10
86.034164
 20
97.045492
 30
0.0
 11
86.444164
 21
97.045492
 31
0.0
  0
LINE
  5
352
100
AcDbEntity
  8
0
  6
CONTINUOUS
 62
     7
100
AcDbLine
 10
95.564164
 20
97.045492
 30
0.0
 11
93.654164
 21
97.045492
 31
0.0
  0
LINE
  5
353
100
AcDbEntity
  8
0
  6
CONTINUOUS
 62
     7
100
AcDbLine
 10
82.224164
 20
97.045492
 30
0.0
 11
82.634164
 21
97.045492
 31
0.0
  0
LINE
  5
354
100
AcDbEntity
  8
0
  6
CONTINUOUS
 62
     7
100
AcDbLine
 10
89.844164
 20
97.222269
 30
0.0
 11
86.444164
 21
97.222269
 31
0.0
  0
LINE
  5
355
100
AcDbEntity
  8
0
  6
CONTINUOUS
 62
     7
100
AcDbLine
 10
86.034164
 20
97.045492
 30
0.0
 11
86.444164
 21
97.045492
 31
0.0
  0
LINE
  5
356
100
AcDbEntity
  8
0
  6
CONTINUOUS
 62
     7
100
AcDbLine
 10
86.034164
 20
97.222269
 30
0.0
 11
82.634164
 21
97.222269
 31
0.0
  0
LINE
  5
357
100
AcDbEntity
  8
0
  6
CONTINUOUS
 62
     7
100
AcDbLine
 10
82.224164
 20
97.222269
 30
0.0
 11
78.824164
 21
97.222269
 31
0.0
  0
LINE
  5
358
100
AcDbEntity
  8
0
  6
CONTINUOUS
 62
     7
100
AcDbLine
 10
93.654164
 20
97.222269
 30
0.0
 11
90.254164
 21
97.222269
 31
0.0
  0
LINE
  5
359
100
AcDbEntity
  8
0
  6
CONTINUOUS
 62
     7
100
AcDbLine
 10
89.844164
 20
97.045492
 30
0.0
 11
90.254164
 21
97.045492
 31
0.0
  0
LINE
  5
35A
100
AcDbEntity
  8
0
  6
CONTINUOUS
 62
     7
100
AcDbLine
 10
89.844164
 20
97.222269
 30
0.0
 11
86.444164
 21
97.222269
 31
0.0
  0
LINE
  5
35B
100
AcDbEntity
  8
0
  6
CONTINUOUS
 62
     7
100
AcDbLine
 10
79.304164
 20
97.299879
 30
0.0
 11
82.154164
 21
97.299879
 31
0.0
  0
LINE
  5
35C
100
AcDbEntity
  8
0
  6
CONTINUOUS
 62
     7
100
AcDbLine
 10
83.114164
 20
97.299879
 30
0.0
 11
85.964164
 21
97.299879
 31
0.0
  0
LINE
  5
35D
100
AcDbEntity
  8
0
  6
CONTINUOUS
 62
     7
100
AcDbLine
 10
86.924164
 20
97.299879
 30
0.0
 11
89.774164
 21
97.299879
 31
0.0
  0
LINE
  5
35E
100
AcDbEntity
  8
0
  6
CONTINUOUS
 62
     7
100
AcDbLine
 10
90.734164
 20
97.299879
 30
0.0
 11
93.584164
 21
97.299879
 31
0.0
  0
LINE
  5
35F
100
AcDbEntity
  8
0
  6
CONTINUOUS
 62
     7
100
AcDbLine
 10
90.654164
 20
94.588296
 30
0.0
 11
90.654164
 21
96.851038
 31
0.0
  0
LINE
  5
360
100
AcDbEntity
  8
0
  6
CONTINUOUS
 62
     7
100
AcDbLine
 10
93.654164
 20
94.588296
 30
0.0
 11
90.654164
 21
94.588296
 31
0.0
  0
LINE
  5
361
100
AcDbEntity
  8
0
  6
CONTINUOUS
 62
     7
100
AcDbLine
 10
86.844164
 20
94.588296
 30
0.0
 11
86.844164
 21
96.851038
 31
0.0
  0
LINE
  5
362
100
AcDbEntity
  8
0
  6
CONTINUOUS
 62
     7
100
AcDbLine
 10
89.844164
 20
94.588296
 30
0.0
 11
86.844164
 21
94.588296
 31
0.0
  0
LINE
  5
363
100
AcDbEntity
  8
0
  6
CONTINUOUS
 62
     7
100
AcDbLine
 10
79.224164
 20
94.588296
 30
0.0
 11
79.224164
 21
96.851038
 31
0.0
  0
LINE
  5
364
100
AcDbEntity
  8
0
  6
CONTINUOUS
 62
     7
100
AcDbLine
 10
82.224164
 20
94.588296
 30
0.0
 11
79.224164
 21
94.588296
 31
0.0
  0
LINE
  5
365
100
AcDbEntity
  8
0
  6
CONTINUOUS
 62
     7
100
AcDbLine
 10
83.034164
 20
94.588296
 30
0.0
 11
83.034164
 21
96.851038
 31
0.0
  0
LINE
  5
366
100
AcDbEntity
  8
0
  6
CONTINUOUS
 62
     7
100
AcDbLine
 10
86.034164
 20
94.588296
 30
0.0
 11
83.034164
 21
94.588296
 31
0.0
  0
LINE
  5
367
100
AcDbEntity
  8
0
  6
CONTINUOUS
 62
     7
100
AcDbLine
 10
78.824164
 20
104.155952
 30
0.0
 11
95.564164
 21
104.155952
 31
0.0
  0
LINE
  5
368
100
AcDbEntity
  8
0
  6
CONTINUOUS
 62
     7
100
AcDbLine
 10
78.824164
 20
106.455952
 30
0.0
 11
95.564164
 21
106.455952
 31
0.0
  0
LINE
  5
369
100
AcDbEntity
  8
0
  6
CONTINUOUS
 62
     7
100
AcDbLine
 10
90.654164
 20
95.648956
 30
0.0
 11
90.96801
 21
96.851038
 31
0.0
  0
LINE
  5
36A
100
AcDbEntity
  8
0
  6
CONTINUOUS
 62
     7
100
AcDbLine
 10
79.224164
 20
95.648956
 30
0.0
 11
79.53801
 21
96.851038
 31
0.0
  0
LINE
  5
36B
100
AcDbEntity
  8
0
  6
CONTINUOUS
 62
     7
100
AcDbLine
 10
83.034164
 20
95.648956
 30
0.0
 11
83.34801
 21
96.851038
 31
0.0
  0
LINE
  5
36C
100
AcDbEntity
  8
0
  6
CONTINUOUS
 62
     7
100
AcDbLine
 10
86.844164
 20
95.648956
 30
0.0
 11
87.15801
 21
96.851038
 31
0.0
  0
LINE
  5
36D
100
AcDbEntity
  8
0
  6
CONTINUOUS
 62
     7
100
AcDbLine
 10
81.910318
 20
96.851038
 30
0.0
 11
82.224164
 21
95.648956
 31
0.0
  0
LINE
  5
36E
100
AcDbEntity
  8
0
  6
CONTINUOUS
 62
     7
100
AcDbLine
 10
85.720318
 20
96.851038
 30
0.0
 11
86.034164
 21
95.648956
 31
0.0
  0
LINE
  5
36F
100
AcDbEntity
  8
0
  6
CONTINUOUS
 62
     7
100
AcDbLine
 10
93.340318
 20
96.851038
 30
0.0
 11
93.654164
 21
95.648956
 31
0.0
  0
LINE
  5
370
100
AcDbEntity
  8
0
  6
CONTINUOUS
 62
     7
100
AcDbLine
 10
89.530318
 20
96.851038
 30
0.0
 11
89.844164
 21
95.648956
 31
0.0
  0
LINE
  5
371
100
AcDbEntity
  8
0
  6
CONTINUOUS
 62
     7
100
AcDbLine
 10
82.224164
 20
95.648956
 30
0.0
 11
79.224164
 21
95.648956
 31
0.0
  0
LINE
  5
372
100
AcDbEntity
  8
0
  6
CONTINUOUS
 62
     7
100
AcDbLine
 10
89.844164
 20
95.648956
 30
0.0
 11
86.844164
 21
95.648956
 31
0.0
  0
LINE
  5
373
100
AcDbEntity
  8
0
  6
CONTINUOUS
 62
     7
100
AcDbLine
 10
93.654164
 20
95.648956
 30
0.0
 11
90.654164
 21
95.648956
 31
0.0
  0
LINE
  5
374
100
AcDbEntity
  8
0
  6
CONTINUOUS
 62
     7
100
AcDbLine
 10
86.034164
 20
95.648956
 30
0.0
 11
83.034164
 21
95.648956
 31
0.0
  0
LINE
  5
375
100
AcDbEntity
  8
0
  6
CONTINUOUS
 62
     7
100
AcDbLine
 10
95.564164
 20
106.455952
 30
0.0
 11
95.564164
 21
94.455952
 31
0.0
  0
LINE
  5
376
100
AcDbEntity
  8
0
  6
CONTINUOUS
 62
     7
100
AcDbLine
 10
78.824164
 20
106.455952
 30
0.0
 11
78.824164
 21
94.455952
 31
0.0
  0
LINE
  5
377
100
AcDbEntity
  8
0
  6
CONTINUOUS
 62
     7
100
AcDbLine
 10
93.584164
 20
98.742548
 30
0.0
 11
93.584164
 21
97.299879
 31
0.0
  0
LINE
  5
378
100
AcDbEntity
  8
0
  6
CONTINUOUS
 62
     7
100
AcDbLine
 10
90.734164
 20
98.742548
 30
0.0
 11
90.734164
 21
97.299879
 31
0.0
  0
LINE
  5
379
100
AcDbEntity
  8
0
  6
CONTINUOUS
 62
     7
100
AcDbLine
 10
89.774164
 20
98.742548
 30
0.0
 11
89.774164
 21
97.299879
 31
0.0
  0
LINE
  5
37A
100
AcDbEntity
  8
0
  6
CONTINUOUS
 62
     7
100
AcDbLine
 10
86.924164
 20
98.742548
 30
0.0
 11
86.924164
 21
97.299879
 31
0.0
  0
LINE
  5
37B
100
AcDbEntity
  8
0
  6
CONTINUOUS
 62
     7
100
AcDbLine
 10
85.964164
 20
98.742548
 30
0.0
 11
85.964164
 21
97.299879
 31
0.0
  0
LINE
  5
37C
100
AcDbEntity
  8
0
  6
CONTINUOUS
 62
     7
100
AcDbLine
 10
83.114164
 20
98.742548
 30
0.0
 11
83.114164
 21
97.299879
 31
0.0
  0
LINE
  5
37D
100
AcDbEntity
  8
0
  6
CONTINUOUS
 62
     7
100
AcDbLine
 10
82.154164
 20
98.742548
 30
0.0
 11
82.154164
 21
97.299879
 31
0.0
  0
LINE
  5
37E
100
AcDbEntity
  8
0
  6
CONTINUOUS
 62
     7
100
AcDbLine
 10
79.304164
 20
98.742548
 30
0.0
 11
79.304164
 21
97.299879
 31
0.0
  0
LINE
  5
37F
100
AcDbEntity
  8
0
  6
CONTINUOUS
 62
     7
100
AcDbLine
 10
95.564164
 20
94.455952
 30
0.0
 11
78.824164
 21
94.455952
 31
0.0
  0
LINE
  5
380
100
AcDbEntity
  8
0
  6
CONTINUOUS
 62
     7
100
AcDbLine
 10
86.444164
 20
97.222269
 30
0.0
 11
86.444164
 21
94.455952
 31
0.0
  0
LINE
  5
381
100
AcDbEntity
  8
0
  6
CONTINUOUS
 62
     7
100
AcDbLine
 10
93.654164
 20
94.455952
 30
0.0
 11
93.654164
 21
97.222269
 31
0.0
  0
LINE
  5
382
100
AcDbEntity
  8
0
  6
CONTINUOUS
 62
     7
100
AcDbLine
 10
82.634164
 20
97.222269
 30
0.0
 11
82.634164
 21
94.455952
 31
0.0
  0
LINE
  5
383
100
AcDbEntity
  8
0
  6
CONTINUOUS
 62
     7
100
AcDbLine
 10
82.224164
 20
94.455952
 30
0.0
 11
82.224164
 21
97.222269
 31
0.0
  0
LINE
  5
384
100
AcDbEntity
  8
0
  6
CONTINUOUS
 62
     7
100
AcDbLine
 10
89.844164
 20
94.455952
 30
0.0
 11
89.844164
 21
97.222269
 31
0.0
  0
LINE
  5
385
100
AcDbEntity
  8
0
  6
CONTINUOUS
 62
     7
100
AcDbLine
 10
86.034164
 20
94.455952
 30
0.0
 11
86.034164
 21
97.222269
 31
0.0
  0
LINE
  5
386
100
AcDbEntity
  8
0
  6
CONTINUOUS
 62
     7
100
AcDbLine
 10
90.254164
 20
94.455952
 30
0.0
 11
90.254164
 21
97.222269
 31
0.0
  0
LINE
  5
387
100
AcDbEntity
  8
0
  6
CONTINUOUS
 62
     7
100
AcDbLine
 10
90.654164
 20
96.851038
 30
0.0
 11
93.654164
 21
96.851038
 31
0.0
  0
LINE
  5
388
100
AcDbEntity
  8
0
  6
CONTINUOUS
 62
     7
100
AcDbLine
 10
86.844164
 20
96.851038
 30
0.0
 11
89.844164
 21
96.851038
 31
0.0
  0
LINE
  5
389
100
AcDbEntity
  8
0
  6
CONTINUOUS
 62
     7
100
AcDbLine
 10
79.224164
 20
96.851038
 30
0.0
 11
82.224164
 21
96.851038
 31
0.0
  0
LINE
  5
38A
100
AcDbEntity
  8
0
  6
CONTINUOUS
 62
     7
100
AcDbLine
 10
83.034164
 20
96.851038
 30
0.0
 11
86.034164
 21
96.851038
 31
0.0
  0
LINE
  5
38B
100
AcDbEntity
  8
\U+5E73\U+9762\U+56F3_\U+4F5C\U+56F3
  6
CONTINUOUS
100
AcDbLine
 10
89.774164
 20
98.44077
 30
0.0
 11
86.924164
 21
98.44077
 31
0.0
  0
LINE
  5
38C
100
AcDbEntity
  8
\U+5E73\U+9762\U+56F3_\U+4F5C\U+56F3
  6
CONTINUOUS
100
AcDbLine
 10
93.584164
 20
98.44077
 30
0.0
 11
90.734164
 21
98.44077
 31
0.0
  0
LINE
  5
38D
100
AcDbEntity
  8
\U+5E73\U+9762\U+56F3_\U+4F5C\U+56F3
  6
CONTINUOUS
100
AcDbLine
 10
82.154164
 20
98.44077
 30
0.0
 11
79.304164
 21
98.44077
 31
0.0
  0
LINE
  5
38E
100
AcDbEntity
  8
\U+5E73\U+9762\U+56F3_\U+4F5C\U+56F3
  6
CONTINUOUS
100
AcDbLine
 10
85.964164
 20
98.44077
 30
0.0
 11
83.114164
 21
98.44077
 31
0.0
  0
LINE
  5
38F
100
AcDbEntity
  8
\U+5E73\U+9762\U+56F3_\U+4F5C\U+56F3
  6
CONTINUOUS
100
AcDbLine
 10
82.154164
 20
97.466346
 30
0.0
 11
79.304164
 21
97.466346
 31
0.0
  0
LINE
  5
390
100
AcDbEntity
  8
\U+5E73\U+9762\U+56F3_\U+4F5C\U+56F3
  6
CONTINUOUS
100
AcDbLine
 10
85.964164
 20
97.466346
 30
0.0
 11
83.114164
 21
97.466346
 31
0.0
  0
LINE
  5
391
100
AcDbEntity
  8
\U+5E73\U+9762\U+56F3_\U+4F5C\U+56F3
  6
CONTINUOUS
100
AcDbLine
 10
89.774164
 20
97.466346
 30
0.0
 11
86.924164
 21
97.466346
 31
0.0
  0
LINE
  5
392
100
AcDbEntity
  8
\U+5E73\U+9762\U+56F3_\U+4F5C\U+56F3
  6
CONTINUOUS
100
AcDbLine
 10
93.584164
 20
97.466346
 30
0.0
 11
90.734164
 21
97.466346
 31
0.0
  0
LINE
  5
393
100
AcDbEntity
  8
\U+5E73\U+9762\U+56F3_\U+4F5C\U+56F3
  6
CONTINUOUS
100
AcDbLine
 10
79.224164
 20
97.222269
 30
0.0
 11
79.224164
 21
96.851038
 31
0.0
  0
LINE
  5
394
100
AcDbEntity
  8
\U+5E73\U+9762\U+56F3_\U+4F5C\U+56F3
  6
CONTINUOUS
100
AcDbLine
 10
86.844164
 20
97.222269
 30
0.0
 11
86.844164
 21
96.851038
 31
0.0
  0
LINE
  5
395
100
AcDbEntity
  8
\U+5E73\U+9762\U+56F3_\U+4F5C\U+56F3
  6
CONTINUOUS
100
AcDbLine
 10
90.654164
 20
97.222269
 30
0.0
 11
90.654164
 21
96.851038
 31
0.0
  0
LINE
  5
396
100
AcDbEntity
  8
\U+5E73\U+9762\U+56F3_\U+4F5C\U+56F3
  6
CONTINUOUS
100
AcDbLine
 10
83.034164
 20
97.222269
 30
0.0
 11
83.034164
 21
96.851038
 31
0.0
  0
LINE
  5
397
100
AcDbEntity
  8
\U+5E73\U+9762\U+56F3_\U+4F5C\U+56F3
  6
CONTINUOUS
100
AcDbLine
 10
83.114164
 20
97.666346
 30
0.0
 11
85.964164
 21
97.666346
 31
0.0
  0
LINE
  5
398
100
AcDbEntity
  8
\U+5E73\U+9762\U+56F3_\U+4F5C\U+56F3
  6
CONTINUOUS
100
AcDbLine
 10
90.734164
 20
97.666346
 30
0.0
 11
93.584164
 21
97.666346
 31
0.0
  0
LINE
  5
399
100
AcDbEntity
  8
\U+5E73\U+9762\U+56F3_\U+4F5C\U+56F3
  6
CONTINUOUS
100
AcDbLine
 10
79.304164
 20
97.666346
 30
0.0
 11
82.154164
 21
97.666346
 31
0.0
  0
LINE
  5
39A
100
AcDbEntity
  8
\U+5E73\U+9762\U+56F3_\U+4F5C\U+56F3
  6
CONTINUOUS
100
AcDbLine
 10
86.924164
 20
97.666346
 30
0.0
 11
89.774164
 21
97.666346
 31
0.0
  0
CIRCLE
  5
39B
100
AcDbEntity
  8
0
  6
CONTINUOUS
 62
     7
100
AcDbCircle
 10
92.254164
 20
103.155952
 30
0.0
 40
0.6
  0
CIRCLE
  5
39C
100
AcDbEntity
  8
0
  6
CONTINUOUS
 62
     7
100
AcDbCircle
 10
88.444164
 20
103.155952
 30
0.0
 40
0.6
  0
CIRCLE
  5
39D
100
AcDbEntity
  8
0
  6
CONTINUOUS
 62
     7
100
AcDbCircle
 10
80.824164
 20
103.155952
 30
0.0
 40
0.6
  0
CIRCLE
  5
39E
100
AcDbEntity
  8
0
  6
CONTINUOUS
 62
     7
100
AcDbCircle
 10
84.634164
 20
103.155952
 30
0.0
 40
0.6
  0
LINE
  5
39F
100
AcDbEntity
  8
0
  6
CONTINUOUS
 62
     7
100
AcDbLine
 10
78.564164
 20
99.061949
 30
0.0
 11
61.824164
 21
99.061949
 31
0.0
  0
LINE
  5
3A0
100
AcDbEntity
  8
0
  6
CONTINUOUS
 62
     7
100
AcDbLine
 10
78.564164
 20
102.155952
 30
0.0
 11
61.824164
 21
102.155952
 31
0.0
  0
LINE
  5
3A1
100
AcDbEntity
  8
0
  6
CONTINUOUS
 62
     7
100
AcDbLine
 10
76.584164
 20
97.540467
 30
0.0
 11
78.564164
 21
97.540467
 31
0.0
  0
LINE
  5
3A2
100
AcDbEntity
  8
0
  6
CONTINUOUS
 62
     7
100
AcDbLine
 10
76.584164
 20
98.742548
 30
0.0
 11
73.734164
 21
98.742548
 31
0.0
  0
LINE
  5
3A3
100
AcDbEntity
  8
0
  6
CONTINUOUS
 62
     7
100
AcDbLine
 10
72.774164
 20
97.540467
 30
0.0
 11
73.734164
 21
97.540467
 31
0.0
  0
LINE
  5
3A4
100
AcDbEntity
  8
0
  6
CONTINUOUS
 62
     7
100
AcDbLine
 10
72.774164
 20
98.742548
 30
0.0
 11
69.924164
 21
98.742548
 31
0.0
  0
LINE
  5
3A5
100
AcDbEntity
  8
0
  6
CONTINUOUS
 62
     7
100
AcDbLine
 10
68.964164
 20
97.540467
 30
0.0
 11
69.924164
 21
97.540467
 31
0.0
  0
LINE
  5
3A6
100
AcDbEntity
  8
0
  6
CONTINUOUS
 62
     7
100
AcDbLine
 10
68.964164
 20
97.540467
 30
0.0
 11
69.924164
 21
97.540467
 31
0.0
  0
LINE
  5
3A7
100
AcDbEntity
  8
0
  6
CONTINUOUS
 62
     7
100
AcDbLine
 10
68.964164
 20
98.742548
 30
0.0
 11
66.114164
 21
98.742548
 31
0.0
  0
LINE
  5
3A8
100
AcDbEntity
  8
0
  6
CONTINUOUS
 62
     7
100
AcDbLine
 10
65.154164
 20
97.540467
 30
0.0
 11
66.114164
 21
97.540467
 31
0.0
  0
LINE
  5
3A9
100
AcDbEntity
  8
0
  6
CONTINUOUS
 62
     7
100
AcDbLine
 10
65.154164
 20
98.742548
 30
0.0
 11
62.304164
 21
98.742548
 31
0.0
  0
LINE
  5
3AA
100
AcDbEntity
  8
0
  6
CONTINUOUS
 62
     7
100
AcDbLine
 10
61.824164
 20
97.540467
 30
0.0
 11
62.304164
 21
97.540467
 31
0.0
  0
LINE
  5
3AB
100
AcDbEntity
  8
0
  6
CONTINUOUS
 62
     7
100
AcDbLine
 10
62.304164
 20
98.201719
 30
0.0
 11
65.154164
 21
98.201719
 31
0.0
  0
LINE
  5
3AC
100
AcDbEntity
  8
0
  6
CONTINUOUS
 62
     7
100
AcDbLine
 10
66.114164
 20
98.201719
 30
0.0
 11
68.964164
 21
98.201719
 31
0.0
  0
LINE
  5
3AD
100
AcDbEntity
  8
0
  6
CONTINUOUS
 62
     7
100
AcDbLine
 10
69.924164
 20
98.201719
 30
0.0
 11
72.774164
 21
98.201719
 31
0.0
  0
LINE
  5
3AE
100
AcDbEntity
  8
0
  6
CONTINUOUS
 62
     7
100
AcDbLine
 10
73.734164
 20
98.201719
 30
0.0
 11
76.584164
 21
98.201719
 31
0.0
  0
LINE
  5
3AF
100
AcDbEntity
  8
0
  6
CONTINUOUS
 62
     7
100
AcDbLine
 10
69.034164
 20
97.045492
 30
0.0
 11
69.444164
 21
97.045492
 31
0.0
  0
LINE
  5
3B0
100
AcDbEntity
  8
0
  6
CONTINUOUS
 62
     7
100
AcDbLine
 10
78.564164
 20
97.045492
 30
0.0
 11
76.654164
 21
97.045492
 31
0.0
  0
LINE
  5
3B1
100
AcDbEntity
  8
0
  6
CONTINUOUS
 62
     7
100
AcDbLine
 10
65.224164
 20
97.045492
 30
0.0
 11
65.634164
 21
97.045492
 31
0.0
  0
LINE
  5
3B2
100
AcDbEntity
  8
0
  6
CONTINUOUS
 62
     7
100
AcDbLine
 10
72.844164
 20
97.222269
 30
0.0
 11
69.444164
 21
97.222269
 31
0.0
  0
LINE
  5
3B3
100
AcDbEntity
  8
0
  6
CONTINUOUS
 62
     7
100
AcDbLine
 10
69.034164
 20
97.045492
 30
0.0
 11
69.444164
 21
97.045492
 31
0.0
  0
LINE
  5
3B4
100
AcDbEntity
  8
0
  6
CONTINUOUS
 62
     7
100
AcDbLine
 10
69.034164
 20
97.222269
 30
0.0
 11
65.634164
 21
97.222269
 31
0.0
  0
LINE
  5
3B5
100
AcDbEntity
  8
0
  6
CONTINUOUS
 62
     7
100
AcDbLine
 10
65.224164
 20
97.222269
 30
0.0
 11
61.824164
 21
97.222269
 31
0.0
  0
LINE
  5
3B6
100
AcDbEntity
  8
0
  6
CONTINUOUS
 62
     7
100
AcDbLine
 10
76.654164
 20
97.222269
 30
0.0
 11
73.254164
 21
97.222269
 31
0.0
  0
LINE
  5
3B7
100
AcDbEntity
  8
0
  6
CONTINUOUS
 62
     7
100
AcDbLine
 10
72.844164
 20
97.045492
 30
0.0
 11
73.254164
 21
97.045492
 31
0.0
  0
LINE
  5
3B8
100
AcDbEntity
  8
0
  6
CONTINUOUS
 62
     7
100
AcDbLine
 10
72.844164
 20
97.222269
 30
0.0
 11
69.444164
 21
97.222269
 31
0.0
  0
LINE
  5
3B9
100
AcDbEntity
  8
0
  6
CONTINUOUS
 62
     7
100
AcDbLine
 10
62.304164
 20
97.299879
 30
0.0
 11
65.154164
 21
97.299879
 31
0.0
  0
LINE
  5
3BA
100
AcDbEntity
  8
0
  6
CONTINUOUS
 62
     7
100
AcDbLine
 10
66.114164
 20
97.299879
 30
0.0
 11
68.964164
 21
97.299879
 31
0.0
  0
LINE
  5
3BB
100
AcDbEntity
  8
0
  6
CONTINUOUS
 62
     7
100
AcDbLine
 10
69.924164
 20
97.299879
 30
0.0
 11
72.774164
 21
97.299879
 31
0.0
  0
LINE
  5
3BC
100
AcDbEntity
  8
0
  6
CONTINUOUS
 62
     7
100
AcDbLine
 10
73.734164
 20
97.299879
 30
0.0
 11
76.584164
 21
97.299879
 31
0.0
  0
LINE
  5
3BD
100
AcDbEntity
  8
0
  6
CONTINUOUS
 62
     7
100
AcDbLine
 10
73.654164
 20
94.588296
 30
0.0
 11
73.654164
 21
96.851038
 31
0.0
  0
LINE
  5
3BE
100
AcDbEntity
  8
0
  6
CONTINUOUS
 62
     7
100
AcDbLine
 10
76.654164
 20
94.588296
 30
0.0
 11
73.654164
 21
94.588296
 31
0.0
  0
LINE
  5
3BF
100
AcDbEntity
  8
0
  6
CONTINUOUS
 62
     7
100
AcDbLine
 10
69.844164
 20
94.588296
 30
0.0
 11
69.844164
 21
96.851038
 31
0.0
  0
LINE
  5
3C0
100
AcDbEntity
  8
0
  6
CONTINUOUS
 62
     7
100
AcDbLine
 10
72.844164
 20
94.588296
 30
0.0
 11
69.844164
 21
94.588296
 31
0.0
  0
LINE
  5
3C1
100
AcDbEntity
  8
0
  6
CONTINUOUS
 62
     7
100
AcDbLine
 10
62.224164
 20
94.588296
 30
0.0
 11
62.224164
 21
96.851038
 31
0.0
  0
LINE
  5
3C2
100
AcDbEntity
  8
0
  6
CONTINUOUS
 62
     7
100
AcDbLine
 10
65.224164
 20
94.588296
 30
0.0
 11
62.224164
 21
94.588296
 31
0.0
  0
LINE
  5
3C3
100
AcDbEntity
  8
0
  6
CONTINUOUS
 62
     7
100
AcDbLine
 10
66.034164
 20
94.588296
 30
0.0
 11
66.034164
 21
96.851038
 31
0.0
  0
LINE
  5
3C4
100
AcDbEntity
  8
0
  6
CONTINUOUS
 62
     7
100
AcDbLine
 10
69.034164
 20
94.588296
 30
0.0
 11
66.034164
 21
94.588296
 31
0.0
  0
LINE
  5
3C5
100
AcDbEntity
  8
0
  6
CONTINUOUS
 62
     7
100
AcDbLine
 10
61.824164
 20
104.155952
 30
0.0
 11
78.564164
 21
104.155952
 31
0.0
  0
LINE
  5
3C6
100
AcDbEntity
  8
0
  6
CONTINUOUS
 62
     7
100
AcDbLine
 10
61.824164
 20
106.455952
 30
0.0
 11
78.564164
 21
106.455952
 31
0.0
  0
LINE
  5
3C7
100
AcDbEntity
  8
0
  6
CONTINUOUS
 62
     7
100
AcDbLine
 10
73.654164
 20
95.648956
 30
0.0
 11
73.96801
 21
96.851038
 31
0.0
  0
LINE
  5
3C8
100
AcDbEntity
  8
0
  6
CONTINUOUS
 62
     7
100
AcDbLine
 10
62.224164
 20
95.648956
 30
0.0
 11
62.53801
 21
96.851038
 31
0.0
  0
LINE
  5
3C9
100
AcDbEntity
  8
0
  6
CONTINUOUS
 62
     7
100
AcDbLine
 10
66.034164
 20
95.648956
 30
0.0
 11
66.34801
 21
96.851038
 31
0.0
  0
LINE
  5
3CA
100
AcDbEntity
  8
0
  6
CONTINUOUS
 62
     7
100
AcDbLine
 10
69.844164
 20
95.648956
 30
0.0
 11
70.15801
 21
96.851038
 31
0.0
  0
LINE
  5
3CB
100
AcDbEntity
  8
0
  6
CONTINUOUS
 62
     7
100
AcDbLine
 10
64.910318
 20
96.851038
 30
0.0
 11
65.224164
 21
95.648956
 31
0.0
  0
LINE
  5
3CC
100
AcDbEntity
  8
0
  6
CONTINUOUS
 62
     7
100
AcDbLine
 10
68.720318
 20
96.851038
 30
0.0
 11
69.034164
 21
95.648956
 31
0.0
  0
LINE
  5
3CD
100
AcDbEntity
  8
0
  6
CONTINUOUS
 62
     7
100
AcDbLine
 10
76.340318
 20
96.851038
 30
0.0
 11
76.654164
 21
95.648956
 31
0.0
  0
LINE
  5
3CE
100
AcDbEntity
  8
0
  6
CONTINUOUS
 62
     7
100
AcDbLine
 10
72.530318
 20
96.851038
 30
0.0
 11
72.844164
 21
95.648956
 31
0.0
  0
LINE
  5
3CF
100
AcDbEntity
  8
0
  6
CONTINUOUS
 62
     7
100
AcDbLine
 10
65.224164
 20
95.648956
 30
0.0
 11
62.224164
 21
95.648956
 31
0.0
  0
LINE
  5
3D0
100
AcDbEntity
  8
0
  6
CONTINUOUS
 62
     7
100
AcDbLine
 10
72.844164
 20
95.648956
 30
0.0
 11
69.844164
 21
95.648956
 31
0.0
  0
LINE
  5
3D1
100
AcDbEntity
  8
0
  6
CONTINUOUS
 62
     7
100
AcDbLine
 10
76.654164
 20
95.648956
 30
0.0
 11
73.654164
 21
95.648956
 31
0.0
  0
LINE
  5
3D2
100
AcDbEntity
  8
0
  6
CONTINUOUS
 62
     7
100
AcDbLine
 10
69.034164
 20
95.648956
 30
0.0
 11
66.034164
 21
95.648956
 31
0.0
  0
LINE
  5
3D3
100
AcDbEntity
  8
0
  6
CONTINUOUS
 62
     7
100
AcDbLine
 10
78.564164
 20
106.455952
 30
0.0
 11
78.564164
 21
94.455952
 31
0.0
  0
LINE
  5
3D4
100
AcDbEntity
  8
0
  6
CONTINUOUS
 62
     7
100
AcDbLine
 10
61.824164
 20
106.455952
 30
0.0
 11
61.824164
 21
94.455952
 31
0.0
  0
LINE
  5
3D5
100
AcDbEntity
  8
0
  6
CONTINUOUS
 62
     7
100
AcDbLine
 10
76.584164
 20
98.742548
 30
0.0
 11
76.584164
 21
97.299879
 31
0.0
  0
LINE
  5
3D6
100
AcDbEntity
  8
0
  6
CONTINUOUS
 62
     7
100
AcDbLine
 10
73.734164
 20
98.742548
 30
0.0
 11
73.734164
 21
97.299879
 31
0.0
  0
LINE
  5
3D7
100
AcDbEntity
  8
0
  6
CONTINUOUS
 62
     7
100
AcDbLine
 10
72.774164
 20
98.742548
 30
0.0
 11
72.774164
 21
97.299879
 31
0.0
  0
LINE
  5
3D8
100
AcDbEntity
  8
0
  6
CONTINUOUS
 62
     7
100
AcDbLine
 10
69.924164
 20
98.742548
 30
0.0
 11
69.924164
 21
97.299879
 31
0.0
  0
LINE
  5
3D9
100
AcDbEntity
  8
0
  6
CONTINUOUS
 62
     7
100
AcDbLine
 10
68.964164
 20
98.742548
 30
0.0
 11
68.964164
 21
97.299879
 31
0.0
  0
LINE
  5
3DA
100
AcDbEntity
  8
0
  6
CONTINUOUS
 62
     7
100
AcDbLine
 10
66.114164
 20
98.742548
 30
0.0
 11
66.114164
 21
97.299879
 31
0.0
  0
LINE
  5
3DB
100
AcDbEntity
  8
0
  6
CONTINUOUS
 62
     7
100
AcDbLine
 10
65.154164
 20
98.742548
 30
0.0
 11
65.154164
 21
97.299879
 31
0.0
  0
LINE
  5
3DC
100
AcDbEntity
  8
0
  6
CONTINUOUS
 62
     7
100
AcDbLine
 10
62.304164
 20
98.742548
 30
0.0
 11
62.304164
 21
97.299879
 31
0.0
  0
LINE
  5
3DD
100
AcDbEntity
  8
0
  6
CONTINUOUS
 62
     7
100
AcDbLine
 10
78.564164
 20
94.455952
 30
0.0
 11
61.824164
 21
94.455952
 31
0.0
  0
LINE
  5
3DE
100
AcDbEntity
  8
0
  6
CONTINUOUS
 62
     7
100
AcDbLine
 10
69.444164
 20
97.222269
 30
0.0
 11
69.444164
 21
94.455952
 31
0.0
  0
LINE
  5
3DF
100
AcDbEntity
  8
0
  6
CONTINUOUS
 62
     7
100
AcDbLine
 10
76.654164
 20
94.455952
 30
0.0
 11
76.654164
 21
97.222269
 31
0.0
  0
LINE
  5
3E0
100
AcDbEntity
  8
0
  6
CONTINUOUS
 62
     7
100
AcDbLine
 10
65.634164
 20
97.222269
 30
0.0
 11
65.634164
 21
94.455952
 31
0.0
  0
LINE
  5
3E1
100
AcDbEntity
  8
0
  6
CONTINUOUS
 62
     7
100
AcDbLine
 10
65.224164
 20
94.455952
 30
0.0
 11
65.224164
 21
97.222269
 31
0.0
  0
LINE
  5
3E2
100
AcDbEntity
  8
0
  6
CONTINUOUS
 62
     7
100
AcDbLine
 10
72.844164
 20
94.455952
 30
0.0
 11
72.844164
 21
97.222269
 31
0.0
  0
LINE
  5
3E3
100
AcDbEntity
  8
0
  6
CONTINUOUS
 62
     7
100
AcDbLine
 10
69.444164
 20
94.455952
 30
0.0
 11
69.444164
 21
97.222269
 31
0.0
  0
LINE
  5
3E4
100
AcDbEntity
  8
0
  6
CONTINUOUS
 62
     7
100
AcDbLine
 10
69.034164
 20
94.455952
 30
0.0
 11
69.034164
 21
97.222269
 31
0.0
  0
LINE
  5
3E5
100
AcDbEntity
  8
0
  6
CONTINUOUS
 62
     7
100
AcDbLine
 10
73.254164
 20
94.455952
 30
0.0
 11
73.254164
 21
97.222269
 31
0.0
  0
LINE
  5
3E6
100
AcDbEntity
  8
0
  6
CONTINUOUS
 62
     7
100
AcDbLine
 10
73.654164
 20
96.851038
 30
0.0
 11
76.654164
 21
96.851038
 31
0.0
  0
LINE
  5
3E7
100
AcDbEntity
  8
0
  6
CONTINUOUS
 62
     7
100
AcDbLine
 10
69.844164
 20
96.851038
 30
0.0
 11
72.844164
 21
96.851038
 31
0.0
  0
LINE
  5
3E8
100
AcDbEntity
  8
0
  6
CONTINUOUS
 62
     7
100
AcDbLine
 10
62.224164
 20
96.851038
 30
0.0
 11
65.224164
 21
96.851038
 31
0.0
  0
LINE
  5
3E9
100
AcDbEntity
  8
0
  6
CONTINUOUS
 62
     7
100
AcDbLine
 10
66.034164
 20
96.851038
 30
0.0
 11
69.034164
 21
96.851038
 31
0.0
  0
LINE
  5
3EA
100
AcDbEntity
  8
\U+5E73\U+9762\U+56F3_\U+4F5C\U+56F3
  6
CONTINUOUS
100
AcDbLine
 10
72.774164
 20
98.44077
 30
0.0
 11
69.924164
 21
98.44077
 31
0.0
  0
LINE
  5
3EB
100
AcDbEntity
  8
\U+5E73\U+9762\U+56F3_\U+4F5C\U+56F3
  6
CONTINUOUS
100
AcDbLine
 10
76.584164
 20
98.44077
 30
0.0
 11
73.734164
 21
98.44077
 31
0.0
  0
LINE
  5
3EC
100
AcDbEntity
  8
\U+5E73\U+9762\U+56F3_\U+4F5C\U+56F3
  6
CONTINUOUS
100
AcDbLine
 10
65.154164
 20
98.44077
 30
0.0
 11
62.304164
 21
98.44077
 31
0.0
  0
LINE
  5
3ED
100
AcDbEntity
  8
\U+5E73\U+9762\U+56F3_\U+4F5C\U+56F3
  6
CONTINUOUS
100
AcDbLine
 10
68.964164
 20
98.44077
 30
0.0
 11
66.114164
 21
98.44077
 31
0.0
  0
LINE
  5
3EE
100
AcDbEntity
  8
\U+5E73\U+9762\U+56F3_\U+4F5C\U+56F3
  6
CONTINUOUS
100
AcDbLine
 10
65.154164
 20
97.466346
 30
0.0
 11
62.304164
 21
97.466346
 31
0.0
  0
LINE
  5
3EF
100
AcDbEntity
  8
\U+5E73\U+9762\U+56F3_\U+4F5C\U+56F3
  6
CONTINUOUS
100
AcDbLine
 10
68.964164
 20
97.466346
 30
0.0
 11
66.114164
 21
97.466346
 31
0.0
  0
LINE
  5
3F0
100
AcDbEntity
  8
\U+5E73\U+9762\U+56F3_\U+4F5C\U+56F3
  6
CONTINUOUS
100
AcDbLine
 10
72.774164
 20
97.466346
 30
0.0
 11
69.924164
 21
97.466346
 31
0.0
  0
LINE
  5
3F1
100
AcDbEntity
  8
\U+5E73\U+9762\U+56F3_\U+4F5C\U+56F3
  6
CONTINUOUS
100
AcDbLine
 10
76.584164
 20
97.466346
 30
0.0
 11
73.734164
 21
97.466346
 31
0.0
  0
LINE
  5
3F2
100
AcDbEntity
  8
\U+5E73\U+9762\U+56F3_\U+4F5C\U+56F3
  6
CONTINUOUS
100
AcDbLine
 10
62.224164
 20
97.222269
 30
0.0
 11
62.224164
 21
96.851038
 31
0.0
  0
LINE
  5
3F3
100
AcDbEntity
  8
\U+5E73\U+9762\U+56F3_\U+4F5C\U+56F3
  6
CONTINUOUS
100
AcDbLine
 10
69.844164
 20
97.222269
 30
0.0
 11
69.844164
 21
96.851038
 31
0.0
  0
LINE
  5
3F4
100
AcDbEntity
  8
\U+5E73\U+9762\U+56F3_\U+4F5C\U+56F3
  6
CONTINUOUS
100
AcDbLine
 10
73.654164
 20
97.222269
 30
0.0
 11
73.654164
 21
96.851038
 31
0.0
  0
LINE
  5
3F5
100
AcDbEntity
  8
\U+5E73\U+9762\U+56F3_\U+4F5C\U+56F3
  6
CONTINUOUS
100
AcDbLine
 10
66.034164
 20
97.222269
 30
0.0
 11
66.034164
 21
96.851038
 31
0.0
  0
LINE
  5
3F6
100
AcDbEntity
  8
\U+5E73\U+9762\U+56F3_\U+4F5C\U+56F3
  6
CONTINUOUS
100
AcDbLine
 10
66.114164
 20
97.666346
 30
0.0
 11
68.964164
 21
97.666346
 31
0.0
  0
LINE
  5
3F7
100
AcDbEntity
  8
\U+5E73\U+9762\U+56F3_\U+4F5C\U+56F3
  6
CONTINUOUS
100
AcDbLine
 10
73.734164
 20
97.666346
 30
0.0
 11
76.584164
 21
97.666346
 31
0.0
  0
LINE
  5
3F8
100
AcDbEntity
  8
\U+5E73\U+9762\U+56F3_\U+4F5C\U+56F3
  6
CONTINUOUS
100
AcDbLine
 10
62.304164
 20
97.666346
 30
0.0
 11
65.154164
 21
97.666346
 31
0.0
  0
LINE
  5
3F9
100
AcDbEntity
  8
\U+5E73\U+9762\U+56F3_\U+4F5C\U+56F3
  6
CONTINUOUS
100
AcDbLine
 10
69.924164
 20
97.666346
 30
0.0
 11
72.774164
 21
97.666346
 31
0.0
  0
CIRCLE
  5
3FA
100
AcDbEntity
  8
0
  6
CONTINUOUS
 62
     7
100
AcDbCircle
 10
75.254164
 20
103.155952
 30
0.0
 40
0.6
  0
CIRCLE
  5
3FB
100
AcDbEntity
  8
0
  6
CONTINUOUS
 62
     7
100
AcDbCircle
 10
71.444164
 20
103.155952
 30
0.0
 40
0.6
  0
CIRCLE
  5
3FC
100
AcDbEntity
  8
0
  6
CONTINUOUS
 62
     7
100
AcDbCircle
 10
63.824164
 20
103.155952
 30
0.0
 40
0.6
  0
CIRCLE
  5
3FD
100
AcDbEntity
  8
0
  6
CONTINUOUS
 62
     7
100
AcDbCircle
 10
67.634164
 20
103.155952
 30
0.0
 40
0.6
  0
LINE
  5
3FE
100
AcDbEntity
  8
GR2_01
  6
CONTINUOUS
100
AcDbLine
 10
214.826232
 20
162.955952
 30
0.0
 11
209.326232
 21
161.455952
 31
0.0
  0
LINE
  5
3FF
100
AcDbEntity
  8
GR2_01
  6
CONTINUOUS
100
AcDbLine
 10
183.826232
 20
161.455952
 30
0.0
 11
221.38337
 21
161.455952
 31
0.0
  0
LINE
  5
400
100
AcDbEntity
  8
GR2_01
  6
CONTINUOUS
100
AcDbLine
 10
182.826232
 20
160.455952
 30
0.0
 11
182.826232
 21
123.355952
 31
0.0
  0
ARC
  5
401
100
AcDbEntity
  8
GR2_01
  6
CONTINUOUS
100
AcDbCircle
 10
183.826232
 20
160.455952
 30
0.0
 40
1.0
100
AcDbArc
 50
90.0
 51
180.0
  0
LINE
  5
402
100
AcDbEntity
  8
GR2_01
  6
CONTINUOUS
100
AcDbLine
 10
214.826232
 20
162.955952
 30
0.0
 11
217.826232
 21
162.955952
 31
0.0
  0
LINE
  5
403
100
AcDbEntity
  8
GR2_01
  6
CONTINUOUS
100
AcDbLine
 10
217.826232
 20
162.955952
 30
0.0
 11
219.326232
 21
161.455952
 31
0.0
  0
LINE
  5
404
100
AcDbEntity
  8
GR2_01
  6
CONTINUOUS
100
AcDbLine
 10
214.826232
 20
120.855952
 30
0.0
 11
209.326232
 21
122.355952
 31
0.0
  0
LINE
  5
405
100
AcDbEntity
  8
GR2_01
  6
CONTINUOUS
100
AcDbLine
 10
183.826232
 20
122.355952
 30
0.0
 11
221.437915
 21
122.355952
 31
0.0
  0
ARC
  5
406
100
AcDbEntity
  8
GR2_01
  6
CONTINUOUS
100
AcDbCircle
 10
183.826232
 20
123.355952
 30
0.0
 40
1.0
100
AcDbArc
 50
180.0
 51
270.0
  0
LINE
  5
407
100
AcDbEntity
  8
GR2_01
  6
CONTINUOUS
100
AcDbLine
 10
214.826232
 20
120.855952
 30
0.0
 11
217.826232
 21
120.855952
 31
0.0
  0
LINE
  5
408
100
AcDbEntity
  8
GR2_01
  6
CONTINUOUS
100
AcDbLine
 10
217.826232
 20
120.855952
 30
0.0
 11
219.326232
 21
122.355952
 31
0.0
  0
LINE
  5
40A
100
AcDbEntity
  8
GR2-1
  6
CONTINUOUS
100
AcDbLine
 10
128.864164
 20
161.455952
 30
0.0
 11
116.364164
 21
161.455952
 31
0.0
  0
LINE
  5
40B
100
AcDbEntity
  8
GR2-1
  6
CONTINUOUS
100
AcDbLine
 10
129.864164
 20
160.455952
 30
0.0
 11
129.864164
 21
123.355952
 31
0.0
  0
LINE
  5
40C
100
AcDbEntity
  8
GR2-1
  6
CONTINUOUS
100
AcDbLine
 10
115.364164
 20
160.455952
 30
0.0
 11
115.364164
 21
123.355952
 31
0.0
  0
LINE
  5
40D
100
AcDbEntity
  8
GR2-1
  6
CONTINUOUS
100
AcDbLine
 10
116.364164
 20
122.355952
 30
0.0
 11
128.864164
 21
122.355952
 31
0.0
  0
ARC
  5
40E
100
AcDbEntity
  8
GR2-1
  6
CONTINUOUS
100
AcDbCircle
 10
128.864164
 20
160.455952
 30
0.0
 40
1.0
100
AcDbArc
 50
0.0
 51
90.0
  0
ARC
  5
40F
100
AcDbEntity
  8
GR2-1
  6
CONTINUOUS
100
AcDbCircle
 10
116.364164
 20
160.455952
 30
0.0
 40
1.0
100
AcDbArc
 50
90.0
 51
180.0
  0
ARC
  5
410
100
AcDbEntity
  8
GR2-1
  6
CONTINUOUS
100
AcDbCircle
 10
116.364164
 20
123.355952
 30
0.0
 40
1.0
100
AcDbArc
 50
180.0
 51
270.0
  0
ARC
  5
411
100
AcDbEntity
  8
GR2-1
  6
CONTINUOUS
100
AcDbCircle
 10
128.864164
 20
123.355952
 30
0.0
 40
1.0
100
AcDbArc
 50
270.0
 51
0.0
  0
CIRCLE
  5
412
100
AcDbEntity
  8
GR2-1
  6
CONTINUOUS
100
AcDbCircle
 10
123.664164
 20
143.555952
 30
0.0
 40
2.0
  0
CIRCLE
  5
413
100
AcDbEntity
  8
GR2-1
  6
CONTINUOUS
100
AcDbCircle
 10
123.664164
 20
133.555952
 30
0.0
 40
2.0
  0
LINE
  5
414
100
AcDbEntity
  8
GR2-1
  6
CONTINUOUS
100
AcDbLine
 10
116.864164
 20
159.955952
 30
0.0
 11
116.864164
 21
123.855952
 31
0.0
  0
LINE
  5
415
100
AcDbEntity
  8
GR2-1
  6
CONTINUOUS
100
AcDbLine
 10
116.864164
 20
123.855952
 30
0.0
 11
128.364164
 21
123.855952
 31
0.0
  0
LINE
  5
416
100
AcDbEntity
  8
GR2-1
  6
CONTINUOUS
100
AcDbLine
 10
128.364164
 20
159.955952
 30
0.0
 11
128.364164
 21
123.855952
 31
0.0
  0
LINE
  5
417
100
AcDbEntity
  8
GR2-1
  6
CONTINUOUS
100
AcDbLine
 10
128.364164
 20
159.955952
 30
0.0
 11
116.864164
 21
159.955952
 31
0.0
  0
LINE
  5
418
100
AcDbEntity
  8
GR2-1
  6
CONTINUOUS
100
AcDbLine
 10
117.114164
 20
159.705952
 30
0.0
 11
128.114164
 21
159.705952
 31
0.0
  0
LINE
  5
419
100
AcDbEntity
  8
GR2-1
  6
CONTINUOUS
100
AcDbLine
 10
128.114164
 20
159.705952
 30
0.0
 11
128.114164
 21
124.105952
 31
0.0
  0
LINE
  5
41A
100
AcDbEntity
  8
GR2-1
  6
CONTINUOUS
100
AcDbLine
 10
128.114164
 20
124.105952
 30
0.0
 11
117.114164
 21
124.105952
 31
0.0
  0
LINE
  5
41B
100
AcDbEntity
  8
GR2-1
  6
CONTINUOUS
100
AcDbLine
 10
117.114164
 20
124.105952
 30
0.0
 11
117.114164
 21
159.705952
 31
0.0
  0
LINE
  5
41C
100
AcDbEntity
  8
GR2-1
  6
CONTINUOUS
100
AcDbLine
 10
117.114164
 20
156.205952
 30
0.0
 11
128.114164
 21
156.205952
 31
0.0
  0
LINE
  5
41D
100
AcDbEntity
  8
GR2-1
  6
CONTINUOUS
100
AcDbLine
 10
117.114164
 20
152.205952
 30
0.0
 11
128.114164
 21
152.205952
 31
0.0
  0
CIRCLE
  5
41E
100
AcDbEntity
  8
GR2-1
  6
CONTINUOUS
100
AcDbCircle
 10
123.664164
 20
133.555952
 30
0.0
 40
2.25
  0
CIRCLE
  5
41F
100
AcDbEntity
  8
GR2-1
  6
CONTINUOUS
100
AcDbCircle
 10
123.664164
 20
143.555952
 30
0.0
 40
2.25
  0
LINE
  5
420
100
AcDbEntity
  8
GR2-1
  6
CONTINUOUS
100
AcDbLine
 10
127.114164
 20
162.955952
 30
0.0
 11
122.114164
 21
162.955952
 31
0.0
  0
LINE
  5
421
100
AcDbEntity
  8
GR2-1
  6
CONTINUOUS
100
AcDbLine
 10
122.114164
 20
162.955952
 30
0.0
 11
122.114164
 21
161.455952
 31
0.0
  0
LINE
  5
422
100
AcDbEntity
  8
GR2-1
  6
CONTINUOUS
100
AcDbLine
 10
127.114164
 20
162.955952
 30
0.0
 11
127.114164
 21
161.455952
 31
0.0
  0
LINE
  5
423
100
AcDbEntity
  8
GR2-1
  6
CONTINUOUS
100
AcDbLine
 10
127.114164
 20
162.455952
 30
0.0
 11
122.114164
 21
162.455952
 31
0.0
  0
LINE
  5
424
100
AcDbEntity
  8
GR2-1
  6
CONTINUOUS
100
AcDbLine
 10
127.114164
 20
120.855952
 30
0.0
 11
122.114164
 21
120.855952
 31
0.0
  0
LINE
  5
425
100
AcDbEntity
  8
GR2-1
  6
CONTINUOUS
100
AcDbLine
 10
122.114164
 20
120.855952
 30
0.0
 11
122.114164
 21
122.355952
 31
0.0
  0
LINE
  5
426
100
AcDbEntity
  8
GR2-1
  6
CONTINUOUS
100
AcDbLine
 10
127.114164
 20
120.855952
 30
0.0
 11
127.114164
 21
122.355952
 31
0.0
  0
LINE
  5
427
100
AcDbEntity
  8
GR2-1
  6
CONTINUOUS
100
AcDbLine
 10
127.114164
 20
121.355952
 30
0.0
 11
122.114164
 21
121.355952
 31
0.0
  0
LINE
  5
428
100
AcDbEntity
  8
GR2-1
  6
CONTINUOUS
100
AcDbLine
 10
111.864164
 20
161.455952
 30
0.0
 11
99.364164
 21
161.455952
 31
0.0
  0
LINE
  5
429
100
AcDbEntity
  8
GR2-1
  6
CONTINUOUS
100
AcDbLine
 10
112.864164
 20
160.455952
 30
0.0
 11
112.864164
 21
123.355952
 31
0.0
  0
LINE
  5
42A
100
AcDbEntity
  8
GR2-1
  6
CONTINUOUS
100
AcDbLine
 10
98.364164
 20
160.455952
 30
0.0
 11
98.364164
 21
123.355952
 31
0.0
  0
LINE
  5
42B
100
AcDbEntity
  8
GR2-1
  6
CONTINUOUS
100
AcDbLine
 10
99.364164
 20
122.355952
 30
0.0
 11
111.864164
 21
122.355952
 31
0.0
  0
ARC
  5
42C
100
AcDbEntity
  8
GR2-1
  6
CONTINUOUS
100
AcDbCircle
 10
111.864164
 20
160.455952
 30
0.0
 40
1.0
100
AcDbArc
 50
0.0
 51
90.0
  0
ARC
  5
42D
100
AcDbEntity
  8
GR2-1
  6
CONTINUOUS
100
AcDbCircle
 10
99.364164
 20
160.455952
 30
0.0
 40
1.0
100
AcDbArc
 50
90.0
 51
180.0
  0
ARC
  5
42E
100
AcDbEntity
  8
GR2-1
  6
CONTINUOUS
100
AcDbCircle
 10
99.364164
 20
123.355952
 30
0.0
 40
1.0
100
AcDbArc
 50
180.0
 51
270.0
  0
ARC
  5
42F
100
AcDbEntity
  8
GR2-1
  6
CONTINUOUS
100
AcDbCircle
 10
111.864164
 20
123.355952
 30
0.0
 40
1.0
100
AcDbArc
 50
270.0
 51
0.0
  0
CIRCLE
  5
430
100
AcDbEntity
  8
GR2-1
  6
CONTINUOUS
100
AcDbCircle
 10
106.664164
 20
143.555952
 30
0.0
 40
2.0
  0
CIRCLE
  5
431
100
AcDbEntity
  8
GR2-1
  6
CONTINUOUS
100
AcDbCircle
 10
106.664164
 20
133.555952
 30
0.0
 40
2.0
  0
LINE
  5
432
100
AcDbEntity
  8
GR2-1
  6
CONTINUOUS
100
AcDbLine
 10
99.864164
 20
159.955952
 30
0.0
 11
99.864164
 21
123.855952
 31
0.0
  0
LINE
  5
433
100
AcDbEntity
  8
GR2-1
  6
CONTINUOUS
100
AcDbLine
 10
99.864164
 20
123.855952
 30
0.0
 11
111.364164
 21
123.855952
 31
0.0
  0
LINE
  5
434
100
AcDbEntity
  8
GR2-1
  6
CONTINUOUS
100
AcDbLine
 10
111.364164
 20
159.955952
 30
0.0
 11
111.364164
 21
123.855952
 31
0.0
  0
LINE
  5
435
100
AcDbEntity
  8
GR2-1
  6
CONTINUOUS
100
AcDbLine
 10
111.364164
 20
159.955952
 30
0.0
 11
99.864164
 21
159.955952
 31
0.0
  0
LINE
  5
436
100
AcDbEntity
  8
GR2-1
  6
CONTINUOUS
100
AcDbLine
 10
100.114164
 20
159.705952
 30
0.0
 11
111.114164
 21
159.705952
 31
0.0
  0
LINE
  5
437
100
AcDbEntity
  8
GR2-1
  6
CONTINUOUS
100
AcDbLine
 10
111.114164
 20
159.705952
 30
0.0
 11
111.114164
 21
124.105952
 31
0.0
  0
LINE
  5
438
100
AcDbEntity
  8
GR2-1
  6
CONTINUOUS
100
AcDbLine
 10
111.114164
 20
124.105952
 30
0.0
 11
100.114164
 21
124.105952
 31
0.0
  0
LINE
  5
439
100
AcDbEntity
  8
GR2-1
  6
CONTINUOUS
100
AcDbLine
 10
100.114164
 20
124.105952
 30
0.0
 11
100.114164
 21
159.705952
 31
0.0
  0
LINE
  5
43A
100
AcDbEntity
  8
GR2-1
  6
CONTINUOUS
100
AcDbLine
 10
100.114164
 20
156.205952
 30
0.0
 11
111.114164
 21
156.205952
 31
0.0
  0
LINE
  5
43B
100
AcDbEntity
  8
GR2-1
  6
CONTINUOUS
100
AcDbLine
 10
100.114164
 20
152.205952
 30
0.0
 11
111.114164
 21
152.205952
 31
0.0
  0
CIRCLE
  5
43C
100
AcDbEntity
  8
GR2-1
  6
CONTINUOUS
100
AcDbCircle
 10
106.664164
 20
133.555952
 30
0.0
 40
2.25
  0
CIRCLE
  5
43D
100
AcDbEntity
  8
GR2-1
  6
CONTINUOUS
100
AcDbCircle
 10
106.664164
 20
143.555952
 30
0.0
 40
2.25
  0
LINE
  5
43E
100
AcDbEntity
  8
GR2-1
  6
CONTINUOUS
100
AcDbLine
 10
110.114164
 20
162.955952
 30
0.0
 11
105.114164
 21
162.955952
 31
0.0
  0
LINE
  5
43F
100
AcDbEntity
  8
GR2-1
  6
CONTINUOUS
100
AcDbLine
 10
105.114164
 20
162.955952
 30
0.0
 11
105.114164
 21
161.455952
 31
0.0
  0
LINE
  5
440
100
AcDbEntity
  8
GR2-1
  6
CONTINUOUS
100
AcDbLine
 10
110.114164
 20
162.955952
 30
0.0
 11
110.114164
 21
161.455952
 31
0.0
  0
LINE
  5
441
100
AcDbEntity
  8
GR2-1
  6
CONTINUOUS
100
AcDbLine
 10
110.114164
 20
162.455952
 30
0.0
 11
105.114164
 21
162.455952
 31
0.0
  0
LINE
  5
442
100
AcDbEntity
  8
GR2-1
  6
CONTINUOUS
100
AcDbLine
 10
110.114164
 20
120.855952
 30
0.0
 11
105.114164
 21
120.855952
 31
0.0
  0
LINE
  5
443
100
AcDbEntity
  8
GR2-1
  6
CONTINUOUS
100
AcDbLine
 10
105.114164
 20
120.855952
 30
0.0
 11
105.114164
 21
122.355952
 31
0.0
  0
LINE
  5
444
100
AcDbEntity
  8
GR2-1
  6
CONTINUOUS
100
AcDbLine
 10
110.114164
 20
120.855952
 30
0.0
 11
110.114164
 21
122.355952
 31
0.0
  0
LINE
  5
445
100
AcDbEntity
  8
GR2-1
  6
CONTINUOUS
100
AcDbLine
 10
110.114164
 20
121.355952
 30
0.0
 11
105.114164
 21
121.355952
 31
0.0
  0
LINE
  5
446
100
AcDbEntity
  8
GR2-1
  6
CONTINUOUS
100
AcDbLine
 10
94.864164
 20
161.455952
 30
0.0
 11
82.364164
 21
161.455952
 31
0.0
  0
LINE
  5
447
100
AcDbEntity
  8
GR2-1
  6
CONTINUOUS
100
AcDbLine
 10
95.864164
 20
160.455952
 30
0.0
 11
95.864164
 21
123.355952
 31
0.0
  0
LINE
  5
448
100
AcDbEntity
  8
GR2-1
  6
CONTINUOUS
100
AcDbLine
 10
81.364164
 20
160.455952
 30
0.0
 11
81.364164
 21
123.355952
 31
0.0
  0
LINE
  5
449
100
AcDbEntity
  8
GR2-1
  6
CONTINUOUS
100
AcDbLine
 10
82.364164
 20
122.355952
 30
0.0
 11
94.864164
 21
122.355952
 31
0.0
  0
ARC
  5
44A
100
AcDbEntity
  8
GR2-1
  6
CONTINUOUS
100
AcDbCircle
 10
94.864164
 20
160.455952
 30
0.0
 40
1.0
100
AcDbArc
 50
0.0
 51
90.0
  0
ARC
  5
44B
100
AcDbEntity
  8
GR2-1
  6
CONTINUOUS
100
AcDbCircle
 10
82.364164
 20
160.455952
 30
0.0
 40
1.0
100
AcDbArc
 50
90.0
 51
180.0
  0
ARC
  5
44C
100
AcDbEntity
  8
GR2-1
  6
CONTINUOUS
100
AcDbCircle
 10
82.364164
 20
123.355952
 30
0.0
 40
1.0
100
AcDbArc
 50
180.0
 51
270.0
  0
ARC
  5
44D
100
AcDbEntity
  8
GR2-1
  6
CONTINUOUS
100
AcDbCircle
 10
94.864164
 20
123.355952
 30
0.0
 40
1.0
100
AcDbArc
 50
270.0
 51
0.0
  0
CIRCLE
  5
44E
100
AcDbEntity
  8
GR2-1
  6
CONTINUOUS
100
AcDbCircle
 10
89.664164
 20
143.555952
 30
0.0
 40
2.0
  0
CIRCLE
  5
44F
100
AcDbEntity
  8
GR2-1
  6
CONTINUOUS
100
AcDbCircle
 10
89.664164
 20
133.555952
 30
0.0
 40
2.0
  0
LINE
  5
450
100
AcDbEntity
  8
GR2-1
  6
CONTINUOUS
100
AcDbLine
 10
82.864164
 20
159.955952
 30
0.0
 11
82.864164
 21
123.855952
 31
0.0
  0
LINE
  5
451
100
AcDbEntity
  8
GR2-1
  6
CONTINUOUS
100
AcDbLine
 10
82.864164
 20
123.855952
 30
0.0
 11
94.364164
 21
123.855952
 31
0.0
  0
LINE
  5
452
100
AcDbEntity
  8
GR2-1
  6
CONTINUOUS
100
AcDbLine
 10
94.364164
 20
159.955952
 30
0.0
 11
94.364164
 21
123.855952
 31
0.0
  0
LINE
  5
453
100
AcDbEntity
  8
GR2-1
  6
CONTINUOUS
100
AcDbLine
 10
94.364164
 20
159.955952
 30
0.0
 11
82.864164
 21
159.955952
 31
0.0
  0
LINE
  5
454
100
AcDbEntity
  8
GR2-1
  6
CONTINUOUS
100
AcDbLine
 10
83.114164
 20
159.705952
 30
0.0
 11
94.114164
 21
159.705952
 31
0.0
  0
LINE
  5
455
100
AcDbEntity
  8
GR2-1
  6
CONTINUOUS
100
AcDbLine
 10
94.114164
 20
159.705952
 30
0.0
 11
94.114164
 21
124.105952
 31
0.0
  0
LINE
  5
456
100
AcDbEntity
  8
GR2-1
  6
CONTINUOUS
100
AcDbLine
 10
94.114164
 20
124.105952
 30
0.0
 11
83.114164
 21
124.105952
 31
0.0
  0
LINE
  5
457
100
AcDbEntity
  8
GR2-1
  6
CONTINUOUS
100
AcDbLine
 10
83.114164
 20
124.105952
 30
0.0
 11
83.114164
 21
159.705952
 31
0.0
  0
LINE
  5
458
100
AcDbEntity
  8
GR2-1
  6
CONTINUOUS
100
AcDbLine
 10
83.114164
 20
156.205952
 30
0.0
 11
94.114164
 21
156.205952
 31
0.0
  0
LINE
  5
459
100
AcDbEntity
  8
GR2-1
  6
CONTINUOUS
100
AcDbLine
 10
83.114164
 20
152.205952
 30
0.0
 11
94.114164
 21
152.205952
 31
0.0
  0
CIRCLE
  5
45A
100
AcDbEntity
  8
GR2-1
  6
CONTINUOUS
100
AcDbCircle
 10
89.664164
 20
133.555952
 30
0.0
 40
2.25
  0
CIRCLE
  5
45B
100
AcDbEntity
  8
GR2-1
  6
CONTINUOUS
100
AcDbCircle
 10
89.664164
 20
143.555952
 30
0.0
 40
2.25
  0
LINE
  5
45C
100
AcDbEntity
  8
GR2-1
  6
CONTINUOUS
100
AcDbLine
 10
93.114164
 20
162.955952
 30
0.0
 11
88.114164
 21
162.955952
 31
0.0
  0
LINE
  5
45D
100
AcDbEntity
  8
GR2-1
  6
CONTINUOUS
100
AcDbLine
 10
88.114164
 20
162.955952
 30
0.0
 11
88.114164
 21
161.455952
 31
0.0
  0
LINE
  5
45E
100
AcDbEntity
  8
GR2-1
  6
CONTINUOUS
100
AcDbLine
 10
93.114164
 20
162.955952
 30
0.0
 11
93.114164
 21
161.455952
 31
0.0
  0
LINE
  5
45F
100
AcDbEntity
  8
GR2-1
  6
CONTINUOUS
100
AcDbLine
 10
93.114164
 20
162.455952
 30
0.0
 11
88.114164
 21
162.455952
 31
0.0
  0
LINE
  5
460
100
AcDbEntity
  8
GR2-1
  6
CONTINUOUS
100
AcDbLine
 10
93.114164
 20
120.855952
 30
0.0
 11
88.114164
 21
120.855952
 31
0.0
  0
LINE
  5
461
100
AcDbEntity
  8
GR2-1
  6
CONTINUOUS
100
AcDbLine
 10
88.114164
 20
120.855952
 30
0.0
 11
88.114164
 21
122.355952
 31
0.0
  0
LINE
  5
462
100
AcDbEntity
  8
GR2-1
  6
CONTINUOUS
100
AcDbLine
 10
93.114164
 20
120.855952
 30
0.0
 11
93.114164
 21
122.355952
 31
0.0
  0
LINE
  5
463
100
AcDbEntity
  8
GR2-1
  6
CONTINUOUS
100
AcDbLine
 10
93.114164
 20
121.355952
 30
0.0
 11
88.114164
 21
121.355952
 31
0.0
  0
LINE
  5
464
100
AcDbEntity
  8
GR2-1
  6
CONTINUOUS
100
AcDbLine
 10
77.864164
 20
161.455952
 30
0.0
 11
65.364164
 21
161.455952
 31
0.0
  0
LINE
  5
465
100
AcDbEntity
  8
GR2-1
  6
CONTINUOUS
100
AcDbLine
 10
78.864164
 20
160.455952
 30
0.0
 11
78.864164
 21
123.355952
 31
0.0
  0
LINE
  5
466
100
AcDbEntity
  8
GR2-1
  6
CONTINUOUS
100
AcDbLine
 10
64.364164
 20
160.455952
 30
0.0
 11
64.364164
 21
123.355952
 31
0.0
  0
LINE
  5
467
100
AcDbEntity
  8
GR2-1
  6
CONTINUOUS
100
AcDbLine
 10
65.364164
 20
122.355952
 30
0.0
 11
77.864164
 21
122.355952
 31
0.0
  0
ARC
  5
468
100
AcDbEntity
  8
GR2-1
  6
CONTINUOUS
100
AcDbCircle
 10
77.864164
 20
160.455952
 30
0.0
 40
1.0
100
AcDbArc
 50
0.0
 51
90.0
  0
ARC
  5
469
100
AcDbEntity
  8
GR2-1
  6
CONTINUOUS
100
AcDbCircle
 10
65.364164
 20
160.455952
 30
0.0
 40
1.0
100
AcDbArc
 50
90.0
 51
180.0
  0
ARC
  5
46A
100
AcDbEntity
  8
GR2-1
  6
CONTINUOUS
100
AcDbCircle
 10
65.364164
 20
123.355952
 30
0.0
 40
1.0
100
AcDbArc
 50
180.0
 51
270.0
  0
ARC
  5
46B
100
AcDbEntity
  8
GR2-1
  6
CONTINUOUS
100
AcDbCircle
 10
77.864164
 20
123.355952
 30
0.0
 40
1.0
100
AcDbArc
 50
270.0
 51
0.0
  0
CIRCLE
  5
46C
100
AcDbEntity
  8
GR2-1
  6
CONTINUOUS
100
AcDbCircle
 10
72.664164
 20
143.555952
 30
0.0
 40
2.0
  0
CIRCLE
  5
46D
100
AcDbEntity
  8
GR2-1
  6
CONTINUOUS
100
AcDbCircle
 10
72.664164
 20
133.555952
 30
0.0
 40
2.0
  0
LINE
  5
46E
100
AcDbEntity
  8
GR2-1
  6
CONTINUOUS
100
AcDbLine
 10
65.864164
 20
159.955952
 30
0.0
 11
65.864164
 21
123.855952
 31
0.0
  0
LINE
  5
46F
100
AcDbEntity
  8
GR2-1
  6
CONTINUOUS
100
AcDbLine
 10
65.864164
 20
123.855952
 30
0.0
 11
77.364164
 21
123.855952
 31
0.0
  0
LINE
  5
470
100
AcDbEntity
  8
GR2-1
  6
CONTINUOUS
100
AcDbLine
 10
77.364164
 20
159.955952
 30
0.0
 11
77.364164
 21
123.855952
 31
0.0
  0
LINE
  5
471
100
AcDbEntity
  8
GR2-1
  6
CONTINUOUS
100
AcDbLine
 10
77.364164
 20
159.955952
 30
0.0
 11
65.864164
 21
159.955952
 31
0.0
  0
LINE
  5
472
100
AcDbEntity
  8
GR2-1
  6
CONTINUOUS
100
AcDbLine
 10
66.114164
 20
159.705952
 30
0.0
 11
77.114164
 21
159.705952
 31
0.0
  0
LINE
  5
473
100
AcDbEntity
  8
GR2-1
  6
CONTINUOUS
100
AcDbLine
 10
77.114164
 20
159.705952
 30
0.0
 11
77.114164
 21
124.105952
 31
0.0
  0
LINE
  5
474
100
AcDbEntity
  8
GR2-1
  6
CONTINUOUS
100
AcDbLine
 10
77.114164
 20
124.105952
 30
0.0
 11
66.114164
 21
124.105952
 31
0.0
  0
LINE
  5
475
100
AcDbEntity
  8
GR2-1
  6
CONTINUOUS
100
AcDbLine
 10
66.114164
 20
124.105952
 30
0.0
 11
66.114164
 21
159.705952
 31
0.0
  0
LINE
  5
476
100
AcDbEntity
  8
GR2-1
  6
CONTINUOUS
100
AcDbLine
 10
66.114164
 20
156.205952
 30
0.0
 11
77.114164
 21
156.205952
 31
0.0
  0
LINE
  5
477
100
AcDbEntity
  8
GR2-1
  6
CONTINUOUS
100
AcDbLine
 10
66.114164
 20
152.205952
 30
0.0
 11
77.114164
 21
152.205952
 31
0.0
  0
CIRCLE
  5
478
100
AcDbEntity
  8
GR2-1
  6
CONTINUOUS
100
AcDbCircle
 10
72.664164
 20
133.555952
 30
0.0
 40
2.25
  0
CIRCLE
  5
479
100
AcDbEntity
  8
GR2-1
  6
CONTINUOUS
100
AcDbCircle
 10
72.664164
 20
143.555952
 30
0.0
 40
2.25
  0
LINE
  5
47A
100
AcDbEntity
  8
GR2-1
  6
CONTINUOUS
100
AcDbLine
 10
76.114164
 20
162.955952
 30
0.0
 11
71.114164
 21
162.955952
 31
0.0
  0
LINE
  5
47B
100
AcDbEntity
  8
GR2-1
  6
CONTINUOUS
100
AcDbLine
 10
71.114164
 20
162.955952
 30
0.0
 11
71.114164
 21
161.455952
 31
0.0
  0
LINE
  5
47C
100
AcDbEntity
  8
GR2-1
  6
CONTINUOUS
100
AcDbLine
 10
76.114164
 20
162.955952
 30
0.0
 11
76.114164
 21
161.455952
 31
0.0
  0
LINE
  5
47D
100
AcDbEntity
  8
GR2-1
  6
CONTINUOUS
100
AcDbLine
 10
76.114164
 20
162.455952
 30
0.0
 11
71.114164
 21
162.455952
 31
0.0
  0
LINE
  5
47E
100
AcDbEntity
  8
GR2-1
  6
CONTINUOUS
100
AcDbLine
 10
76.114164
 20
120.855952
 30
0.0
 11
71.114164
 21
120.855952
 31
0.0
  0
LINE
  5
47F
100
AcDbEntity
  8
GR2-1
  6
CONTINUOUS
100
AcDbLine
 10
71.114164
 20
120.855952
 30
0.0
 11
71.114164
 21
122.355952
 31
0.0
  0
LINE
  5
480
100
AcDbEntity
  8
GR2-1
  6
CONTINUOUS
100
AcDbLine
 10
76.114164
 20
120.855952
 30
0.0
 11
76.114164
 21
122.355952
 31
0.0
  0
LINE
  5
481
100
AcDbEntity
  8
GR2-1
  6
CONTINUOUS
100
AcDbLine
 10
76.114164
 20
121.355952
 30
0.0
 11
71.114164
 21
121.355952
 31
0.0
  0
LINE
  5
482
100
AcDbEntity
  8
GR2_01
  6
CONTINUOUS
100
AcDbLine
 10
10.064164
 20
11.682245
 30
0.0
 11
141.064164
 21
11.682245
 31
0.0
  0
LINE
  5
483
100
AcDbEntity
  8
GR2_01
  6
CONTINUOUS
100
AcDbLine
 10
9.564164
 20
0.182245
 30
0.0
 11
141.564164
 21
0.182245
 31
0.0
  0
LINE
  5
484
100
AcDbEntity
  8
GR2_01
  6
CONTINUOUS
100
AcDbLine
 10
141.564164
 20
11.182245
 30
0.0
 11
141.564164
 21
0.182245
 31
0.0
  0
LINE
  5
485
100
AcDbEntity
  8
GR2_01
  6
CONTINUOUS
100
AcDbLine
 10
9.564164
 20
11.182245
 30
0.0
 11
9.564164
 21
0.182245
 31
0.0
  0
LINE
  5
486
100
AcDbEntity
  8
GR2_01
  6
CONTINUOUS
100
AcDbLine
 10
9.564164
 20
11.182245
 30
0.0
 11
141.564164
 21
11.182245
 31
0.0
  0
LINE
  5
487
100
AcDbEntity
  8
GR2_01
  6
CONTINUOUS
100
AcDbLine
 10
10.064164
 20
11.682245
 30
0.0
 11
10.064164
 21
11.182245
 31
0.0
  0
LINE
  5
488
100
AcDbEntity
  8
GR2_01
  6
CONTINUOUS
100
AcDbLine
 10
141.064164
 20
11.682245
 30
0.0
 11
141.064164
 21
11.182245
 31
0.0
  0
LINE
  5
489
100
AcDbEntity
  8
GR2_01
  6
CONTINUOUS
100
AcDbLine
 10
23.164164
 20
17.882245
 30
0.0
 11
23.164164
 21
27.122245
 31
0.0
  0
LINE
  5
48A
100
AcDbEntity
  8
GR2_01
  6
CONTINUOUS
100
AcDbLine
 10
14.564164
 20
17.882245
 30
0.0
 11
14.564164
 21
27.122245
 31
0.0
  0
LINE
  5
48B
100
AcDbEntity
  8
GR2_01
  6
CONTINUOUS
100
AcDbLine
 10
14.564164
 20
27.122245
 30
0.0
 11
16.364164
 21
27.122245
 31
0.0
  0
LINE
  5
48C
100
AcDbEntity
  8
GR2_01
  6
CONTINUOUS
100
AcDbLine
 10
16.364164
 20
36.522245
 30
0.0
 11
21.364164
 21
36.522245
 31
0.0
  0
LINE
  5
48D
100
AcDbEntity
  8
GR2_01
  6
CONTINUOUS
100
AcDbLine
 10
21.364164
 20
27.122245
 30
0.0
 11
23.164164
 21
27.122245
 31
0.0
  0
LINE
  5
48E
100
AcDbEntity
  8
GR2_01
  6
CONTINUOUS
100
AcDbLine
 10
16.364164
 20
32.722245
 30
0.0
 11
21.364164
 21
32.722245
 31
0.0
  0
LINE
  5
48F
100
AcDbEntity
  8
GR2_01
  6
CONTINUOUS
100
AcDbLine
 10
14.564164
 20
23.222245
 30
0.0
 11
16.364164
 21
23.222245
 31
0.0
  0
LINE
  5
490
100
AcDbEntity
  8
GR2_01
  6
CONTINUOUS
100
AcDbLine
 10
21.364164
 20
23.222245
 30
0.0
 11
23.164164
 21
23.222245
 31
0.0
  0
LINE
  5
491
100
AcDbEntity
  8
GR2_01
  6
CONTINUOUS
100
AcDbLine
 10
21.364164
 20
17.882245
 30
0.0
 11
21.364164
 21
36.522245
 31
0.0
  0
LINE
  5
492
100
AcDbEntity
  8
GR2_01
  6
CONTINUOUS
100
AcDbLine
 10
16.364164
 20
17.882245
 30
0.0
 11
16.364164
 21
36.522245
 31
0.0
  0
LINE
  5
493
100
AcDbEntity
  8
GR2_01
  6
CONTINUOUS
100
AcDbLine
 10
35.164164
 20
17.882245
 30
0.0
 11
35.164164
 21
27.122245
 31
0.0
  0
LINE
  5
494
100
AcDbEntity
  8
GR2_01
  6
CONTINUOUS
100
AcDbLine
 10
26.564164
 20
17.882245
 30
0.0
 11
26.564164
 21
27.122245
 31
0.0
  0
LINE
  5
495
100
AcDbEntity
  8
GR2_01
  6
CONTINUOUS
100
AcDbLine
 10
26.564164
 20
27.122245
 30
0.0
 11
28.364164
 21
27.122245
 31
0.0
  0
LINE
  5
496
100
AcDbEntity
  8
GR2_01
  6
CONTINUOUS
100
AcDbLine
 10
28.364164
 20
36.522245
 30
0.0
 11
33.364164
 21
36.522245
 31
0.0
  0
LINE
  5
497
100
AcDbEntity
  8
GR2_01
  6
CONTINUOUS
100
AcDbLine
 10
33.364164
 20
27.122245
 30
0.0
 11
35.164164
 21
27.122245
 31
0.0
  0
LINE
  5
498
100
AcDbEntity
  8
GR2_01
  6
CONTINUOUS
100
AcDbLine
 10
28.364164
 20
32.722245
 30
0.0
 11
33.364164
 21
32.722245
 31
0.0
  0
LINE
  5
499
100
AcDbEntity
  8
GR2_01
  6
CONTINUOUS
100
AcDbLine
 10
26.564164
 20
23.222245
 30
0.0
 11
28.364164
 21
23.222245
 31
0.0
  0
LINE
  5
49A
100
AcDbEntity
  8
GR2_01
  6
CONTINUOUS
100
AcDbLine
 10
33.364164
 20
23.222245
 30
0.0
 11
35.164164
 21
23.222245
 31
0.0
  0
LINE
  5
49B
100
AcDbEntity
  8
GR2_01
  6
CONTINUOUS
100
AcDbLine
 10
33.364164
 20
17.882245
 30
0.0
 11
33.364164
 21
36.522245
 31
0.0
  0
LINE
  5
49C
100
AcDbEntity
  8
GR2_01
  6
CONTINUOUS
100
AcDbLine
 10
28.364164
 20
17.882245
 30
0.0
 11
28.364164
 21
36.522245
 31
0.0
  0
LINE
  5
49D
100
AcDbEntity
  8
GR2_01
  6
CONTINUOUS
100
AcDbLine
 10
27.864164
 20
30.122245
 30
0.0
 11
28.364164
 21
30.122245
 31
0.0
  0
LINE
  5
49E
100
AcDbEntity
  8
GR2_01
  6
CONTINUOUS
100
AcDbLine
 10
27.864164
 20
30.122245
 30
0.0
 11
27.864164
 21
27.122245
 31
0.0
  0
LINE
  5
49F
100
AcDbEntity
  8
GR2_01
  6
CONTINUOUS
100
AcDbLine
 10
33.864164
 20
30.122245
 30
0.0
 11
33.864164
 21
27.122245
 31
0.0
  0
LINE
  5
4A0
100
AcDbEntity
  8
GR2_01
  6
CONTINUOUS
100
AcDbLine
 10
33.364164
 20
30.122245
 30
0.0
 11
33.864164
 21
30.122245
 31
0.0
  0
ARC
  5
4A1
100
AcDbEntity
  8
GR2-1
  6
CONTINUOUS
100
AcDbCircle
 10
116.756912
 20
63.582245
 30
0.0
 40
1.0
100
AcDbArc
 50
90.0
 51
179.5
  0
LINE
  5
4A2
100
AcDbEntity
  8
GR2-1
  6
CONTINUOUS
100
AcDbLine
 10
115.461558
 20
25.982245
 30
0.0
 11
115.75695
 21
63.590971
 31
0.0
  0
LINE
  5
4A3
100
AcDbEntity
  8
GR2-1
  6
CONTINUOUS
100
AcDbLine
 10
128.471418
 20
64.582245
 30
0.0
 11
116.756912
 21
64.582245
 31
0.0
  0
LINE
  5
4A4
100
AcDbEntity
  8
0
  6
CONTINUOUS
 62
     7
100
AcDbLine
 10
128.664164
 20
25.982245
 30
0.0
 11
128.664164
 21
63.382245
 31
0.0
  0
LINE
  5
4A5
100
AcDbEntity
  8
0
  6
CONTINUOUS
 62
     7
100
AcDbLine
 10
128.664164
 20
63.382245
 30
0.0
 11
116.564164
 21
63.382245
 31
0.0
  0
LINE
  5
4A6
100
AcDbEntity
  8
0
  6
CONTINUOUS
 62
     7
100
AcDbLine
 10
116.564164
 20
63.382245
 30
0.0
 11
116.564164
 21
25.982245
 31
0.0
  0
ARC
  5
4A7
100
AcDbEntity
  8
GR2-1
  6
CONTINUOUS
100
AcDbCircle
 10
128.471418
 20
63.582245
 30
0.0
 40
1.0
100
AcDbArc
 50
0.5
 51
90.0
  0
LINE
  5
4A8
100
AcDbEntity
  8
GR2-1
  6
CONTINUOUS
100
AcDbLine
 10
129.76677
 20
25.982245
 30
0.0
 11
129.47138
 21
63.590971
 31
0.0
  0
LINE
  5
4A9
100
AcDbEntity
  8
GR2-1
  6
CONTINUOUS
100
AcDbLine
 10
121.614164
 20
51.582245
 30
0.0
 11
123.614164
 21
51.582245
 31
0.0
  0
LINE
  5
4AA
100
AcDbEntity
  8
GR2-1
  6
CONTINUOUS
100
AcDbLine
 10
121.614164
 20
61.582245
 30
0.0
 11
123.614164
 21
61.582245
 31
0.0
  0
LINE
  5
4AB
100
AcDbEntity
  8
GR2-1
  6
CONTINUOUS
100
AcDbLine
 10
121.114164
 20
52.082245
 30
0.0
 11
121.114164
 21
61.082245
 31
0.0
  0
LINE
  5
4AC
100
AcDbEntity
  8
GR2-1
  6
CONTINUOUS
100
AcDbLine
 10
124.114164
 20
52.082245
 30
0.0
 11
124.114164
 21
61.082245
 31
0.0
  0
ARC
  5
4AD
100
AcDbEntity
  8
GR2-1
  6
CONTINUOUS
100
AcDbCircle
 10
123.614164
 20
61.082245
 30
0.0
 40
0.5
100
AcDbArc
 50
0.0
 51
90.0
  0
ARC
  5
4AE
100
AcDbEntity
  8
GR2-1
  6
CONTINUOUS
100
AcDbCircle
 10
121.614164
 20
61.082245
 30
0.0
 40
0.5
100
AcDbArc
 50
90.0
 51
180.0
  0
ARC
  5
4AF
100
AcDbEntity
  8
GR2-1
  6
CONTINUOUS
100
AcDbCircle
 10
121.614164
 20
52.082245
 30
0.0
 40
0.5
100
AcDbArc
 50
180.0
 51
270.0
  0
ARC
  5
4B0
100
AcDbEntity
  8
GR2-1
  6
CONTINUOUS
100
AcDbCircle
 10
123.614164
 20
52.082245
 30
0.0
 40
0.5
100
AcDbArc
 50
270.0
 51
0.0
  0
LINE
  5
4B1
100
AcDbEntity
  8
GR2-1
  6
CONTINUOUS
100
AcDbLine
 10
125.964164
 20
61.582245
 30
0.0
 11
127.664164
 21
61.582245
 31
0.0
  0
LINE
  5
4B2
100
AcDbEntity
  8
GR2-1
  6
CONTINUOUS
100
AcDbLine
 10
125.964164
 20
51.582245
 30
0.0
 11
127.664164
 21
51.582245
 31
0.0
  0
ARC
  5
4B3
100
AcDbEntity
  8
GR2-1
  6
CONTINUOUS
100
AcDbCircle
 10
125.964164
 20
61.082245
 30
0.0
 40
0.5
100
AcDbArc
 50
90.0
 51
180.0
  0
ARC
  5
4B4
100
AcDbEntity
  8
GR2-1
  6
CONTINUOUS
100
AcDbCircle
 10
125.964164
 20
52.082245
 30
0.0
 40
0.5
100
AcDbArc
 50
180.0
 51
270.0
  0
ARC
  5
4B5
100
AcDbEntity
  8
GR2-1
  6
CONTINUOUS
100
AcDbCircle
 10
127.664164
 20
61.082245
 30
0.0
 40
0.5
100
AcDbArc
 50
0.0
 51
90.0
  0
ARC
  5
4B6
100
AcDbEntity
  8
GR2-1
  6
CONTINUOUS
100
AcDbCircle
 10
127.664164
 20
52.082245
 30
0.0
 40
0.5
100
AcDbArc
 50
270.0
 51
0.0
  0
LINE
  5
4B7
100
AcDbEntity
  8
GR2-1
  6
CONTINUOUS
100
AcDbLine
 10
128.164164
 20
61.082245
 30
0.0
 11
128.164164
 21
52.082245
 31
0.0
  0
LINE
  5
4B8
100
AcDbEntity
  8
GR2-1
  6
CONTINUOUS
100
AcDbLine
 10
125.464164
 20
61.082245
 30
0.0
 11
125.464164
 21
52.082245
 31
0.0
  0
LINE
  5
4B9
100
AcDbEntity
  8
GR2-1
  6
CONTINUOUS
100
AcDbLine
 10
128.364164
 20
64.582245
 30
0.0
 11
128.364164
 21
64.082245
 31
0.0
  0
LINE
  5
4BA
100
AcDbEntity
  8
GR2-1
  6
CONTINUOUS
100
AcDbLine
 10
116.864164
 20
64.582245
 30
0.0
 11
116.864164
 21
64.082245
 31
0.0
  0
LINE
  5
4BB
100
AcDbEntity
  8
GR2-1
  6
CONTINUOUS
100
AcDbLine
 10
128.364164
 20
64.082245
 30
0.0
 11
116.864164
 21
64.082245
 31
0.0
  0
LINE
  5
4BC
100
AcDbEntity
  8
GR2-1
  6
CONTINUOUS
100
AcDbLine
 10
122.114164
 20
32.582245
 30
0.0
 11
127.114164
 21
32.582245
 31
0.0
  0
LINE
  5
4BD
100
AcDbEntity
  8
GR2-1
  6
CONTINUOUS
100
AcDbLine
 10
127.114164
 20
29.582245
 30
0.0
 11
122.114164
 21
29.582245
 31
0.0
  0
LINE
  5
4BE
100
AcDbEntity
  8
GR2-1
  6
CONTINUOUS
100
AcDbLine
 10
127.114164
 20
38.082245
 30
0.0
 11
122.114164
 21
38.082245
 31
0.0
  0
LINE
  5
4BF
100
AcDbEntity
  8
GR2-1
  6
CONTINUOUS
100
AcDbLine
 10
127.114164
 20
28.082245
 30
0.0
 11
122.114164
 21
28.082245
 31
0.0
  0
LINE
  5
4C0
100
AcDbEntity
  8
GR2-1
  6
CONTINUOUS
100
AcDbLine
 10
122.114164
 20
25.982245
 30
0.0
 11
122.114164
 21
38.082245
 31
0.0
  0
LINE
  5
4C1
100
AcDbEntity
  8
GR2-1
  6
CONTINUOUS
100
AcDbLine
 10
121.114164
 20
36.082245
 30
0.0
 11
121.114164
 21
25.982245
 31
0.0
  0
ARC
  5
4C2
100
AcDbEntity
  8
GR2-1
  6
CONTINUOUS
100
AcDbCircle
 10
121.614164
 20
36.082245
 30
0.0
 40
0.5
100
AcDbArc
 50
0.0
 51
180.0
  0
LINE
  5
4C3
100
AcDbEntity
  8
GR2-1
  6
CONTINUOUS
100
AcDbLine
 10
127.114164
 20
25.982245
 30
0.0
 11
127.114164
 21
38.082245
 31
0.0
  0
LINE
  5
4C4
100
AcDbEntity
  8
GR2-1
  6
CONTINUOUS
100
AcDbLine
 10
128.114164
 20
36.082245
 30
0.0
 11
128.114164
 21
25.982245
 31
0.0
  0
ARC
  5
4C5
100
AcDbEntity
  8
GR2-1
  6
CONTINUOUS
100
AcDbCircle
 10
127.614164
 20
36.082245
 30
0.0
 40
0.5
100
AcDbArc
 50
0.0
 51
180.0
  0
LINE
  5
4C6
100
AcDbEntity
  8
GR1_01
  6
CONTINUOUS
 62
     7
100
AcDbLine
 10
18.564164
 20
17.882245
 30
0.0
 11
18.564164
 21
13.182245
 31
0.0
  0
LINE
  5
4C7
100
AcDbEntity
  8
GR1_01
  6
CONTINUOUS
 62
     7
100
AcDbLine
 10
18.564164
 20
13.182245
 30
0.0
 11
9.594361
 21
13.182245
 31
0.0
  0
ARC
  5
4C8
100
AcDbEntity
  8
GR2-1
  6
CONTINUOUS
100
AcDbCircle
 10
99.756912
 20
63.582245
 30
0.0
 40
1.0
100
AcDbArc
 50
90.0
 51
179.5
  0
LINE
  5
4C9
100
AcDbEntity
  8
GR2-1
  6
CONTINUOUS
100
AcDbLine
 10
98.461558
 20
25.982245
 30
0.0
 11
98.75695
 21
63.590971
 31
0.0
  0
LINE
  5
4CA
100
AcDbEntity
  8
GR2-1
  6
CONTINUOUS
100
AcDbLine
 10
111.471418
 20
64.582245
 30
0.0
 11
99.756912
 21
64.582245
 31
0.0
  0
LINE
  5
4CB
100
AcDbEntity
  8
0
  6
CONTINUOUS
 62
     7
100
AcDbLine
 10
111.664164
 20
25.982245
 30
0.0
 11
111.664164
 21
63.382245
 31
0.0
  0
LINE
  5
4CC
100
AcDbEntity
  8
0
  6
CONTINUOUS
 62
     7
100
AcDbLine
 10
111.664164
 20
63.382245
 30
0.0
 11
99.564164
 21
63.382245
 31
0.0
  0
LINE
  5
4CD
100
AcDbEntity
  8
0
  6
CONTINUOUS
 62
     7
100
AcDbLine
 10
99.564164
 20
63.382245
 30
0.0
 11
99.564164
 21
25.982245
 31
0.0
  0
ARC
  5
4CE
100
AcDbEntity
  8
GR2-1
  6
CONTINUOUS
100
AcDbCircle
 10
111.471418
 20
63.582245
 30
0.0
 40
1.0
100
AcDbArc
 50
0.5
 51
90.0
  0
LINE
  5
4CF
100
AcDbEntity
  8
GR2-1
  6
CONTINUOUS
100
AcDbLine
 10
112.76677
 20
25.982245
 30
0.0
 11
112.47138
 21
63.590971
 31
0.0
  0
LINE
  5
4D0
100
AcDbEntity
  8
GR2-1
  6
CONTINUOUS
100
AcDbLine
 10
104.614164
 20
51.582245
 30
0.0
 11
106.614164
 21
51.582245
 31
0.0
  0
LINE
  5
4D1
100
AcDbEntity
  8
GR2-1
  6
CONTINUOUS
100
AcDbLine
 10
104.614164
 20
61.582245
 30
0.0
 11
106.614164
 21
61.582245
 31
0.0
  0
LINE
  5
4D2
100
AcDbEntity
  8
GR2-1
  6
CONTINUOUS
100
AcDbLine
 10
104.114164
 20
52.082245
 30
0.0
 11
104.114164
 21
61.082245
 31
0.0
  0
LINE
  5
4D3
100
AcDbEntity
  8
GR2-1
  6
CONTINUOUS
100
AcDbLine
 10
107.114164
 20
52.082245
 30
0.0
 11
107.114164
 21
61.082245
 31
0.0
  0
ARC
  5
4D4
100
AcDbEntity
  8
GR2-1
  6
CONTINUOUS
100
AcDbCircle
 10
106.614164
 20
61.082245
 30
0.0
 40
0.5
100
AcDbArc
 50
0.0
 51
90.0
  0
ARC
  5
4D5
100
AcDbEntity
  8
GR2-1
  6
CONTINUOUS
100
AcDbCircle
 10
104.614164
 20
61.082245
 30
0.0
 40
0.5
100
AcDbArc
 50
90.0
 51
180.0
  0
ARC
  5
4D6
100
AcDbEntity
  8
GR2-1
  6
CONTINUOUS
100
AcDbCircle
 10
104.614164
 20
52.082245
 30
0.0
 40
0.5
100
AcDbArc
 50
180.0
 51
270.0
  0
ARC
  5
4D7
100
AcDbEntity
  8
GR2-1
  6
CONTINUOUS
100
AcDbCircle
 10
106.614164
 20
52.082245
 30
0.0
 40
0.5
100
AcDbArc
 50
270.0
 51
0.0
  0
LINE
  5
4D8
100
AcDbEntity
  8
GR2-1
  6
CONTINUOUS
100
AcDbLine
 10
108.964164
 20
61.582245
 30
0.0
 11
110.664164
 21
61.582245
 31
0.0
  0
LINE
  5
4D9
100
AcDbEntity
  8
GR2-1
  6
CONTINUOUS
100
AcDbLine
 10
108.964164
 20
51.582245
 30
0.0
 11
110.664164
 21
51.582245
 31
0.0
  0
ARC
  5
4DA
100
AcDbEntity
  8
GR2-1
  6
CONTINUOUS
100
AcDbCircle
 10
108.964164
 20
61.082245
 30
0.0
 40
0.5
100
AcDbArc
 50
90.0
 51
180.0
  0
ARC
  5
4DB
100
AcDbEntity
  8
GR2-1
  6
CONTINUOUS
100
AcDbCircle
 10
108.964164
 20
52.082245
 30
0.0
 40
0.5
100
AcDbArc
 50
180.0
 51
270.0
  0
ARC
  5
4DC
100
AcDbEntity
  8
GR2-1
  6
CONTINUOUS
100
AcDbCircle
 10
110.664164
 20
61.082245
 30
0.0
 40
0.5
100
AcDbArc
 50
0.0
 51
90.0
  0
ARC
  5
4DD
100
AcDbEntity
  8
GR2-1
  6
CONTINUOUS
100
AcDbCircle
 10
110.664164
 20
52.082245
 30
0.0
 40
0.5
100
AcDbArc
 50
270.0
 51
0.0
  0
LINE
  5
4DE
100
AcDbEntity
  8
GR2-1
  6
CONTINUOUS
100
AcDbLine
 10
111.164164
 20
61.082245
 30
0.0
 11
111.164164
 21
52.082245
 31
0.0
  0
LINE
  5
4DF
100
AcDbEntity
  8
GR2-1
  6
CONTINUOUS
100
AcDbLine
 10
108.464164
 20
61.082245
 30
0.0
 11
108.464164
 21
52.082245
 31
0.0
  0
LINE
  5
4E0
100
AcDbEntity
  8
GR2-1
  6
CONTINUOUS
100
AcDbLine
 10
111.364164
 20
64.582245
 30
0.0
 11
111.364164
 21
64.082245
 31
0.0
  0
LINE
  5
4E1
100
AcDbEntity
  8
GR2-1
  6
CONTINUOUS
100
AcDbLine
 10
99.864164
 20
64.582245
 30
0.0
 11
99.864164
 21
64.082245
 31
0.0
  0
LINE
  5
4E2
100
AcDbEntity
  8
GR2-1
  6
CONTINUOUS
100
AcDbLine
 10
111.364164
 20
64.082245
 30
0.0
 11
99.864164
 21
64.082245
 31
0.0
  0
LINE
  5
4E3
100
AcDbEntity
  8
GR2-1
  6
CONTINUOUS
100
AcDbLine
 10
105.114164
 20
32.582245
 30
0.0
 11
110.114164
 21
32.582245
 31
0.0
  0
LINE
  5
4E4
100
AcDbEntity
  8
GR2-1
  6
CONTINUOUS
100
AcDbLine
 10
110.114164
 20
29.582245
 30
0.0
 11
105.114164
 21
29.582245
 31
0.0
  0
LINE
  5
4E5
100
AcDbEntity
  8
GR2-1
  6
CONTINUOUS
100
AcDbLine
 10
110.114164
 20
38.082245
 30
0.0
 11
105.114164
 21
38.082245
 31
0.0
  0
LINE
  5
4E6
100
AcDbEntity
  8
GR2-1
  6
CONTINUOUS
100
AcDbLine
 10
110.114164
 20
28.082245
 30
0.0
 11
105.114164
 21
28.082245
 31
0.0
  0
LINE
  5
4E7
100
AcDbEntity
  8
GR2-1
  6
CONTINUOUS
100
AcDbLine
 10
105.114164
 20
25.982245
 30
0.0
 11
105.114164
 21
38.082245
 31
0.0
  0
LINE
  5
4E8
100
AcDbEntity
  8
GR2-1
  6
CONTINUOUS
100
AcDbLine
 10
104.114164
 20
36.082245
 30
0.0
 11
104.114164
 21
25.982245
 31
0.0
  0
ARC
  5
4E9
100
AcDbEntity
  8
GR2-1
  6
CONTINUOUS
100
AcDbCircle
 10
104.614164
 20
36.082245
 30
0.0
 40
0.5
100
AcDbArc
 50
0.0
 51
180.0
  0
LINE
  5
4EA
100
AcDbEntity
  8
GR2-1
  6
CONTINUOUS
100
AcDbLine
 10
110.114164
 20
25.982245
 30
0.0
 11
110.114164
 21
38.082245
 31
0.0
  0
LINE
  5
4EB
100
AcDbEntity
  8
GR2-1
  6
CONTINUOUS
100
AcDbLine
 10
111.114164
 20
36.082245
 30
0.0
 11
111.114164
 21
25.982245
 31
0.0
  0
ARC
  5
4EC
100
AcDbEntity
  8
GR2-1
  6
CONTINUOUS
100
AcDbCircle
 10
110.614164
 20
36.082245
 30
0.0
 40
0.5
100
AcDbArc
 50
0.0
 51
180.0
  0
ARC
  5
4ED
100
AcDbEntity
  8
GR2-1
  6
CONTINUOUS
100
AcDbCircle
 10
82.756912
 20
63.582245
 30
0.0
 40
1.0
100
AcDbArc
 50
90.0
 51
179.5
  0
LINE
  5
4EE
100
AcDbEntity
  8
GR2-1
  6
CONTINUOUS
100
AcDbLine
 10
81.461558
 20
25.982245
 30
0.0
 11
81.75695
 21
63.590971
 31
0.0
  0
LINE
  5
4EF
100
AcDbEntity
  8
GR2-1
  6
CONTINUOUS
100
AcDbLine
 10
94.471418
 20
64.582245
 30
0.0
 11
82.756912
 21
64.582245
 31
0.0
  0
LINE
  5
4F0
100
AcDbEntity
  8
0
  6
CONTINUOUS
 62
     7
100
AcDbLine
 10
94.664164
 20
25.982245
 30
0.0
 11
94.664164
 21
63.382245
 31
0.0
  0
LINE
  5
4F1
100
AcDbEntity
  8
0
  6
CONTINUOUS
 62
     7
100
AcDbLine
 10
94.664164
 20
63.382245
 30
0.0
 11
82.564164
 21
63.382245
 31
0.0
  0
LINE
  5
4F2
100
AcDbEntity
  8
0
  6
CONTINUOUS
 62
     7
100
AcDbLine
 10
82.564164
 20
63.382245
 30
0.0
 11
82.564164
 21
25.982245
 31
0.0
  0
ARC
  5
4F3
100
AcDbEntity
  8
GR2-1
  6
CONTINUOUS
100
AcDbCircle
 10
94.471418
 20
63.582245
 30
0.0
 40
1.0
100
AcDbArc
 50
0.5
 51
90.0
  0
LINE
  5
4F4
100
AcDbEntity
  8
GR2-1
  6
CONTINUOUS
100
AcDbLine
 10
95.76677
 20
25.982245
 30
0.0
 11
95.47138
 21
63.590971
 31
0.0
  0
LINE
  5
4F5
100
AcDbEntity
  8
GR2-1
  6
CONTINUOUS
100
AcDbLine
 10
87.614164
 20
51.582245
 30
0.0
 11
89.614164
 21
51.582245
 31
0.0
  0
LINE
  5
4F6
100
AcDbEntity
  8
GR2-1
  6
CONTINUOUS
100
AcDbLine
 10
87.614164
 20
61.582245
 30
0.0
 11
89.614164
 21
61.582245
 31
0.0
  0
LINE
  5
4F7
100
AcDbEntity
  8
GR2-1
  6
CONTINUOUS
100
AcDbLine
 10
87.114164
 20
52.082245
 30
0.0
 11
87.114164
 21
61.082245
 31
0.0
  0
LINE
  5
4F8
100
AcDbEntity
  8
GR2-1
  6
CONTINUOUS
100
AcDbLine
 10
90.114164
 20
52.082245
 30
0.0
 11
90.114164
 21
61.082245
 31
0.0
  0
ARC
  5
4F9
100
AcDbEntity
  8
GR2-1
  6
CONTINUOUS
100
AcDbCircle
 10
89.614164
 20
61.082245
 30
0.0
 40
0.5
100
AcDbArc
 50
0.0
 51
90.0
  0
ARC
  5
4FA
100
AcDbEntity
  8
GR2-1
  6
CONTINUOUS
100
AcDbCircle
 10
87.614164
 20
61.082245
 30
0.0
 40
0.5
100
AcDbArc
 50
90.0
 51
180.0
  0
ARC
  5
4FB
100
AcDbEntity
  8
GR2-1
  6
CONTINUOUS
100
AcDbCircle
 10
87.614164
 20
52.082245
 30
0.0
 40
0.5
100
AcDbArc
 50
180.0
 51
270.0
  0
ARC
  5
4FC
100
AcDbEntity
  8
GR2-1
  6
CONTINUOUS
100
AcDbCircle
 10
89.614164
 20
52.082245
 30
0.0
 40
0.5
100
AcDbArc
 50
270.0
 51
0.0
  0
LINE
  5
4FD
100
AcDbEntity
  8
GR2-1
  6
CONTINUOUS
100
AcDbLine
 10
91.964164
 20
61.582245
 30
0.0
 11
93.664164
 21
61.582245
 31
0.0
  0
LINE
  5
4FE
100
AcDbEntity
  8
GR2-1
  6
CONTINUOUS
100
AcDbLine
 10
91.964164
 20
51.582245
 30
0.0
 11
93.664164
 21
51.582245
 31
0.0
  0
ARC
  5
4FF
100
AcDbEntity
  8
GR2-1
  6
CONTINUOUS
100
AcDbCircle
 10
91.964164
 20
61.082245
 30
0.0
 40
0.5
100
AcDbArc
 50
90.0
 51
180.0
  0
ARC
  5
500
100
AcDbEntity
  8
GR2-1
  6
CONTINUOUS
100
AcDbCircle
 10
91.964164
 20
52.082245
 30
0.0
 40
0.5
100
AcDbArc
 50
180.0
 51
270.0
  0
ARC
  5
501
100
AcDbEntity
  8
GR2-1
  6
CONTINUOUS
100
AcDbCircle
 10
93.664164
 20
61.082245
 30
0.0
 40
0.5
100
AcDbArc
 50
0.0
 51
90.0
  0
ARC
  5
502
100
AcDbEntity
  8
GR2-1
  6
CONTINUOUS
100
AcDbCircle
 10
93.664164
 20
52.082245
 30
0.0
 40
0.5
100
AcDbArc
 50
270.0
 51
0.0
  0
LINE
  5
503
100
AcDbEntity
  8
GR2-1
  6
CONTINUOUS
100
AcDbLine
 10
94.164164
 20
61.082245
 30
0.0
 11
94.164164
 21
52.082245
 31
0.0
  0
LINE
  5
504
100
AcDbEntity
  8
GR2-1
  6
CONTINUOUS
100
AcDbLine
 10
91.464164
 20
61.082245
 30
0.0
 11
91.464164
 21
52.082245
 31
0.0
  0
LINE
  5
505
100
AcDbEntity
  8
GR2-1
  6
CONTINUOUS
100
AcDbLine
 10
94.364164
 20
64.582245
 30
0.0
 11
94.364164
 21
64.082245
 31
0.0
  0
LINE
  5
506
100
AcDbEntity
  8
GR2-1
  6
CONTINUOUS
100
AcDbLine
 10
82.864164
 20
64.582245
 30
0.0
 11
82.864164
 21
64.082245
 31
0.0
  0
LINE
  5
507
100
AcDbEntity
  8
GR2-1
  6
CONTINUOUS
100
AcDbLine
 10
94.364164
 20
64.082245
 30
0.0
 11
82.864164
 21
64.082245
 31
0.0
  0
LINE
  5
508
100
AcDbEntity
  8
GR2-1
  6
CONTINUOUS
100
AcDbLine
 10
88.114164
 20
32.582245
 30
0.0
 11
93.114164
 21
32.582245
 31
0.0
  0
LINE
  5
509
100
AcDbEntity
  8
GR2-1
  6
CONTINUOUS
100
AcDbLine
 10
93.114164
 20
29.582245
 30
0.0
 11
88.114164
 21
29.582245
 31
0.0
  0
LINE
  5
50A
100
AcDbEntity
  8
GR2-1
  6
CONTINUOUS
100
AcDbLine
 10
93.114164
 20
38.082245
 30
0.0
 11
88.114164
 21
38.082245
 31
0.0
  0
LINE
  5
50B
100
AcDbEntity
  8
GR2-1
  6
CONTINUOUS
100
AcDbLine
 10
93.114164
 20
28.082245
 30
0.0
 11
88.114164
 21
28.082245
 31
0.0
  0
LINE
  5
50C
100
AcDbEntity
  8
GR2-1
  6
CONTINUOUS
100
AcDbLine
 10
88.114164
 20
25.982245
 30
0.0
 11
88.114164
 21
38.082245
 31
0.0
  0
LINE
  5
50D
100
AcDbEntity
  8
GR2-1
  6
CONTINUOUS
100
AcDbLine
 10
87.114164
 20
36.082245
 30
0.0
 11
87.114164
 21
25.982245
 31
0.0
  0
ARC
  5
50E
100
AcDbEntity
  8
GR2-1
  6
CONTINUOUS
100
AcDbCircle
 10
87.614164
 20
36.082245
 30
0.0
 40
0.5
100
AcDbArc
 50
0.0
 51
180.0
  0
LINE
  5
50F
100
AcDbEntity
  8
GR2-1
  6
CONTINUOUS
100
AcDbLine
 10
93.114164
 20
25.982245
 30
0.0
 11
93.114164
 21
38.082245
 31
0.0
  0
LINE
  5
510
100
AcDbEntity
  8
GR2-1
  6
CONTINUOUS
100
AcDbLine
 10
94.114164
 20
36.082245
 30
0.0
 11
94.114164
 21
25.982245
 31
0.0
  0
ARC
  5
511
100
AcDbEntity
  8
GR2-1
  6
CONTINUOUS
100
AcDbCircle
 10
93.614164
 20
36.082245
 30
0.0
 40
0.5
100
AcDbArc
 50
0.0
 51
180.0
  0
ARC
  5
512
100
AcDbEntity
  8
GR2-1
  6
CONTINUOUS
100
AcDbCircle
 10
65.756912
 20
63.582245
 30
0.0
 40
1.0
100
AcDbArc
 50
90.0
 51
179.5
  0
LINE
  5
513
100
AcDbEntity
  8
GR2-1
  6
CONTINUOUS
100
AcDbLine
 10
64.461558
 20
25.982245
 30
0.0
 11
64.75695
 21
63.590971
 31
0.0
  0
LINE
  5
514
100
AcDbEntity
  8
GR2-1
  6
CONTINUOUS
100
AcDbLine
 10
77.471418
 20
64.582245
 30
0.0
 11
65.756912
 21
64.582245
 31
0.0
  0
LINE
  5
515
100
AcDbEntity
  8
0
  6
CONTINUOUS
 62
     7
100
AcDbLine
 10
77.664164
 20
25.982245
 30
0.0
 11
77.664164
 21
63.382245
 31
0.0
  0
LINE
  5
516
100
AcDbEntity
  8
0
  6
CONTINUOUS
 62
     7
100
AcDbLine
 10
77.664164
 20
63.382245
 30
0.0
 11
65.564164
 21
63.382245
 31
0.0
  0
LINE
  5
517
100
AcDbEntity
  8
0
  6
CONTINUOUS
 62
     7
100
AcDbLine
 10
65.564164
 20
63.382245
 30
0.0
 11
65.564164
 21
25.982245
 31
0.0
  0
ARC
  5
518
100
AcDbEntity
  8
GR2-1
  6
CONTINUOUS
100
AcDbCircle
 10
77.471418
 20
63.582245
 30
0.0
 40
1.0
100
AcDbArc
 50
0.5
 51
90.0
  0
LINE
  5
519
100
AcDbEntity
  8
GR2-1
  6
CONTINUOUS
100
AcDbLine
 10
78.76677
 20
25.982245
 30
0.0
 11
78.47138
 21
63.590971
 31
0.0
  0
LINE
  5
51A
100
AcDbEntity
  8
GR2-1
  6
CONTINUOUS
100
AcDbLine
 10
70.614164
 20
51.582245
 30
0.0
 11
72.614164
 21
51.582245
 31
0.0
  0
LINE
  5
51B
100
AcDbEntity
  8
GR2-1
  6
CONTINUOUS
100
AcDbLine
 10
70.614164
 20
61.582245
 30
0.0
 11
72.614164
 21
61.582245
 31
0.0
  0
LINE
  5
51C
100
AcDbEntity
  8
GR2-1
  6
CONTINUOUS
100
AcDbLine
 10
70.114164
 20
52.082245
 30
0.0
 11
70.114164
 21
61.082245
 31
0.0
  0
LINE
  5
51D
100
AcDbEntity
  8
GR2-1
  6
CONTINUOUS
100
AcDbLine
 10
73.114164
 20
52.082245
 30
0.0
 11
73.114164
 21
61.082245
 31
0.0
  0
ARC
  5
51E
100
AcDbEntity
  8
GR2-1
  6
CONTINUOUS
100
AcDbCircle
 10
72.614164
 20
61.082245
 30
0.0
 40
0.5
100
AcDbArc
 50
0.0
 51
90.0
  0
ARC
  5
51F
100
AcDbEntity
  8
GR2-1
  6
CONTINUOUS
100
AcDbCircle
 10
70.614164
 20
61.082245
 30
0.0
 40
0.5
100
AcDbArc
 50
90.0
 51
180.0
  0
ARC
  5
520
100
AcDbEntity
  8
GR2-1
  6
CONTINUOUS
100
AcDbCircle
 10
70.614164
 20
52.082245
 30
0.0
 40
0.5
100
AcDbArc
 50
180.0
 51
270.0
  0
ARC
  5
521
100
AcDbEntity
  8
GR2-1
  6
CONTINUOUS
100
AcDbCircle
 10
72.614164
 20
52.082245
 30
0.0
 40
0.5
100
AcDbArc
 50
270.0
 51
0.0
  0
LINE
  5
522
100
AcDbEntity
  8
GR2-1
  6
CONTINUOUS
100
AcDbLine
 10
74.964164
 20
61.582245
 30
0.0
 11
76.664164
 21
61.582245
 31
0.0
  0
LINE
  5
523
100
AcDbEntity
  8
GR2-1
  6
CONTINUOUS
100
AcDbLine
 10
74.964164
 20
51.582245
 30
0.0
 11
76.664164
 21
51.582245
 31
0.0
  0
ARC
  5
524
100
AcDbEntity
  8
GR2-1
  6
CONTINUOUS
100
AcDbCircle
 10
74.964164
 20
61.082245
 30
0.0
 40
0.5
100
AcDbArc
 50
90.0
 51
180.0
  0
ARC
  5
525
100
AcDbEntity
  8
GR2-1
  6
CONTINUOUS
100
AcDbCircle
 10
74.964164
 20
52.082245
 30
0.0
 40
0.5
100
AcDbArc
 50
180.0
 51
270.0
  0
ARC
  5
526
100
AcDbEntity
  8
GR2-1
  6
CONTINUOUS
100
AcDbCircle
 10
76.664164
 20
61.082245
 30
0.0
 40
0.5
100
AcDbArc
 50
0.0
 51
90.0
  0
ARC
  5
527
100
AcDbEntity
  8
GR2-1
  6
CONTINUOUS
100
AcDbCircle
 10
76.664164
 20
52.082245
 30
0.0
 40
0.5
100
AcDbArc
 50
270.0
 51
0.0
  0
LINE
  5
528
100
AcDbEntity
  8
GR2-1
  6
CONTINUOUS
100
AcDbLine
 10
77.164164
 20
61.082245
 30
0.0
 11
77.164164
 21
52.082245
 31
0.0
  0
LINE
  5
529
100
AcDbEntity
  8
GR2-1
  6
CONTINUOUS
100
AcDbLine
 10
74.464164
 20
61.082245
 30
0.0
 11
74.464164
 21
52.082245
 31
0.0
  0
LINE
  5
52A
100
AcDbEntity
  8
GR2-1
  6
CONTINUOUS
100
AcDbLine
 10
77.364164
 20
64.582245
 30
0.0
 11
77.364164
 21
64.082245
 31
0.0
  0
LINE
  5
52B
100
AcDbEntity
  8
GR2-1
  6
CONTINUOUS
100
AcDbLine
 10
65.864164
 20
64.582245
 30
0.0
 11
65.864164
 21
64.082245
 31
0.0
  0
LINE
  5
52C
100
AcDbEntity
  8
GR2-1
  6
CONTINUOUS
100
AcDbLine
 10
77.364164
 20
64.082245
 30
0.0
 11
65.864164
 21
64.082245
 31
0.0
  0
LINE
  5
52D
100
AcDbEntity
  8
GR2-1
  6
CONTINUOUS
100
AcDbLine
 10
71.114164
 20
32.582245
 30
0.0
 11
76.114164
 21
32.582245
 31
0.0
  0
LINE
  5
52E
100
AcDbEntity
  8
GR2-1
  6
CONTINUOUS
100
AcDbLine
 10
76.114164
 20
29.582245
 30
0.0
 11
71.114164
 21
29.582245
 31
0.0
  0
LINE
  5
52F
100
AcDbEntity
  8
GR2-1
  6
CONTINUOUS
100
AcDbLine
 10
76.114164
 20
38.082245
 30
0.0
 11
71.114164
 21
38.082245
 31
0.0
  0
LINE
  5
530
100
AcDbEntity
  8
GR2-1
  6
CONTINUOUS
100
AcDbLine
 10
76.114164
 20
28.082245
 30
0.0
 11
71.114164
 21
28.082245
 31
0.0
  0
LINE
  5
531
100
AcDbEntity
  8
GR2-1
  6
CONTINUOUS
100
AcDbLine
 10
71.114164
 20
25.982245
 30
0.0
 11
71.114164
 21
38.082245
 31
0.0
  0
LINE
  5
532
100
AcDbEntity
  8
GR2-1
  6
CONTINUOUS
100
AcDbLine
 10
70.114164
 20
36.082245
 30
0.0
 11
70.114164
 21
25.982245
 31
0.0
  0
ARC
  5
533
100
AcDbEntity
  8
GR2-1
  6
CONTINUOUS
100
AcDbCircle
 10
70.614164
 20
36.082245
 30
0.0
 40
0.5
100
AcDbArc
 50
0.0
 51
180.0
  0
LINE
  5
534
100
AcDbEntity
  8
GR2-1
  6
CONTINUOUS
100
AcDbLine
 10
76.114164
 20
25.982245
 30
0.0
 11
76.114164
 21
38.082245
 31
0.0
  0
LINE
  5
535
100
AcDbEntity
  8
GR2-1
  6
CONTINUOUS
100
AcDbLine
 10
77.114164
 20
36.082245
 30
0.0
 11
77.114164
 21
25.982245
 31
0.0
  0
ARC
  5
536
100
AcDbEntity
  8
GR2-1
  6
CONTINUOUS
100
AcDbCircle
 10
76.614164
 20
36.082245
 30
0.0
 40
0.5
100
AcDbArc
 50
0.0
 51
180.0
  0
LINE
  5
537
100
AcDbEntity
  8
0
  6
CONTINUOUS
 62
     7
100
AcDbLine
 10
50.254164
 20
18.466198
 30
0.0
 11
49.844164
 21
18.466198
 31
0.0
  0
LINE
  5
538
100
AcDbEntity
  8
0
  6
CONTINUOUS
 62
     7
100
AcDbLine
 10
55.564164
 20
18.466198
 30
0.0
 11
53.654164
 21
18.466198
 31
0.0
  0
LINE
  5
539
100
AcDbEntity
  8
0
  6
CONTINUOUS
 62
     7
100
AcDbLine
 10
46.444164
 20
18.466198
 30
0.0
 11
46.034164
 21
18.466198
 31
0.0
  0
LINE
  5
53A
100
AcDbEntity
  8
0
  6
CONTINUOUS
 62
     7
100
AcDbLine
 10
50.254164
 20
18.466198
 30
0.0
 11
49.844164
 21
18.466198
 31
0.0
  0
LINE
  5
53B
100
AcDbEntity
  8
0
  6
CONTINUOUS
 62
     7
100
AcDbLine
 10
43.034164
 20
18.244989
 30
0.0
 11
43.034164
 21
20.50773
 31
0.0
  0
LINE
  5
53C
100
AcDbEntity
  8
0
  6
CONTINUOUS
 62
     7
100
AcDbLine
 10
46.844164
 20
18.244989
 30
0.0
 11
46.844164
 21
20.50773
 31
0.0
  0
LINE
  5
53D
100
AcDbEntity
  8
0
  6
CONTINUOUS
 62
     7
100
AcDbLine
 10
50.654164
 20
18.244989
 30
0.0
 11
50.654164
 21
20.50773
 31
0.0
  0
LINE
  5
53E
100
AcDbEntity
  8
0
  6
CONTINUOUS
 62
     7
100
AcDbLine
 10
49.844164
 20
21.055738
 30
0.0
 11
50.254164
 21
21.055738
 31
0.0
  0
LINE
  5
53F
100
AcDbEntity
  8
0
  6
CONTINUOUS
 62
     7
100
AcDbLine
 10
46.034164
 20
21.055738
 30
0.0
 11
46.444164
 21
21.055738
 31
0.0
  0
LINE
  5
540
100
AcDbEntity
  8
0
  6
CONTINUOUS
 62
     7
100
AcDbLine
 10
55.564164
 20
21.055738
 30
0.0
 11
53.654164
 21
21.055738
 31
0.0
  0
LINE
  5
541
100
AcDbEntity
  8
0
  6
CONTINUOUS
 62
     7
100
AcDbLine
 10
49.844164
 20
21.055738
 30
0.0
 11
50.254164
 21
21.055738
 31
0.0
  0
LINE
  5
542
100
AcDbEntity
  8
0
  6
CONTINUOUS
 62
     7
100
AcDbLine
 10
49.774164
 20
21.101592
 30
0.0
 11
46.924164
 21
21.101592
 31
0.0
  0
LINE
  5
543
100
AcDbEntity
  8
0
  6
CONTINUOUS
 62
     7
100
AcDbLine
 10
45.964164
 20
21.101592
 30
0.0
 11
43.114164
 21
21.101592
 31
0.0
  0
LINE
  5
544
100
AcDbEntity
  8
0
  6
CONTINUOUS
 62
     7
100
AcDbLine
 10
53.584164
 20
21.101592
 30
0.0
 11
50.734164
 21
21.101592
 31
0.0
  0
LINE
  5
545
100
AcDbEntity
  8
0
  6
CONTINUOUS
 62
     7
100
AcDbLine
 10
55.564164
 20
22.082245
 30
0.0
 11
42.634164
 21
22.082245
 31
0.0
  0
LINE
  5
546
100
AcDbEntity
  8
0
  6
CONTINUOUS
 62
     7
100
AcDbLine
 10
49.774164
 20
22.003433
 30
0.0
 11
46.924164
 21
22.003433
 31
0.0
  0
LINE
  5
547
100
AcDbEntity
  8
0
  6
CONTINUOUS
 62
     7
100
AcDbLine
 10
45.964164
 20
22.003433
 30
0.0
 11
43.114164
 21
22.003433
 31
0.0
  0
LINE
  5
548
100
AcDbEntity
  8
0
  6
CONTINUOUS
 62
     7
100
AcDbLine
 10
53.584164
 20
22.003433
 30
0.0
 11
50.734164
 21
22.003433
 31
0.0
  0
LINE
  5
549
100
AcDbEntity
  8
0
  6
CONTINUOUS
 62
     7
100
AcDbLine
 10
50.254164
 20
18.08653
 30
0.0
 11
50.254164
 21
21.055738
 31
0.0
  0
LINE
  5
54A
100
AcDbEntity
  8
0
  6
CONTINUOUS
 62
     7
100
AcDbLine
 10
53.654164
 20
18.112645
 30
0.0
 11
53.654164
 21
21.055738
 31
0.0
  0
LINE
  5
54B
100
AcDbEntity
  8
0
  6
CONTINUOUS
 62
     7
100
AcDbLine
 10
55.564164
 20
17.893347
 30
0.0
 11
55.564164
 21
22.082245
 31
0.0
  0
LINE
  5
54C
100
AcDbEntity
  8
0
  6
CONTINUOUS
 62
     7
100
AcDbLine
 10
42.634164
 20
22.082245
 30
0.0
 11
42.634164
 21
17.844105
 31
0.0
  0
LINE
  5
54D
100
AcDbEntity
  8
0
  6
CONTINUOUS
 62
     7
100
AcDbLine
 10
46.034164
 20
18.112645
 30
0.0
 11
46.034164
 21
21.055738
 31
0.0
  0
LINE
  5
54E
100
AcDbEntity
  8
0
  6
CONTINUOUS
 62
     7
100
AcDbLine
 10
46.444164
 20
18.08653
 30
0.0
 11
46.444164
 21
21.055738
 31
0.0
  0
LINE
  5
54F
100
AcDbEntity
  8
0
  6
CONTINUOUS
 62
     7
100
AcDbLine
 10
49.844164
 20
18.112645
 30
0.0
 11
49.844164
 21
21.055738
 31
0.0
  0
LINE
  5
550
100
AcDbEntity
  8
0
  6
CONTINUOUS
 62
     7
100
AcDbLine
 10
43.034164
 20
20.50773
 30
0.0
 11
46.034164
 21
20.50773
 31
0.0
  0
LINE
  5
551
100
AcDbEntity
  8
0
  6
CONTINUOUS
 62
     7
100
AcDbLine
 10
46.844164
 20
20.50773
 30
0.0
 11
49.844164
 21
20.50773
 31
0.0
  0
LINE
  5
552
100
AcDbEntity
  8
0
  6
CONTINUOUS
 62
     7
100
AcDbLine
 10
50.654164
 20
20.50773
 30
0.0
 11
53.654164
 21
20.50773
 31
0.0
  0
LINE
  5
553
100
AcDbEntity
  8
0
  6
CONTINUOUS
 62
     7
100
AcDbLine
 10
46.924164
 20
20.878961
 30
0.0
 11
46.924164
 21
22.003433
 31
0.0
  0
LINE
  5
554
100
AcDbEntity
  8
0
  6
CONTINUOUS
 62
     7
100
AcDbLine
 10
49.774164
 20
20.878961
 30
0.0
 11
49.774164
 21
22.003433
 31
0.0
  0
LINE
  5
555
100
AcDbEntity
  8
0
  6
CONTINUOUS
 62
     7
100
AcDbLine
 10
43.114164
 20
20.878961
 30
0.0
 11
43.114164
 21
22.003433
 31
0.0
  0
LINE
  5
556
100
AcDbEntity
  8
0
  6
CONTINUOUS
 62
     7
100
AcDbLine
 10
45.964164
 20
20.878961
 30
0.0
 11
45.964164
 21
22.003433
 31
0.0
  0
LINE
  5
557
100
AcDbEntity
  8
0
  6
CONTINUOUS
 62
     7
100
AcDbLine
 10
50.734164
 20
20.878961
 30
0.0
 11
50.734164
 21
22.003433
 31
0.0
  0
LINE
  5
558
100
AcDbEntity
  8
0
  6
CONTINUOUS
 62
     7
100
AcDbLine
 10
53.584164
 20
20.878961
 30
0.0
 11
53.584164
 21
22.003433
 31
0.0
  0
LINE
  5
55A
100
AcDbEntity
  8
\U+53F3\U+5074\U+9762\U+56F3_\U+4F5C\U+56F3
  6
CONTINUOUS
100
AcDbLine
 10
49.844164
 20
18.112645
 30
0.0
 11
49.844164
 21
17.868348
 31
0.0
  0
LINE
  5
55B
100
AcDbEntity
  8
\U+53F3\U+5074\U+9762\U+56F3_\U+4F5C\U+56F3
  6
CONTINUOUS
100
AcDbLine
 10
46.844164
 20
18.244989
 30
0.0
 11
46.844164
 21
17.88653
 31
0.0
  0
LINE
  5
55C
100
AcDbEntity
  8
\U+53F3\U+5074\U+9762\U+56F3_\U+4F5C\U+56F3
  6
CONTINUOUS
100
AcDbLine
 10
43.034164
 20
18.244989
 30
0.0
 11
43.034164
 21
17.868348
 31
0.0
  0
LINE
  5
55D
100
AcDbEntity
  8
\U+53F3\U+5074\U+9762\U+56F3_\U+4F5C\U+56F3
  6
CONTINUOUS
100
AcDbLine
 10
46.034164
 20
18.112645
 30
0.0
 11
46.034164
 21
17.88653
 31
0.0
  0
LINE
  5
55E
100
AcDbEntity
  8
\U+53F3\U+5074\U+9762\U+56F3_\U+4F5C\U+56F3
  6
CONTINUOUS
100
AcDbLine
 10
53.654164
 20
18.112645
 30
0.0
 11
53.654164
 21
17.904711
 31
0.0
  0
LINE
  5
55F
100
AcDbEntity
  8
\U+53F3\U+5074\U+9762\U+56F3_\U+4F5C\U+56F3
  6
CONTINUOUS
100
AcDbLine
 10
50.654164
 20
18.244989
 30
0.0
 11
50.654164
 21
17.904711
 31
0.0
  0
LINE
  5
560
100
AcDbEntity
  8
\U+53F3\U+5074\U+9762\U+56F3_\U+4F5C\U+56F3
  6
CONTINUOUS
100
AcDbLine
 10
49.774164
 20
20.742773
 30
0.0
 11
46.924164
 21
20.742773
 31
0.0
  0
LINE
  5
561
100
AcDbEntity
  8
\U+53F3\U+5074\U+9762\U+56F3_\U+4F5C\U+56F3
  6
CONTINUOUS
100
AcDbLine
 10
45.964164
 20
20.742773
 30
0.0
 11
43.114164
 21
20.742773
 31
0.0
  0
LINE
  5
562
100
AcDbEntity
  8
\U+53F3\U+5074\U+9762\U+56F3_\U+4F5C\U+56F3
  6
CONTINUOUS
100
AcDbLine
 10
53.584164
 20
20.742773
 30
0.0
 11
50.734164
 21
20.742773
 31
0.0
  0
LINE
  5
563
100
AcDbEntity
  8
\U+53F3\U+5074\U+9762\U+56F3_\U+4F5C\U+56F3
  6
CONTINUOUS
100
AcDbLine
 10
53.584164
 20
21.762845
 30
0.0
 11
50.734164
 21
21.762845
 31
0.0
  0
LINE
  5
564
100
AcDbEntity
  8
\U+53F3\U+5074\U+9762\U+56F3_\U+4F5C\U+56F3
  6
CONTINUOUS
100
AcDbLine
 10
49.774164
 20
21.762845
 30
0.0
 11
46.924164
 21
21.762845
 31
0.0
  0
LINE
  5
565
100
AcDbEntity
  8
\U+53F3\U+5074\U+9762\U+56F3_\U+4F5C\U+56F3
  6
CONTINUOUS
100
AcDbLine
 10
45.964164
 20
21.762845
 30
0.0
 11
43.114164
 21
21.762845
 31
0.0
  0
LINE
  5
566
100
AcDbEntity
  8
\U+53F3\U+5074\U+9762\U+56F3_\U+4F5C\U+56F3
  6
CONTINUOUS
100
AcDbLine
 10
42.634164
 20
20.560763
 30
0.0
 11
43.114164
 21
20.560763
 31
0.0
  0
LINE
  5
567
100
AcDbEntity
  8
\U+53F3\U+5074\U+9762\U+56F3_\U+4F5C\U+56F3
  6
CONTINUOUS
100
AcDbLine
 10
45.964164
 20
20.560763
 30
0.0
 11
46.924164
 21
20.560763
 31
0.0
  0
LINE
  5
568
100
AcDbEntity
  8
\U+53F3\U+5074\U+9762\U+56F3_\U+4F5C\U+56F3
  6
CONTINUOUS
100
AcDbLine
 10
49.774164
 20
20.560763
 30
0.0
 11
50.734164
 21
20.560763
 31
0.0
  0
LINE
  5
569
100
AcDbEntity
  8
\U+53F3\U+5074\U+9762\U+56F3_\U+4F5C\U+56F3
  6
CONTINUOUS
100
AcDbLine
 10
49.774164
 20
20.560763
 30
0.0
 11
50.734164
 21
20.560763
 31
0.0
  0
LINE
  5
56A
100
AcDbEntity
  8
\U+53F3\U+5074\U+9762\U+56F3_\U+4F5C\U+56F3
  6
CONTINUOUS
100
AcDbLine
 10
53.584164
 20
20.560763
 30
0.0
 11
55.564164
 21
20.560763
 31
0.0
  0
LINE
  5
56B
100
AcDbEntity
  8
\U+53F3\U+5074\U+9762\U+56F3_\U+4F5C\U+56F3
  6
CONTINUOUS
100
AcDbLine
 10
43.114164
 20
20.862542
 30
0.0
 11
45.964164
 21
20.862542
 31
0.0
  0
LINE
  5
56C
100
AcDbEntity
  8
\U+53F3\U+5074\U+9762\U+56F3_\U+4F5C\U+56F3
  6
CONTINUOUS
100
AcDbLine
 10
46.924164
 20
20.862542
 30
0.0
 11
49.774164
 21
20.862542
 31
0.0
  0
LINE
  5
56D
100
AcDbEntity
  8
\U+53F3\U+5074\U+9762\U+56F3_\U+4F5C\U+56F3
  6
CONTINUOUS
100
AcDbLine
 10
50.734164
 20
20.862542
 30
0.0
 11
53.584164
 21
20.862542
 31
0.0
  0
LINE
  5
56E
100
AcDbEntity
  8
\U+53F3\U+5074\U+9762\U+56F3_\U+4F5C\U+56F3
  6
CONTINUOUS
100
AcDbLine
 10
42.634164
 20
18.082245
 30
0.0
 11
55.564164
 21
18.082245
 31
0.0
  0
LINE
  5
56F
100
AcDbEntity
  8
\U+53F3\U+5074\U+9762\U+56F3_\U+4F5C\U+56F3
  6
CONTINUOUS
100
AcDbLine
 10
45.964164
 20
20.560763
 30
0.0
 11
45.964164
 21
20.878961
 31
0.0
  0
LINE
  5
570
100
AcDbEntity
  8
\U+53F3\U+5074\U+9762\U+56F3_\U+4F5C\U+56F3
  6
CONTINUOUS
100
AcDbLine
 10
46.924164
 20
20.560763
 30
0.0
 11
46.924164
 21
20.878961
 31
0.0
  0
LINE
  5
571
100
AcDbEntity
  8
\U+53F3\U+5074\U+9762\U+56F3_\U+4F5C\U+56F3
  6
CONTINUOUS
100
AcDbLine
 10
49.774164
 20
20.560763
 30
0.0
 11
49.774164
 21
20.878961
 31
0.0
  0
LINE
  5
572
100
AcDbEntity
  8
\U+53F3\U+5074\U+9762\U+56F3_\U+4F5C\U+56F3
  6
CONTINUOUS
100
AcDbLine
 10
43.114164
 20
20.560763
 30
0.0
 11
43.114164
 21
20.878961
 31
0.0
  0
LINE
  5
573
100
AcDbEntity
  8
\U+53F3\U+5074\U+9762\U+56F3_\U+4F5C\U+56F3
  6
CONTINUOUS
100
AcDbLine
 10
50.734164
 20
20.560763
 30
0.0
 11
50.734164
 21
20.878961
 31
0.0
  0
LINE
  5
574
100
AcDbEntity
  8
\U+53F3\U+5074\U+9762\U+56F3_\U+4F5C\U+56F3
  6
CONTINUOUS
100
AcDbLine
 10
53.584164
 20
20.560763
 30
0.0
 11
53.584164
 21
20.878961
 31
0.0
  0
LINE
  5
575
100
AcDbEntity
  8
0
  6
CONTINUOUS
 62
     7
100
AcDbLine
 10
78.564164
 20
18.466198
 30
0.0
 11
76.654164
 21
18.466198
 31
0.0
  0
LINE
  5
576
100
AcDbEntity
  8
0
  6
CONTINUOUS
 62
     7
100
AcDbLine
 10
65.634164
 20
18.466198
 30
0.0
 11
65.224164
 21
18.466198
 31
0.0
  0
LINE
  5
577
100
AcDbEntity
  8
0
  6
CONTINUOUS
 62
     7
100
AcDbLine
 10
69.444164
 20
18.466198
 30
0.0
 11
69.034164
 21
18.466198
 31
0.0
  0
LINE
  5
578
100
AcDbEntity
  8
0
  6
CONTINUOUS
 62
     7
100
AcDbLine
 10
73.254164
 20
18.466198
 30
0.0
 11
72.844164
 21
18.466198
 31
0.0
  0
LINE
  5
579
100
AcDbEntity
  8
0
  6
CONTINUOUS
 62
     7
100
AcDbLine
 10
62.224164
 20
18.244989
 30
0.0
 11
62.224164
 21
20.50773
 31
0.0
  0
LINE
  5
57A
100
AcDbEntity
  8
0
  6
CONTINUOUS
 62
     7
100
AcDbLine
 10
66.034164
 20
18.244989
 30
0.0
 11
66.034164
 21
20.50773
 31
0.0
  0
LINE
  5
57B
100
AcDbEntity
  8
0
  6
CONTINUOUS
 62
     7
100
AcDbLine
 10
69.844164
 20
18.244989
 30
0.0
 11
69.844164
 21
20.50773
 31
0.0
  0
LINE
  5
57C
100
AcDbEntity
  8
0
  6
CONTINUOUS
 62
     7
100
AcDbLine
 10
73.654164
 20
18.244989
 30
0.0
 11
73.654164
 21
20.50773
 31
0.0
  0
LINE
  5
57D
100
AcDbEntity
  8
0
  6
CONTINUOUS
 62
     7
100
AcDbLine
 10
69.034164
 20
21.055738
 30
0.0
 11
69.444164
 21
21.055738
 31
0.0
  0
LINE
  5
57E
100
AcDbEntity
  8
0
  6
CONTINUOUS
 62
     7
100
AcDbLine
 10
65.224164
 20
21.055738
 30
0.0
 11
65.634164
 21
21.055738
 31
0.0
  0
LINE
  5
57F
100
AcDbEntity
  8
0
  6
CONTINUOUS
 62
     7
100
AcDbLine
 10
78.564164
 20
21.055738
 30
0.0
 11
76.654164
 21
21.055738
 31
0.0
  0
LINE
  5
580
100
AcDbEntity
  8
0
  6
CONTINUOUS
 62
     7
100
AcDbLine
 10
72.844164
 20
21.055738
 30
0.0
 11
73.254164
 21
21.055738
 31
0.0
  0
LINE
  5
581
100
AcDbEntity
  8
0
  6
CONTINUOUS
 62
     7
100
AcDbLine
 10
68.964164
 20
21.101592
 30
0.0
 11
66.114164
 21
21.101592
 31
0.0
  0
LINE
  5
582
100
AcDbEntity
  8
0
  6
CONTINUOUS
 62
     7
100
AcDbLine
 10
65.154164
 20
21.101592
 30
0.0
 11
62.304164
 21
21.101592
 31
0.0
  0
LINE
  5
583
100
AcDbEntity
  8
0
  6
CONTINUOUS
 62
     7
100
AcDbLine
 10
72.774164
 20
21.101592
 30
0.0
 11
69.924164
 21
21.101592
 31
0.0
  0
LINE
  5
584
100
AcDbEntity
  8
0
  6
CONTINUOUS
 62
     7
100
AcDbLine
 10
76.584164
 20
21.101592
 30
0.0
 11
73.734164
 21
21.101592
 31
0.0
  0
LINE
  5
585
100
AcDbEntity
  8
0
  6
CONTINUOUS
 62
     7
100
AcDbLine
 10
78.564164
 20
22.082245
 30
0.0
 11
61.824164
 21
22.082245
 31
0.0
  0
LINE
  5
586
100
AcDbEntity
  8
0
  6
CONTINUOUS
 62
     7
100
AcDbLine
 10
68.964164
 20
22.003433
 30
0.0
 11
66.114164
 21
22.003433
 31
0.0
  0
LINE
  5
587
100
AcDbEntity
  8
0
  6
CONTINUOUS
 62
     7
100
AcDbLine
 10
65.154164
 20
22.003433
 30
0.0
 11
62.304164
 21
22.003433
 31
0.0
  0
LINE
  5
588
100
AcDbEntity
  8
0
  6
CONTINUOUS
 62
     7
100
AcDbLine
 10
72.774164
 20
22.003433
 30
0.0
 11
69.924164
 21
22.003433
 31
0.0
  0
LINE
  5
589
100
AcDbEntity
  8
0
  6
CONTINUOUS
 62
     7
100
AcDbLine
 10
76.584164
 20
22.003433
 30
0.0
 11
73.734164
 21
22.003433
 31
0.0
  0
LINE
  5
58A
100
AcDbEntity
  8
0
  6
CONTINUOUS
 62
     7
100
AcDbLine
 10
76.654164
 20
18.112645
 30
0.0
 11
76.654164
 21
21.055738
 31
0.0
  0
LINE
  5
58B
100
AcDbEntity
  8
0
  6
CONTINUOUS
 62
     7
100
AcDbLine
 10
78.551366
 20
17.882245
 30
0.0
 11
78.564164
 21
22.082245
 31
0.0
  0
LINE
  5
58C
100
AcDbEntity
  8
0
  6
CONTINUOUS
 62
     7
100
AcDbLine
 10
61.824164
 20
22.082245
 30
0.0
 11
61.824164
 21
17.847289
 31
0.0
  0
LINE
  5
58D
100
AcDbEntity
  8
0
  6
CONTINUOUS
 62
     7
100
AcDbLine
 10
65.224164
 20
18.112645
 30
0.0
 11
65.224164
 21
21.055738
 31
0.0
  0
LINE
  5
58E
100
AcDbEntity
  8
0
  6
CONTINUOUS
 62
     7
100
AcDbLine
 10
65.634164
 20
18.08653
 30
0.0
 11
65.634164
 21
21.055738
 31
0.0
  0
LINE
  5
58F
100
AcDbEntity
  8
0
  6
CONTINUOUS
 62
     7
100
AcDbLine
 10
69.034164
 20
18.112645
 30
0.0
 11
69.034164
 21
21.055738
 31
0.0
  0
LINE
  5
590
100
AcDbEntity
  8
0
  6
CONTINUOUS
 62
     7
100
AcDbLine
 10
69.444164
 20
18.068348
 30
0.0
 11
69.444164
 21
21.055738
 31
0.0
  0
LINE
  5
591
100
AcDbEntity
  8
0
  6
CONTINUOUS
 62
     7
100
AcDbLine
 10
72.844164
 20
18.112645
 30
0.0
 11
72.844164
 21
21.055738
 31
0.0
  0
LINE
  5
592
100
AcDbEntity
  8
0
  6
CONTINUOUS
 62
     7
100
AcDbLine
 10
73.254164
 20
18.08653
 30
0.0
 11
73.254164
 21
21.055738
 31
0.0
  0
LINE
  5
593
100
AcDbEntity
  8
0
  6
CONTINUOUS
 62
     7
100
AcDbLine
 10
62.224164
 20
20.50773
 30
0.0
 11
65.224164
 21
20.50773
 31
0.0
  0
LINE
  5
594
100
AcDbEntity
  8
0
  6
CONTINUOUS
 62
     7
100
AcDbLine
 10
66.034164
 20
20.50773
 30
0.0
 11
69.034164
 21
20.50773
 31
0.0
  0
LINE
  5
595
100
AcDbEntity
  8
0
  6
CONTINUOUS
 62
     7
100
AcDbLine
 10
69.844164
 20
20.50773
 30
0.0
 11
72.844164
 21
20.50773
 31
0.0
  0
LINE
  5
596
100
AcDbEntity
  8
0
  6
CONTINUOUS
 62
     7
100
AcDbLine
 10
73.654164
 20
20.50773
 30
0.0
 11
76.654164
 21
20.50773
 31
0.0
  0
LINE
  5
597
100
AcDbEntity
  8
0
  6
CONTINUOUS
 62
     7
100
AcDbLine
 10
66.114164
 20
20.878961
 30
0.0
 11
66.114164
 21
22.003433
 31
0.0
  0
LINE
  5
598
100
AcDbEntity
  8
0
  6
CONTINUOUS
 62
     7
100
AcDbLine
 10
68.964164
 20
20.878961
 30
0.0
 11
68.964164
 21
22.003433
 31
0.0
  0
LINE
  5
599
100
AcDbEntity
  8
0
  6
CONTINUOUS
 62
     7
100
AcDbLine
 10
62.304164
 20
20.878961
 30
0.0
 11
62.304164
 21
22.003433
 31
0.0
  0
LINE
  5
59A
100
AcDbEntity
  8
0
  6
CONTINUOUS
 62
     7
100
AcDbLine
 10
65.154164
 20
20.878961
 30
0.0
 11
65.154164
 21
22.003433
 31
0.0
  0
LINE
  5
59B
100
AcDbEntity
  8
0
  6
CONTINUOUS
 62
     7
100
AcDbLine
 10
69.924164
 20
20.878961
 30
0.0
 11
69.924164
 21
22.003433
 31
0.0
  0
LINE
  5
59C
100
AcDbEntity
  8
0
  6
CONTINUOUS
 62
     7
100
AcDbLine
 10
72.774164
 20
20.878961
 30
0.0
 11
72.774164
 21
22.003433
 31
0.0
  0
LINE
  5
59D
100
AcDbEntity
  8
0
  6
CONTINUOUS
 62
     7
100
AcDbLine
 10
73.734164
 20
20.878961
 30
0.0
 11
73.734164
 21
22.003433
 31
0.0
  0
LINE
  5
59E
100
AcDbEntity
  8
0
  6
CONTINUOUS
 62
     7
100
AcDbLine
 10
76.584164
 20
20.878961
 30
0.0
 11
76.584164
 21
22.003433
 31
0.0
  0
LINE
  5
59F
100
AcDbEntity
  8
\U+53F3\U+5074\U+9762\U+56F3_\U+4F5C\U+56F3
  6
CONTINUOUS
100
AcDbLine
 10
69.034164
 20
18.112645
 30
0.0
 11
69.034164
 21
17.882245
 31
0.0
  0
LINE
  5
5A0
100
AcDbEntity
  8
\U+53F3\U+5074\U+9762\U+56F3_\U+4F5C\U+56F3
  6
CONTINUOUS
100
AcDbLine
 10
66.034164
 20
18.244989
 30
0.0
 11
66.034164
 21
17.882245
 31
0.0
  0
LINE
  5
5A1
100
AcDbEntity
  8
\U+53F3\U+5074\U+9762\U+56F3_\U+4F5C\U+56F3
  6
CONTINUOUS
100
AcDbLine
 10
62.224164
 20
18.244989
 30
0.0
 11
62.224164
 21
17.88653
 31
0.0
  0
LINE
  5
5A2
100
AcDbEntity
  8
\U+53F3\U+5074\U+9762\U+56F3_\U+4F5C\U+56F3
  6
CONTINUOUS
100
AcDbLine
 10
65.224164
 20
18.112645
 30
0.0
 11
65.224164
 21
17.882245
 31
0.0
  0
LINE
  5
5A3
100
AcDbEntity
  8
\U+53F3\U+5074\U+9762\U+56F3_\U+4F5C\U+56F3
  6
CONTINUOUS
100
AcDbLine
 10
76.654164
 20
18.112645
 30
0.0
 11
76.654164
 21
17.882245
 31
0.0
  0
LINE
  5
5A4
100
AcDbEntity
  8
\U+53F3\U+5074\U+9762\U+56F3_\U+4F5C\U+56F3
  6
CONTINUOUS
100
AcDbLine
 10
73.654164
 20
18.244989
 30
0.0
 11
73.654164
 21
17.882245
 31
0.0
  0
LINE
  5
5A5
100
AcDbEntity
  8
\U+53F3\U+5074\U+9762\U+56F3_\U+4F5C\U+56F3
  6
CONTINUOUS
100
AcDbLine
 10
72.844164
 20
18.112645
 30
0.0
 11
72.844164
 21
17.882245
 31
0.0
  0
LINE
  5
5A6
100
AcDbEntity
  8
\U+53F3\U+5074\U+9762\U+56F3_\U+4F5C\U+56F3
  6
CONTINUOUS
100
AcDbLine
 10
69.844164
 20
18.244989
 30
0.0
 11
69.844164
 21
17.882245
 31
0.0
  0
LINE
  5
5A7
100
AcDbEntity
  8
\U+53F3\U+5074\U+9762\U+56F3_\U+4F5C\U+56F3
  6
CONTINUOUS
100
AcDbLine
 10
68.964164
 20
20.742773
 30
0.0
 11
66.114164
 21
20.742773
 31
0.0
  0
LINE
  5
5A8
100
AcDbEntity
  8
\U+53F3\U+5074\U+9762\U+56F3_\U+4F5C\U+56F3
  6
CONTINUOUS
100
AcDbLine
 10
65.154164
 20
20.742773
 30
0.0
 11
62.304164
 21
20.742773
 31
0.0
  0
LINE
  5
5A9
100
AcDbEntity
  8
\U+53F3\U+5074\U+9762\U+56F3_\U+4F5C\U+56F3
  6
CONTINUOUS
100
AcDbLine
 10
72.774164
 20
20.742773
 30
0.0
 11
69.924164
 21
20.742773
 31
0.0
  0
LINE
  5
5AA
100
AcDbEntity
  8
\U+53F3\U+5074\U+9762\U+56F3_\U+4F5C\U+56F3
  6
CONTINUOUS
100
AcDbLine
 10
76.584164
 20
20.742773
 30
0.0
 11
73.734164
 21
20.742773
 31
0.0
  0
LINE
  5
5AB
100
AcDbEntity
  8
\U+53F3\U+5074\U+9762\U+56F3_\U+4F5C\U+56F3
  6
CONTINUOUS
100
AcDbLine
 10
76.584164
 20
21.762845
 30
0.0
 11
73.734164
 21
21.762845
 31
0.0
  0
LINE
  5
5AC
100
AcDbEntity
  8
\U+53F3\U+5074\U+9762\U+56F3_\U+4F5C\U+56F3
  6
CONTINUOUS
100
AcDbLine
 10
72.774164
 20
21.762845
 30
0.0
 11
69.924164
 21
21.762845
 31
0.0
  0
LINE
  5
5AD
100
AcDbEntity
  8
\U+53F3\U+5074\U+9762\U+56F3_\U+4F5C\U+56F3
  6
CONTINUOUS
100
AcDbLine
 10
68.964164
 20
21.762845
 30
0.0
 11
66.114164
 21
21.762845
 31
0.0
  0
LINE
  5
5AE
100
AcDbEntity
  8
\U+53F3\U+5074\U+9762\U+56F3_\U+4F5C\U+56F3
  6
CONTINUOUS
100
AcDbLine
 10
65.154164
 20
21.762845
 30
0.0
 11
62.304164
 21
21.762845
 31
0.0
  0
LINE
  5
5AF
100
AcDbEntity
  8
\U+53F3\U+5074\U+9762\U+56F3_\U+4F5C\U+56F3
  6
CONTINUOUS
100
AcDbLine
 10
61.824164
 20
20.560763
 30
0.0
 11
62.304164
 21
20.560763
 31
0.0
  0
LINE
  5
5B0
100
AcDbEntity
  8
\U+53F3\U+5074\U+9762\U+56F3_\U+4F5C\U+56F3
  6
CONTINUOUS
100
AcDbLine
 10
65.154164
 20
20.560763
 30
0.0
 11
66.114164
 21
20.560763
 31
0.0
  0
LINE
  5
5B1
100
AcDbEntity
  8
\U+53F3\U+5074\U+9762\U+56F3_\U+4F5C\U+56F3
  6
CONTINUOUS
100
AcDbLine
 10
68.964164
 20
20.560763
 30
0.0
 11
69.924164
 21
20.560763
 31
0.0
  0
LINE
  5
5B2
100
AcDbEntity
  8
\U+53F3\U+5074\U+9762\U+56F3_\U+4F5C\U+56F3
  6
CONTINUOUS
100
AcDbLine
 10
72.774164
 20
20.560763
 30
0.0
 11
73.734164
 21
20.560763
 31
0.0
  0
LINE
  5
5B3
100
AcDbEntity
  8
\U+53F3\U+5074\U+9762\U+56F3_\U+4F5C\U+56F3
  6
CONTINUOUS
100
AcDbLine
 10
72.774164
 20
20.560763
 30
0.0
 11
73.734164
 21
20.560763
 31
0.0
  0
LINE
  5
5B4
100
AcDbEntity
  8
\U+53F3\U+5074\U+9762\U+56F3_\U+4F5C\U+56F3
  6
CONTINUOUS
100
AcDbLine
 10
76.584164
 20
20.560763
 30
0.0
 11
78.564164
 21
20.560763
 31
0.0
  0
LINE
  5
5B5
100
AcDbEntity
  8
\U+53F3\U+5074\U+9762\U+56F3_\U+4F5C\U+56F3
  6
CONTINUOUS
100
AcDbLine
 10
62.304164
 20
20.862542
 30
0.0
 11
65.154164
 21
20.862542
 31
0.0
  0
LINE
  5
5B6
100
AcDbEntity
  8
\U+53F3\U+5074\U+9762\U+56F3_\U+4F5C\U+56F3
  6
CONTINUOUS
100
AcDbLine
 10
66.114164
 20
20.862542
 30
0.0
 11
68.964164
 21
20.862542
 31
0.0
  0
LINE
  5
5B7
100
AcDbEntity
  8
\U+53F3\U+5074\U+9762\U+56F3_\U+4F5C\U+56F3
  6
CONTINUOUS
100
AcDbLine
 10
73.734164
 20
20.862542
 30
0.0
 11
76.584164
 21
20.862542
 31
0.0
  0
LINE
  5
5B8
100
AcDbEntity
  8
\U+53F3\U+5074\U+9762\U+56F3_\U+4F5C\U+56F3
  6
CONTINUOUS
100
AcDbLine
 10
69.924164
 20
20.862542
 30
0.0
 11
72.774164
 21
20.862542
 31
0.0
  0
LINE
  5
5B9
100
AcDbEntity
  8
\U+53F3\U+5074\U+9762\U+56F3_\U+4F5C\U+56F3
  6
CONTINUOUS
100
AcDbLine
 10
61.824164
 20
20.382245
 30
0.0
 11
78.564164
 21
20.382245
 31
0.0
  0
LINE
  5
5BA
100
AcDbEntity
  8
\U+53F3\U+5074\U+9762\U+56F3_\U+4F5C\U+56F3
  6
CONTINUOUS
100
AcDbLine
 10
61.824164
 20
18.082245
 30
0.0
 11
78.564164
 21
18.082245
 31
0.0
  0
LINE
  5
5BB
100
AcDbEntity
  8
\U+53F3\U+5074\U+9762\U+56F3_\U+4F5C\U+56F3
  6
CONTINUOUS
100
AcDbLine
 10
65.154164
 20
20.560763
 30
0.0
 11
65.154164
 21
20.878961
 31
0.0
  0
LINE
  5
5BC
100
AcDbEntity
  8
\U+53F3\U+5074\U+9762\U+56F3_\U+4F5C\U+56F3
  6
CONTINUOUS
100
AcDbLine
 10
66.114164
 20
20.560763
 30
0.0
 11
66.114164
 21
20.878961
 31
0.0
  0
LINE
  5
5BD
100
AcDbEntity
  8
\U+53F3\U+5074\U+9762\U+56F3_\U+4F5C\U+56F3
  6
CONTINUOUS
100
AcDbLine
 10
68.964164
 20
20.560763
 30
0.0
 11
68.964164
 21
20.878961
 31
0.0
  0
LINE
  5
5BE
100
AcDbEntity
  8
\U+53F3\U+5074\U+9762\U+56F3_\U+4F5C\U+56F3
  6
CONTINUOUS
100
AcDbLine
 10
62.304164
 20
20.560763
 30
0.0
 11
62.304164
 21
20.878961
 31
0.0
  0
LINE
  5
5BF
100
AcDbEntity
  8
\U+53F3\U+5074\U+9762\U+56F3_\U+4F5C\U+56F3
  6
CONTINUOUS
100
AcDbLine
 10
69.924164
 20
20.560763
 30
0.0
 11
69.924164
 21
20.878961
 31
0.0
  0
LINE
  5
5C0
100
AcDbEntity
  8
\U+53F3\U+5074\U+9762\U+56F3_\U+4F5C\U+56F3
  6
CONTINUOUS
100
AcDbLine
 10
72.774164
 20
20.560763
 30
0.0
 11
72.774164
 21
20.878961
 31
0.0
  0
LINE
  5
5C1
100
AcDbEntity
  8
\U+53F3\U+5074\U+9762\U+56F3_\U+4F5C\U+56F3
  6
CONTINUOUS
100
AcDbLine
 10
73.734164
 20
20.560763
 30
0.0
 11
73.734164
 21
20.878961
 31
0.0
  0
LINE
  5
5C2
100
AcDbEntity
  8
\U+53F3\U+5074\U+9762\U+56F3_\U+4F5C\U+56F3
  6
CONTINUOUS
100
AcDbLine
 10
76.584164
 20
20.560763
 30
0.0
 11
76.584164
 21
20.878961
 31
0.0
  0
LINE
  5
5C3
100
AcDbEntity
  8
0
  6
CONTINUOUS
 62
     7
100
AcDbLine
 10
95.564164
 20
18.466198
 30
0.0
 11
93.654164
 21
18.466198
 31
0.0
  0
LINE
  5
5C4
100
AcDbEntity
  8
0
  6
CONTINUOUS
 62
     7
100
AcDbLine
 10
82.634164
 20
18.466198
 30
0.0
 11
82.224164
 21
18.466198
 31
0.0
  0
LINE
  5
5C5
100
AcDbEntity
  8
0
  6
CONTINUOUS
 62
     7
100
AcDbLine
 10
86.444164
 20
18.466198
 30
0.0
 11
86.034164
 21
18.466198
 31
0.0
  0
LINE
  5
5C6
100
AcDbEntity
  8
0
  6
CONTINUOUS
 62
     7
100
AcDbLine
 10
90.254164
 20
18.466198
 30
0.0
 11
89.844164
 21
18.466198
 31
0.0
  0
LINE
  5
5C7
100
AcDbEntity
  8
0
  6
CONTINUOUS
 62
     7
100
AcDbLine
 10
79.224164
 20
18.244989
 30
0.0
 11
79.224164
 21
20.50773
 31
0.0
  0
LINE
  5
5C8
100
AcDbEntity
  8
0
  6
CONTINUOUS
 62
     7
100
AcDbLine
 10
83.034164
 20
18.244989
 30
0.0
 11
83.034164
 21
20.50773
 31
0.0
  0
LINE
  5
5C9
100
AcDbEntity
  8
0
  6
CONTINUOUS
 62
     7
100
AcDbLine
 10
86.844164
 20
18.244989
 30
0.0
 11
86.844164
 21
20.50773
 31
0.0
  0
LINE
  5
5CA
100
AcDbEntity
  8
0
  6
CONTINUOUS
 62
     7
100
AcDbLine
 10
90.654164
 20
18.244989
 30
0.0
 11
90.654164
 21
20.50773
 31
0.0
  0
LINE
  5
5CB
100
AcDbEntity
  8
0
  6
CONTINUOUS
 62
     7
100
AcDbLine
 10
86.034164
 20
21.055738
 30
0.0
 11
86.444164
 21
21.055738
 31
0.0
  0
LINE
  5
5CC
100
AcDbEntity
  8
0
  6
CONTINUOUS
 62
     7
100
AcDbLine
 10
82.224164
 20
21.055738
 30
0.0
 11
82.634164
 21
21.055738
 31
0.0
  0
LINE
  5
5CD
100
AcDbEntity
  8
0
  6
CONTINUOUS
 62
     7
100
AcDbLine
 10
95.564164
 20
21.055738
 30
0.0
 11
93.654164
 21
21.055738
 31
0.0
  0
LINE
  5
5CE
100
AcDbEntity
  8
0
  6
CONTINUOUS
 62
     7
100
AcDbLine
 10
89.844164
 20
21.055738
 30
0.0
 11
90.254164
 21
21.055738
 31
0.0
  0
LINE
  5
5CF
100
AcDbEntity
  8
0
  6
CONTINUOUS
 62
     7
100
AcDbLine
 10
85.964164
 20
21.101592
 30
0.0
 11
83.114164
 21
21.101592
 31
0.0
  0
LINE
  5
5D0
100
AcDbEntity
  8
0
  6
CONTINUOUS
 62
     7
100
AcDbLine
 10
82.154164
 20
21.101592
 30
0.0
 11
79.304164
 21
21.101592
 31
0.0
  0
LINE
  5
5D1
100
AcDbEntity
  8
0
  6
CONTINUOUS
 62
     7
100
AcDbLine
 10
89.774164
 20
21.101592
 30
0.0
 11
86.924164
 21
21.101592
 31
0.0
  0
LINE
  5
5D2
100
AcDbEntity
  8
0
  6
CONTINUOUS
 62
     7
100
AcDbLine
 10
93.584164
 20
21.101592
 30
0.0
 11
90.734164
 21
21.101592
 31
0.0
  0
LINE
  5
5D3
100
AcDbEntity
  8
0
  6
CONTINUOUS
 62
     7
100
AcDbLine
 10
95.564164
 20
22.082245
 30
0.0
 11
78.824164
 21
22.082245
 31
0.0
  0
LINE
  5
5D4
100
AcDbEntity
  8
0
  6
CONTINUOUS
 62
     7
100
AcDbLine
 10
85.964164
 20
22.003433
 30
0.0
 11
83.114164
 21
22.003433
 31
0.0
  0
LINE
  5
5D5
100
AcDbEntity
  8
0
  6
CONTINUOUS
 62
     7
100
AcDbLine
 10
82.154164
 20
22.003433
 30
0.0
 11
79.304164
 21
22.003433
 31
0.0
  0
LINE
  5
5D6
100
AcDbEntity
  8
0
  6
CONTINUOUS
 62
     7
100
AcDbLine
 10
89.774164
 20
22.003433
 30
0.0
 11
86.924164
 21
22.003433
 31
0.0
  0
LINE
  5
5D7
100
AcDbEntity
  8
0
  6
CONTINUOUS
 62
     7
100
AcDbLine
 10
93.584164
 20
22.003433
 30
0.0
 11
90.734164
 21
22.003433
 31
0.0
  0
LINE
  5
5D8
100
AcDbEntity
  8
0
  6
CONTINUOUS
 62
     7
100
AcDbLine
 10
93.654164
 20
18.112645
 30
0.0
 11
93.654164
 21
21.055738
 31
0.0
  0
LINE
  5
5D9
100
AcDbEntity
  8
0
  6
CONTINUOUS
 62
     7
100
AcDbLine
 10
95.564164
 20
17.882245
 30
0.0
 11
95.564164
 21
22.082245
 31
0.0
  0
LINE
  5
5DA
100
AcDbEntity
  8
0
  6
CONTINUOUS
 62
     7
100
AcDbLine
 10
78.824164
 20
22.082245
 30
0.0
 11
78.824164
 21
17.882245
 31
0.0
  0
LINE
  5
5DB
100
AcDbEntity
  8
0
  6
CONTINUOUS
 62
     7
100
AcDbLine
 10
82.224164
 20
18.112645
 30
0.0
 11
82.224164
 21
21.055738
 31
0.0
  0
LINE
  5
5DC
100
AcDbEntity
  8
0
  6
CONTINUOUS
 62
     7
100
AcDbLine
 10
82.634164
 20
18.082245
 30
0.0
 11
82.634164
 21
21.055738
 31
0.0
  0
LINE
  5
5DD
100
AcDbEntity
  8
0
  6
CONTINUOUS
 62
     7
100
AcDbLine
 10
86.034164
 20
18.112645
 30
0.0
 11
86.034164
 21
21.055738
 31
0.0
  0
LINE
  5
5DE
100
AcDbEntity
  8
0
  6
CONTINUOUS
 62
     7
100
AcDbLine
 10
86.444164
 20
18.082245
 30
0.0
 11
86.444164
 21
21.055738
 31
0.0
  0
LINE
  5
5DF
100
AcDbEntity
  8
0
  6
CONTINUOUS
 62
     7
100
AcDbLine
 10
89.844164
 20
18.112645
 30
0.0
 11
89.844164
 21
21.055738
 31
0.0
  0
LINE
  5
5E0
100
AcDbEntity
  8
0
  6
CONTINUOUS
 62
     7
100
AcDbLine
 10
90.254164
 20
18.082245
 30
0.0
 11
90.254164
 21
21.055738
 31
0.0
  0
LINE
  5
5E1
100
AcDbEntity
  8
0
  6
CONTINUOUS
 62
     7
100
AcDbLine
 10
79.224164
 20
20.50773
 30
0.0
 11
82.224164
 21
20.50773
 31
0.0
  0
LINE
  5
5E2
100
AcDbEntity
  8
0
  6
CONTINUOUS
 62
     7
100
AcDbLine
 10
83.034164
 20
20.50773
 30
0.0
 11
86.034164
 21
20.50773
 31
0.0
  0
LINE
  5
5E3
100
AcDbEntity
  8
0
  6
CONTINUOUS
 62
     7
100
AcDbLine
 10
86.844164
 20
20.50773
 30
0.0
 11
89.844164
 21
20.50773
 31
0.0
  0
LINE
  5
5E4
100
AcDbEntity
  8
0
  6
CONTINUOUS
 62
     7
100
AcDbLine
 10
90.654164
 20
20.50773
 30
0.0
 11
93.654164
 21
20.50773
 31
0.0
  0
LINE
  5
5E5
100
AcDbEntity
  8
0
  6
CONTINUOUS
 62
     7
100
AcDbLine
 10
83.114164
 20
20.878961
 30
0.0
 11
83.114164
 21
22.003433
 31
0.0
  0
LINE
  5
5E6
100
AcDbEntity
  8
0
  6
CONTINUOUS
 62
     7
100
AcDbLine
 10
85.964164
 20
20.878961
 30
0.0
 11
85.964164
 21
22.003433
 31
0.0
  0
LINE
  5
5E7
100
AcDbEntity
  8
0
  6
CONTINUOUS
 62
     7
100
AcDbLine
 10
79.304164
 20
20.878961
 30
0.0
 11
79.304164
 21
22.003433
 31
0.0
  0
LINE
  5
5E8
100
AcDbEntity
  8
0
  6
CONTINUOUS
 62
     7
100
AcDbLine
 10
82.154164
 20
20.878961
 30
0.0
 11
82.154164
 21
22.003433
 31
0.0
  0
LINE
  5
5E9
100
AcDbEntity
  8
0
  6
CONTINUOUS
 62
     7
100
AcDbLine
 10
86.924164
 20
20.878961
 30
0.0
 11
86.924164
 21
22.003433
 31
0.0
  0
LINE
  5
5EA
100
AcDbEntity
  8
0
  6
CONTINUOUS
 62
     7
100
AcDbLine
 10
89.774164
 20
20.878961
 30
0.0
 11
89.774164
 21
22.003433
 31
0.0
  0
LINE
  5
5EB
100
AcDbEntity
  8
0
  6
CONTINUOUS
 62
     7
100
AcDbLine
 10
90.734164
 20
20.878961
 30
0.0
 11
90.734164
 21
22.003433
 31
0.0
  0
LINE
  5
5EC
100
AcDbEntity
  8
0
  6
CONTINUOUS
 62
     7
100
AcDbLine
 10
93.584164
 20
20.878961
 30
0.0
 11
93.584164
 21
22.003433
 31
0.0
  0
LINE
  5
5ED
100
AcDbEntity
  8
\U+53F3\U+5074\U+9762\U+56F3_\U+4F5C\U+56F3
  6
CONTINUOUS
100
AcDbLine
 10
86.034164
 20
18.112645
 30
0.0
 11
86.034164
 21
17.882245
 31
0.0
  0
LINE
  5
5EE
100
AcDbEntity
  8
\U+53F3\U+5074\U+9762\U+56F3_\U+4F5C\U+56F3
  6
CONTINUOUS
100
AcDbLine
 10
83.034164
 20
18.244989
 30
0.0
 11
83.034164
 21
17.882245
 31
0.0
  0
LINE
  5
5EF
100
AcDbEntity
  8
\U+53F3\U+5074\U+9762\U+56F3_\U+4F5C\U+56F3
  6
CONTINUOUS
100
AcDbLine
 10
79.224164
 20
18.244989
 30
0.0
 11
79.224164
 21
17.882245
 31
0.0
  0
LINE
  5
5F0
100
AcDbEntity
  8
\U+53F3\U+5074\U+9762\U+56F3_\U+4F5C\U+56F3
  6
CONTINUOUS
100
AcDbLine
 10
82.224164
 20
18.112645
 30
0.0
 11
82.224164
 21
17.882245
 31
0.0
  0
LINE
  5
5F1
100
AcDbEntity
  8
\U+53F3\U+5074\U+9762\U+56F3_\U+4F5C\U+56F3
  6
CONTINUOUS
100
AcDbLine
 10
93.654164
 20
18.112645
 30
0.0
 11
93.654164
 21
17.882245
 31
0.0
  0
LINE
  5
5F2
100
AcDbEntity
  8
\U+53F3\U+5074\U+9762\U+56F3_\U+4F5C\U+56F3
  6
CONTINUOUS
100
AcDbLine
 10
90.654164
 20
18.244989
 30
0.0
 11
90.654164
 21
17.882245
 31
0.0
  0
LINE
  5
5F3
100
AcDbEntity
  8
\U+53F3\U+5074\U+9762\U+56F3_\U+4F5C\U+56F3
  6
CONTINUOUS
100
AcDbLine
 10
89.844164
 20
18.112645
 30
0.0
 11
89.844164
 21
17.882245
 31
0.0
  0
LINE
  5
5F4
100
AcDbEntity
  8
\U+53F3\U+5074\U+9762\U+56F3_\U+4F5C\U+56F3
  6
CONTINUOUS
100
AcDbLine
 10
86.844164
 20
18.244989
 30
0.0
 11
86.844164
 21
17.882245
 31
0.0
  0
LINE
  5
5F5
100
AcDbEntity
  8
\U+53F3\U+5074\U+9762\U+56F3_\U+4F5C\U+56F3
  6
CONTINUOUS
100
AcDbLine
 10
85.964164
 20
20.742773
 30
0.0
 11
83.114164
 21
20.742773
 31
0.0
  0
LINE
  5
5F6
100
AcDbEntity
  8
\U+53F3\U+5074\U+9762\U+56F3_\U+4F5C\U+56F3
  6
CONTINUOUS
100
AcDbLine
 10
82.154164
 20
20.742773
 30
0.0
 11
79.304164
 21
20.742773
 31
0.0
  0
LINE
  5
5F7
100
AcDbEntity
  8
\U+53F3\U+5074\U+9762\U+56F3_\U+4F5C\U+56F3
  6
CONTINUOUS
100
AcDbLine
 10
89.774164
 20
20.742773
 30
0.0
 11
86.924164
 21
20.742773
 31
0.0
  0
LINE
  5
5F8
100
AcDbEntity
  8
\U+53F3\U+5074\U+9762\U+56F3_\U+4F5C\U+56F3
  6
CONTINUOUS
100
AcDbLine
 10
93.584164
 20
20.742773
 30
0.0
 11
90.734164
 21
20.742773
 31
0.0
  0
LINE
  5
5F9
100
AcDbEntity
  8
\U+53F3\U+5074\U+9762\U+56F3_\U+4F5C\U+56F3
  6
CONTINUOUS
100
AcDbLine
 10
93.584164
 20
21.762845
 30
0.0
 11
90.734164
 21
21.762845
 31
0.0
  0
LINE
  5
5FA
100
AcDbEntity
  8
\U+53F3\U+5074\U+9762\U+56F3_\U+4F5C\U+56F3
  6
CONTINUOUS
100
AcDbLine
 10
89.774164
 20
21.762845
 30
0.0
 11
86.924164
 21
21.762845
 31
0.0
  0
LINE
  5
5FB
100
AcDbEntity
  8
\U+53F3\U+5074\U+9762\U+56F3_\U+4F5C\U+56F3
  6
CONTINUOUS
100
AcDbLine
 10
85.964164
 20
21.762845
 30
0.0
 11
83.114164
 21
21.762845
 31
0.0
  0
LINE
  5
5FC
100
AcDbEntity
  8
\U+53F3\U+5074\U+9762\U+56F3_\U+4F5C\U+56F3
  6
CONTINUOUS
100
AcDbLine
 10
82.154164
 20
21.762845
 30
0.0
 11
79.304164
 21
21.762845
 31
0.0
  0
LINE
  5
5FD
100
AcDbEntity
  8
\U+53F3\U+5074\U+9762\U+56F3_\U+4F5C\U+56F3
  6
CONTINUOUS
100
AcDbLine
 10
78.824164
 20
20.560763
 30
0.0
 11
79.304164
 21
20.560763
 31
0.0
  0
LINE
  5
5FE
100
AcDbEntity
  8
\U+53F3\U+5074\U+9762\U+56F3_\U+4F5C\U+56F3
  6
CONTINUOUS
100
AcDbLine
 10
82.154164
 20
20.560763
 30
0.0
 11
83.114164
 21
20.560763
 31
0.0
  0
LINE
  5
5FF
100
AcDbEntity
  8
\U+53F3\U+5074\U+9762\U+56F3_\U+4F5C\U+56F3
  6
CONTINUOUS
100
AcDbLine
 10
85.964164
 20
20.560763
 30
0.0
 11
86.924164
 21
20.560763
 31
0.0
  0
LINE
  5
600
100
AcDbEntity
  8
\U+53F3\U+5074\U+9762\U+56F3_\U+4F5C\U+56F3
  6
CONTINUOUS
100
AcDbLine
 10
89.774164
 20
20.560763
 30
0.0
 11
90.734164
 21
20.560763
 31
0.0
  0
LINE
  5
601
100
AcDbEntity
  8
\U+53F3\U+5074\U+9762\U+56F3_\U+4F5C\U+56F3
  6
CONTINUOUS
100
AcDbLine
 10
89.774164
 20
20.560763
 30
0.0
 11
90.734164
 21
20.560763
 31
0.0
  0
LINE
  5
602
100
AcDbEntity
  8
\U+53F3\U+5074\U+9762\U+56F3_\U+4F5C\U+56F3
  6
CONTINUOUS
100
AcDbLine
 10
93.584164
 20
20.560763
 30
0.0
 11
95.564164
 21
20.560763
 31
0.0
  0
LINE
  5
603
100
AcDbEntity
  8
\U+53F3\U+5074\U+9762\U+56F3_\U+4F5C\U+56F3
  6
CONTINUOUS
100
AcDbLine
 10
79.304164
 20
20.862542
 30
0.0
 11
82.154164
 21
20.862542
 31
0.0
  0
LINE
  5
604
100
AcDbEntity
  8
\U+53F3\U+5074\U+9762\U+56F3_\U+4F5C\U+56F3
  6
CONTINUOUS
100
AcDbLine
 10
83.114164
 20
20.862542
 30
0.0
 11
85.964164
 21
20.862542
 31
0.0
  0
LINE
  5
605
100
AcDbEntity
  8
\U+53F3\U+5074\U+9762\U+56F3_\U+4F5C\U+56F3
  6
CONTINUOUS
100
AcDbLine
 10
90.734164
 20
20.862542
 30
0.0
 11
93.584164
 21
20.862542
 31
0.0
  0
LINE
  5
606
100
AcDbEntity
  8
\U+53F3\U+5074\U+9762\U+56F3_\U+4F5C\U+56F3
  6
CONTINUOUS
100
AcDbLine
 10
86.924164
 20
20.862542
 30
0.0
 11
89.774164
 21
20.862542
 31
0.0
  0
LINE
  5
607
100
AcDbEntity
  8
\U+53F3\U+5074\U+9762\U+56F3_\U+4F5C\U+56F3
  6
CONTINUOUS
100
AcDbLine
 10
78.824164
 20
20.382245
 30
0.0
 11
95.564164
 21
20.382245
 31
0.0
  0
LINE
  5
608
100
AcDbEntity
  8
\U+53F3\U+5074\U+9762\U+56F3_\U+4F5C\U+56F3
  6
CONTINUOUS
100
AcDbLine
 10
78.824164
 20
18.082245
 30
0.0
 11
95.564164
 21
18.082245
 31
0.0
  0
LINE
  5
609
100
AcDbEntity
  8
\U+53F3\U+5074\U+9762\U+56F3_\U+4F5C\U+56F3
  6
CONTINUOUS
100
AcDbLine
 10
82.154164
 20
20.560763
 30
0.0
 11
82.154164
 21
20.878961
 31
0.0
  0
LINE
  5
60A
100
AcDbEntity
  8
\U+53F3\U+5074\U+9762\U+56F3_\U+4F5C\U+56F3
  6
CONTINUOUS
100
AcDbLine
 10
83.114164
 20
20.560763
 30
0.0
 11
83.114164
 21
20.878961
 31
0.0
  0
LINE
  5
60B
100
AcDbEntity
  8
\U+53F3\U+5074\U+9762\U+56F3_\U+4F5C\U+56F3
  6
CONTINUOUS
100
AcDbLine
 10
85.964164
 20
20.560763
 30
0.0
 11
85.964164
 21
20.878961
 31
0.0
  0
LINE
  5
60C
100
AcDbEntity
  8
\U+53F3\U+5074\U+9762\U+56F3_\U+4F5C\U+56F3
  6
CONTINUOUS
100
AcDbLine
 10
79.304164
 20
20.560763
 30
0.0
 11
79.304164
 21
20.878961
 31
0.0
  0
LINE
  5
60D
100
AcDbEntity
  8
\U+53F3\U+5074\U+9762\U+56F3_\U+4F5C\U+56F3
  6
CONTINUOUS
100
AcDbLine
 10
86.924164
 20
20.560763
 30
0.0
 11
86.924164
 21
20.878961
 31
0.0
  0
LINE
  5
60E
100
AcDbEntity
  8
\U+53F3\U+5074\U+9762\U+56F3_\U+4F5C\U+56F3
  6
CONTINUOUS
100
AcDbLine
 10
89.774164
 20
20.560763
 30
0.0
 11
89.774164
 21
20.878961
 31
0.0
  0
LINE
  5
60F
100
AcDbEntity
  8
\U+53F3\U+5074\U+9762\U+56F3_\U+4F5C\U+56F3
  6
CONTINUOUS
100
AcDbLine
 10
90.734164
 20
20.560763
 30
0.0
 11
90.734164
 21
20.878961
 31
0.0
  0
LINE
  5
610
100
AcDbEntity
  8
\U+53F3\U+5074\U+9762\U+56F3_\U+4F5C\U+56F3
  6
CONTINUOUS
100
AcDbLine
 10
93.584164
 20
20.560763
 30
0.0
 11
93.584164
 21
20.878961
 31
0.0
  0
LINE
  5
611
100
AcDbEntity
  8
0
  6
CONTINUOUS
 62
     7
100
AcDbLine
 10
112.564164
 20
18.466198
 30
0.0
 11
110.654164
 21
18.466198
 31
0.0
  0
LINE
  5
612
100
AcDbEntity
  8
0
  6
CONTINUOUS
 62
     7
100
AcDbLine
 10
99.634164
 20
18.466198
 30
0.0
 11
99.224164
 21
18.466198
 31
0.0
  0
LINE
  5
613
100
AcDbEntity
  8
0
  6
CONTINUOUS
 62
     7
100
AcDbLine
 10
103.444164
 20
18.466198
 30
0.0
 11
103.034164
 21
18.466198
 31
0.0
  0
LINE
  5
614
100
AcDbEntity
  8
0
  6
CONTINUOUS
 62
     7
100
AcDbLine
 10
107.254164
 20
18.466198
 30
0.0
 11
106.844164
 21
18.466198
 31
0.0
  0
LINE
  5
615
100
AcDbEntity
  8
0
  6
CONTINUOUS
 62
     7
100
AcDbLine
 10
96.224164
 20
18.244989
 30
0.0
 11
96.224164
 21
20.50773
 31
0.0
  0
LINE
  5
616
100
AcDbEntity
  8
0
  6
CONTINUOUS
 62
     7
100
AcDbLine
 10
100.034164
 20
18.244989
 30
0.0
 11
100.034164
 21
20.50773
 31
0.0
  0
LINE
  5
617
100
AcDbEntity
  8
0
  6
CONTINUOUS
 62
     7
100
AcDbLine
 10
103.844164
 20
18.244989
 30
0.0
 11
103.844164
 21
20.50773
 31
0.0
  0
LINE
  5
618
100
AcDbEntity
  8
0
  6
CONTINUOUS
 62
     7
100
AcDbLine
 10
107.654164
 20
18.244989
 30
0.0
 11
107.654164
 21
20.50773
 31
0.0
  0
LINE
  5
619
100
AcDbEntity
  8
0
  6
CONTINUOUS
 62
     7
100
AcDbLine
 10
103.034164
 20
21.055738
 30
0.0
 11
103.444164
 21
21.055738
 31
0.0
  0
LINE
  5
61A
100
AcDbEntity
  8
0
  6
CONTINUOUS
 62
     7
100
AcDbLine
 10
99.224164
 20
21.055738
 30
0.0
 11
99.634164
 21
21.055738
 31
0.0
  0
LINE
  5
61B
100
AcDbEntity
  8
0
  6
CONTINUOUS
 62
     7
100
AcDbLine
 10
112.564164
 20
21.055738
 30
0.0
 11
110.654164
 21
21.055738
 31
0.0
  0
LINE
  5
61C
100
AcDbEntity
  8
0
  6
CONTINUOUS
 62
     7
100
AcDbLine
 10
106.844164
 20
21.055738
 30
0.0
 11
107.254164
 21
21.055738
 31
0.0
  0
LINE
  5
61D
100
AcDbEntity
  8
0
  6
CONTINUOUS
 62
     7
100
AcDbLine
 10
102.964164
 20
21.101592
 30
0.0
 11
100.114164
 21
21.101592
 31
0.0
  0
LINE
  5
61E
100
AcDbEntity
  8
0
  6
CONTINUOUS
 62
     7
100
AcDbLine
 10
99.154164
 20
21.101592
 30
0.0
 11
96.304164
 21
21.101592
 31
0.0
  0
LINE
  5
61F
100
AcDbEntity
  8
0
  6
CONTINUOUS
 62
     7
100
AcDbLine
 10
106.774164
 20
21.101592
 30
0.0
 11
103.924164
 21
21.101592
 31
0.0
  0
LINE
  5
620
100
AcDbEntity
  8
0
  6
CONTINUOUS
 62
     7
100
AcDbLine
 10
110.584164
 20
21.101592
 30
0.0
 11
107.734164
 21
21.101592
 31
0.0
  0
LINE
  5
621
100
AcDbEntity
  8
0
  6
CONTINUOUS
 62
     7
100
AcDbLine
 10
112.564164
 20
22.082245
 30
0.0
 11
95.824164
 21
22.082245
 31
0.0
  0
LINE
  5
622
100
AcDbEntity
  8
0
  6
CONTINUOUS
 62
     7
100
AcDbLine
 10
102.964164
 20
22.003433
 30
0.0
 11
100.114164
 21
22.003433
 31
0.0
  0
LINE
  5
623
100
AcDbEntity
  8
0
  6
CONTINUOUS
 62
     7
100
AcDbLine
 10
99.154164
 20
22.003433
 30
0.0
 11
96.304164
 21
22.003433
 31
0.0
  0
LINE
  5
624
100
AcDbEntity
  8
0
  6
CONTINUOUS
 62
     7
100
AcDbLine
 10
106.774164
 20
22.003433
 30
0.0
 11
103.924164
 21
22.003433
 31
0.0
  0
LINE
  5
625
100
AcDbEntity
  8
0
  6
CONTINUOUS
 62
     7
100
AcDbLine
 10
110.584164
 20
22.003433
 30
0.0
 11
107.734164
 21
22.003433
 31
0.0
  0
LINE
  5
626
100
AcDbEntity
  8
0
  6
CONTINUOUS
 62
     7
100
AcDbLine
 10
110.654164
 20
18.112645
 30
0.0
 11
110.654164
 21
21.055738
 31
0.0
  0
LINE
  5
627
100
AcDbEntity
  8
0
  6
CONTINUOUS
 62
     7
100
AcDbLine
 10
112.564164
 20
17.882245
 30
0.0
 11
112.564164
 21
22.082245
 31
0.0
  0
LINE
  5
628
100
AcDbEntity
  8
0
  6
CONTINUOUS
 62
     7
100
AcDbLine
 10
95.824164
 20
22.082245
 30
0.0
 11
95.824164
 21
17.882245
 31
0.0
  0
LINE
  5
629
100
AcDbEntity
  8
0
  6
CONTINUOUS
 62
     7
100
AcDbLine
 10
99.224164
 20
18.112645
 30
0.0
 11
99.224164
 21
21.055738
 31
0.0
  0
LINE
  5
62A
100
AcDbEntity
  8
0
  6
CONTINUOUS
 62
     7
100
AcDbLine
 10
99.634164
 20
18.082245
 30
0.0
 11
99.634164
 21
21.055738
 31
0.0
  0
LINE
  5
62B
100
AcDbEntity
  8
0
  6
CONTINUOUS
 62
     7
100
AcDbLine
 10
103.034164
 20
18.112645
 30
0.0
 11
103.034164
 21
21.055738
 31
0.0
  0
LINE
  5
62C
100
AcDbEntity
  8
0
  6
CONTINUOUS
 62
     7
100
AcDbLine
 10
103.444164
 20
18.082245
 30
0.0
 11
103.444164
 21
21.055738
 31
0.0
  0
LINE
  5
62D
100
AcDbEntity
  8
0
  6
CONTINUOUS
 62
     7
100
AcDbLine
 10
106.844164
 20
18.112645
 30
0.0
 11
106.844164
 21
21.055738
 31
0.0
  0
LINE
  5
62E
100
AcDbEntity
  8
0
  6
CONTINUOUS
 62
     7
100
AcDbLine
 10
107.254164
 20
18.082245
 30
0.0
 11
107.254164
 21
21.055738
 31
0.0
  0
LINE
  5
62F
100
AcDbEntity
  8
0
  6
CONTINUOUS
 62
     7
100
AcDbLine
 10
96.224164
 20
20.50773
 30
0.0
 11
99.224164
 21
20.50773
 31
0.0
  0
LINE
  5
630
100
AcDbEntity
  8
0
  6
CONTINUOUS
 62
     7
100
AcDbLine
 10
100.034164
 20
20.50773
 30
0.0
 11
103.034164
 21
20.50773
 31
0.0
  0
LINE
  5
631
100
AcDbEntity
  8
0
  6
CONTINUOUS
 62
     7
100
AcDbLine
 10
103.844164
 20
20.50773
 30
0.0
 11
106.844164
 21
20.50773
 31
0.0
  0
LINE
  5
632
100
AcDbEntity
  8
0
  6
CONTINUOUS
 62
     7
100
AcDbLine
 10
107.654164
 20
20.50773
 30
0.0
 11
110.654164
 21
20.50773
 31
0.0
  0
LINE
  5
633
100
AcDbEntity
  8
0
  6
CONTINUOUS
 62
     7
100
AcDbLine
 10
100.114164
 20
20.878961
 30
0.0
 11
100.114164
 21
22.003433
 31
0.0
  0
LINE
  5
634
100
AcDbEntity
  8
0
  6
CONTINUOUS
 62
     7
100
AcDbLine
 10
102.964164
 20
20.878961
 30
0.0
 11
102.964164
 21
22.003433
 31
0.0
  0
LINE
  5
635
100
AcDbEntity
  8
0
  6
CONTINUOUS
 62
     7
100
AcDbLine
 10
96.304164
 20
20.878961
 30
0.0
 11
96.304164
 21
22.003433
 31
0.0
  0
LINE
  5
636
100
AcDbEntity
  8
0
  6
CONTINUOUS
 62
     7
100
AcDbLine
 10
99.154164
 20
20.878961
 30
0.0
 11
99.154164
 21
22.003433
 31
0.0
  0
LINE
  5
637
100
AcDbEntity
  8
0
  6
CONTINUOUS
 62
     7
100
AcDbLine
 10
103.924164
 20
20.878961
 30
0.0
 11
103.924164
 21
22.003433
 31
0.0
  0
LINE
  5
638
100
AcDbEntity
  8
0
  6
CONTINUOUS
 62
     7
100
AcDbLine
 10
106.774164
 20
20.878961
 30
0.0
 11
106.774164
 21
22.003433
 31
0.0
  0
LINE
  5
639
100
AcDbEntity
  8
0
  6
CONTINUOUS
 62
     7
100
AcDbLine
 10
107.734164
 20
20.878961
 30
0.0
 11
107.734164
 21
22.003433
 31
0.0
  0
LINE
  5
63A
100
AcDbEntity
  8
0
  6
CONTINUOUS
 62
     7
100
AcDbLine
 10
110.584164
 20
20.878961
 30
0.0
 11
110.584164
 21
22.003433
 31
0.0
  0
LINE
  5
63B
100
AcDbEntity
  8
\U+53F3\U+5074\U+9762\U+56F3_\U+4F5C\U+56F3
  6
CONTINUOUS
100
AcDbLine
 10
103.034164
 20
18.112645
 30
0.0
 11
103.034164
 21
17.882245
 31
0.0
  0
LINE
  5
63C
100
AcDbEntity
  8
\U+53F3\U+5074\U+9762\U+56F3_\U+4F5C\U+56F3
  6
CONTINUOUS
100
AcDbLine
 10
100.034164
 20
18.244989
 30
0.0
 11
100.034164
 21
17.882245
 31
0.0
  0
LINE
  5
63D
100
AcDbEntity
  8
\U+53F3\U+5074\U+9762\U+56F3_\U+4F5C\U+56F3
  6
CONTINUOUS
100
AcDbLine
 10
96.224164
 20
18.244989
 30
0.0
 11
96.224164
 21
17.882245
 31
0.0
  0
LINE
  5
63E
100
AcDbEntity
  8
\U+53F3\U+5074\U+9762\U+56F3_\U+4F5C\U+56F3
  6
CONTINUOUS
100
AcDbLine
 10
99.224164
 20
18.112645
 30
0.0
 11
99.224164
 21
17.882245
 31
0.0
  0
LINE
  5
63F
100
AcDbEntity
  8
\U+53F3\U+5074\U+9762\U+56F3_\U+4F5C\U+56F3
  6
CONTINUOUS
100
AcDbLine
 10
110.654164
 20
18.112645
 30
0.0
 11
110.654164
 21
17.882245
 31
0.0
  0
LINE
  5
640
100
AcDbEntity
  8
\U+53F3\U+5074\U+9762\U+56F3_\U+4F5C\U+56F3
  6
CONTINUOUS
100
AcDbLine
 10
107.654164
 20
18.244989
 30
0.0
 11
107.654164
 21
17.882245
 31
0.0
  0
LINE
  5
641
100
AcDbEntity
  8
\U+53F3\U+5074\U+9762\U+56F3_\U+4F5C\U+56F3
  6
CONTINUOUS
100
AcDbLine
 10
106.844164
 20
18.112645
 30
0.0
 11
106.844164
 21
17.882245
 31
0.0
  0
LINE
  5
642
100
AcDbEntity
  8
\U+53F3\U+5074\U+9762\U+56F3_\U+4F5C\U+56F3
  6
CONTINUOUS
100
AcDbLine
 10
103.844164
 20
18.244989
 30
0.0
 11
103.844164
 21
17.882245
 31
0.0
  0
LINE
  5
643
100
AcDbEntity
  8
\U+53F3\U+5074\U+9762\U+56F3_\U+4F5C\U+56F3
  6
CONTINUOUS
100
AcDbLine
 10
102.964164
 20
20.742773
 30
0.0
 11
100.114164
 21
20.742773
 31
0.0
  0
LINE
  5
644
100
AcDbEntity
  8
\U+53F3\U+5074\U+9762\U+56F3_\U+4F5C\U+56F3
  6
CONTINUOUS
100
AcDbLine
 10
99.154164
 20
20.742773
 30
0.0
 11
96.304164
 21
20.742773
 31
0.0
  0
LINE
  5
645
100
AcDbEntity
  8
\U+53F3\U+5074\U+9762\U+56F3_\U+4F5C\U+56F3
  6
CONTINUOUS
100
AcDbLine
 10
106.774164
 20
20.742773
 30
0.0
 11
103.924164
 21
20.742773
 31
0.0
  0
LINE
  5
646
100
AcDbEntity
  8
\U+53F3\U+5074\U+9762\U+56F3_\U+4F5C\U+56F3
  6
CONTINUOUS
100
AcDbLine
 10
110.584164
 20
20.742773
 30
0.0
 11
107.734164
 21
20.742773
 31
0.0
  0
LINE
  5
647
100
AcDbEntity
  8
\U+53F3\U+5074\U+9762\U+56F3_\U+4F5C\U+56F3
  6
CONTINUOUS
100
AcDbLine
 10
110.584164
 20
21.762845
 30
0.0
 11
107.734164
 21
21.762845
 31
0.0
  0
LINE
  5
648
100
AcDbEntity
  8
\U+53F3\U+5074\U+9762\U+56F3_\U+4F5C\U+56F3
  6
CONTINUOUS
100
AcDbLine
 10
106.774164
 20
21.762845
 30
0.0
 11
103.924164
 21
21.762845
 31
0.0
  0
LINE
  5
649
100
AcDbEntity
  8
\U+53F3\U+5074\U+9762\U+56F3_\U+4F5C\U+56F3
  6
CONTINUOUS
100
AcDbLine
 10
102.964164
 20
21.762845
 30
0.0
 11
100.114164
 21
21.762845
 31
0.0
  0
LINE
  5
64A
100
AcDbEntity
  8
\U+53F3\U+5074\U+9762\U+56F3_\U+4F5C\U+56F3
  6
CONTINUOUS
100
AcDbLine
 10
99.154164
 20
21.762845
 30
0.0
 11
96.304164
 21
21.762845
 31
0.0
  0
LINE
  5
64B
100
AcDbEntity
  8
\U+53F3\U+5074\U+9762\U+56F3_\U+4F5C\U+56F3
  6
CONTINUOUS
100
AcDbLine
 10
95.824164
 20
20.560763
 30
0.0
 11
96.304164
 21
20.560763
 31
0.0
  0
LINE
  5
64C
100
AcDbEntity
  8
\U+53F3\U+5074\U+9762\U+56F3_\U+4F5C\U+56F3
  6
CONTINUOUS
100
AcDbLine
 10
99.154164
 20
20.560763
 30
0.0
 11
100.114164
 21
20.560763
 31
0.0
  0
LINE
  5
64D
100
AcDbEntity
  8
\U+53F3\U+5074\U+9762\U+56F3_\U+4F5C\U+56F3
  6
CONTINUOUS
100
AcDbLine
 10
102.964164
 20
20.560763
 30
0.0
 11
103.924164
 21
20.560763
 31
0.0
  0
LINE
  5
64E
100
AcDbEntity
  8
\U+53F3\U+5074\U+9762\U+56F3_\U+4F5C\U+56F3
  6
CONTINUOUS
100
AcDbLine
 10
106.774164
 20
20.560763
 30
0.0
 11
107.734164
 21
20.560763
 31
0.0
  0
LINE
  5
64F
100
AcDbEntity
  8
\U+53F3\U+5074\U+9762\U+56F3_\U+4F5C\U+56F3
  6
CONTINUOUS
100
AcDbLine
 10
106.774164
 20
20.560763
 30
0.0
 11
107.734164
 21
20.560763
 31
0.0
  0
LINE
  5
650
100
AcDbEntity
  8
\U+53F3\U+5074\U+9762\U+56F3_\U+4F5C\U+56F3
  6
CONTINUOUS
100
AcDbLine
 10
110.584164
 20
20.560763
 30
0.0
 11
112.564164
 21
20.560763
 31
0.0
  0
LINE
  5
651
100
AcDbEntity
  8
\U+53F3\U+5074\U+9762\U+56F3_\U+4F5C\U+56F3
  6
CONTINUOUS
100
AcDbLine
 10
96.304164
 20
20.862542
 30
0.0
 11
99.154164
 21
20.862542
 31
0.0
  0
LINE
  5
652
100
AcDbEntity
  8
\U+53F3\U+5074\U+9762\U+56F3_\U+4F5C\U+56F3
  6
CONTINUOUS
100
AcDbLine
 10
100.114164
 20
20.862542
 30
0.0
 11
102.964164
 21
20.862542
 31
0.0
  0
LINE
  5
653
100
AcDbEntity
  8
\U+53F3\U+5074\U+9762\U+56F3_\U+4F5C\U+56F3
  6
CONTINUOUS
100
AcDbLine
 10
107.734164
 20
20.862542
 30
0.0
 11
110.584164
 21
20.862542
 31
0.0
  0
LINE
  5
654
100
AcDbEntity
  8
\U+53F3\U+5074\U+9762\U+56F3_\U+4F5C\U+56F3
  6
CONTINUOUS
100
AcDbLine
 10
103.924164
 20
20.862542
 30
0.0
 11
106.774164
 21
20.862542
 31
0.0
  0
LINE
  5
655
100
AcDbEntity
  8
\U+53F3\U+5074\U+9762\U+56F3_\U+4F5C\U+56F3
  6
CONTINUOUS
100
AcDbLine
 10
95.824164
 20
20.382245
 30
0.0
 11
112.564164
 21
20.382245
 31
0.0
  0
LINE
  5
656
100
AcDbEntity
  8
\U+53F3\U+5074\U+9762\U+56F3_\U+4F5C\U+56F3
  6
CONTINUOUS
100
AcDbLine
 10
95.824164
 20
18.082245
 30
0.0
 11
112.564164
 21
18.082245
 31
0.0
  0
LINE
  5
657
100
AcDbEntity
  8
\U+53F3\U+5074\U+9762\U+56F3_\U+4F5C\U+56F3
  6
CONTINUOUS
100
AcDbLine
 10
99.154164
 20
20.560763
 30
0.0
 11
99.154164
 21
20.878961
 31
0.0
  0
LINE
  5
658
100
AcDbEntity
  8
\U+53F3\U+5074\U+9762\U+56F3_\U+4F5C\U+56F3
  6
CONTINUOUS
100
AcDbLine
 10
100.114164
 20
20.560763
 30
0.0
 11
100.114164
 21
20.878961
 31
0.0
  0
LINE
  5
659
100
AcDbEntity
  8
\U+53F3\U+5074\U+9762\U+56F3_\U+4F5C\U+56F3
  6
CONTINUOUS
100
AcDbLine
 10
102.964164
 20
20.560763
 30
0.0
 11
102.964164
 21
20.878961
 31
0.0
  0
LINE
  5
65A
100
AcDbEntity
  8
\U+53F3\U+5074\U+9762\U+56F3_\U+4F5C\U+56F3
  6
CONTINUOUS
100
AcDbLine
 10
96.304164
 20
20.560763
 30
0.0
 11
96.304164
 21
20.878961
 31
0.0
  0
LINE
  5
65B
100
AcDbEntity
  8
\U+53F3\U+5074\U+9762\U+56F3_\U+4F5C\U+56F3
  6
CONTINUOUS
100
AcDbLine
 10
103.924164
 20
20.560763
 30
0.0
 11
103.924164
 21
20.878961
 31
0.0
  0
LINE
  5
65C
100
AcDbEntity
  8
\U+53F3\U+5074\U+9762\U+56F3_\U+4F5C\U+56F3
  6
CONTINUOUS
100
AcDbLine
 10
106.774164
 20
20.560763
 30
0.0
 11
106.774164
 21
20.878961
 31
0.0
  0
LINE
  5
65D
100
AcDbEntity
  8
\U+53F3\U+5074\U+9762\U+56F3_\U+4F5C\U+56F3
  6
CONTINUOUS
100
AcDbLine
 10
107.734164
 20
20.560763
 30
0.0
 11
107.734164
 21
20.878961
 31
0.0
  0
LINE
  5
65E
100
AcDbEntity
  8
\U+53F3\U+5074\U+9762\U+56F3_\U+4F5C\U+56F3
  6
CONTINUOUS
100
AcDbLine
 10
110.584164
 20
20.560763
 30
0.0
 11
110.584164
 21
20.878961
 31
0.0
  0
LINE
  5
65F
100
AcDbEntity
  8
0
  6
CONTINUOUS
 62
     7
100
AcDbLine
 10
129.564164
 20
18.466198
 30
0.0
 11
127.654164
 21
18.466198
 31
0.0
  0
LINE
  5
660
100
AcDbEntity
  8
0
  6
CONTINUOUS
 62
     7
100
AcDbLine
 10
116.634164
 20
18.466198
 30
0.0
 11
116.224164
 21
18.466198
 31
0.0
  0
LINE
  5
661
100
AcDbEntity
  8
0
  6
CONTINUOUS
 62
     7
100
AcDbLine
 10
120.444164
 20
18.466198
 30
0.0
 11
120.034164
 21
18.466198
 31
0.0
  0
LINE
  5
662
100
AcDbEntity
  8
0
  6
CONTINUOUS
 62
     7
100
AcDbLine
 10
124.254164
 20
18.466198
 30
0.0
 11
123.844164
 21
18.466198
 31
0.0
  0
LINE
  5
663
100
AcDbEntity
  8
0
  6
CONTINUOUS
 62
     7
100
AcDbLine
 10
113.224164
 20
18.244989
 30
0.0
 11
113.224164
 21
20.50773
 31
0.0
  0
LINE
  5
664
100
AcDbEntity
  8
0
  6
CONTINUOUS
 62
     7
100
AcDbLine
 10
117.034164
 20
18.244989
 30
0.0
 11
117.034164
 21
20.50773
 31
0.0
  0
LINE
  5
665
100
AcDbEntity
  8
0
  6
CONTINUOUS
 62
     7
100
AcDbLine
 10
120.844164
 20
18.244989
 30
0.0
 11
120.844164
 21
20.50773
 31
0.0
  0
LINE
  5
666
100
AcDbEntity
  8
0
  6
CONTINUOUS
 62
     7
100
AcDbLine
 10
124.654164
 20
18.244989
 30
0.0
 11
124.654164
 21
20.50773
 31
0.0
  0
LINE
  5
667
100
AcDbEntity
  8
0
  6
CONTINUOUS
 62
     7
100
AcDbLine
 10
120.034164
 20
21.055738
 30
0.0
 11
120.444164
 21
21.055738
 31
0.0
  0
LINE
  5
668
100
AcDbEntity
  8
0
  6
CONTINUOUS
 62
     7
100
AcDbLine
 10
116.224164
 20
21.055738
 30
0.0
 11
116.634164
 21
21.055738
 31
0.0
  0
LINE
  5
669
100
AcDbEntity
  8
0
  6
CONTINUOUS
 62
     7
100
AcDbLine
 10
129.564164
 20
21.055738
 30
0.0
 11
127.654164
 21
21.055738
 31
0.0
  0
LINE
  5
66A
100
AcDbEntity
  8
0
  6
CONTINUOUS
 62
     7
100
AcDbLine
 10
123.844164
 20
21.055738
 30
0.0
 11
124.254164
 21
21.055738
 31
0.0
  0
LINE
  5
66B
100
AcDbEntity
  8
0
  6
CONTINUOUS
 62
     7
100
AcDbLine
 10
119.964164
 20
21.101592
 30
0.0
 11
117.114164
 21
21.101592
 31
0.0
  0
LINE
  5
66C
100
AcDbEntity
  8
0
  6
CONTINUOUS
 62
     7
100
AcDbLine
 10
116.154164
 20
21.101592
 30
0.0
 11
113.304164
 21
21.101592
 31
0.0
  0
LINE
  5
66D
100
AcDbEntity
  8
0
  6
CONTINUOUS
 62
     7
100
AcDbLine
 10
123.774164
 20
21.101592
 30
0.0
 11
120.924164
 21
21.101592
 31
0.0
  0
LINE
  5
66E
100
AcDbEntity
  8
0
  6
CONTINUOUS
 62
     7
100
AcDbLine
 10
127.584164
 20
21.101592
 30
0.0
 11
124.734164
 21
21.101592
 31
0.0
  0
LINE
  5
66F
100
AcDbEntity
  8
0
  6
CONTINUOUS
 62
     7
100
AcDbLine
 10
129.564164
 20
22.082245
 30
0.0
 11
112.824164
 21
22.082245
 31
0.0
  0
LINE
  5
670
100
AcDbEntity
  8
0
  6
CONTINUOUS
 62
     7
100
AcDbLine
 10
119.964164
 20
22.003433
 30
0.0
 11
117.114164
 21
22.003433
 31
0.0
  0
LINE
  5
671
100
AcDbEntity
  8
0
  6
CONTINUOUS
 62
     7
100
AcDbLine
 10
116.154164
 20
22.003433
 30
0.0
 11
113.304164
 21
22.003433
 31
0.0
  0
LINE
  5
672
100
AcDbEntity
  8
0
  6
CONTINUOUS
 62
     7
100
AcDbLine
 10
123.774164
 20
22.003433
 30
0.0
 11
120.924164
 21
22.003433
 31
0.0
  0
LINE
  5
673
100
AcDbEntity
  8
0
  6
CONTINUOUS
 62
     7
100
AcDbLine
 10
127.584164
 20
22.003433
 30
0.0
 11
124.734164
 21
22.003433
 31
0.0
  0
LINE
  5
674
100
AcDbEntity
  8
0
  6
CONTINUOUS
 62
     7
100
AcDbLine
 10
127.654164
 20
18.112645
 30
0.0
 11
127.654164
 21
21.055738
 31
0.0
  0
LINE
  5
675
100
AcDbEntity
  8
0
  6
CONTINUOUS
 62
     7
100
AcDbLine
 10
129.564164
 20
17.868348
 30
0.0
 11
129.564164
 21
22.082245
 31
0.0
  0
LINE
  5
676
100
AcDbEntity
  8
0
  6
CONTINUOUS
 62
     7
100
AcDbLine
 10
112.824164
 20
22.082245
 30
0.0
 11
112.824164
 21
17.882245
 31
0.0
  0
LINE
  5
677
100
AcDbEntity
  8
0
  6
CONTINUOUS
 62
     7
100
AcDbLine
 10
116.224164
 20
18.112645
 30
0.0
 11
116.224164
 21
21.055738
 31
0.0
  0
LINE
  5
678
100
AcDbEntity
  8
0
  6
CONTINUOUS
 62
     7
100
AcDbLine
 10
116.634164
 20
18.082245
 30
0.0
 11
116.634164
 21
21.055738
 31
0.0
  0
LINE
  5
679
100
AcDbEntity
  8
0
  6
CONTINUOUS
 62
     7
100
AcDbLine
 10
120.034164
 20
18.112645
 30
0.0
 11
120.034164
 21
21.055738
 31
0.0
  0
LINE
  5
67A
100
AcDbEntity
  8
0
  6
CONTINUOUS
 62
     7
100
AcDbLine
 10
120.444164
 20
18.082245
 30
0.0
 11
120.444164
 21
21.055738
 31
0.0
  0
LINE
  5
67B
100
AcDbEntity
  8
0
  6
CONTINUOUS
 62
     7
100
AcDbLine
 10
123.844164
 20
18.112645
 30
0.0
 11
123.844164
 21
21.055738
 31
0.0
  0
LINE
  5
67C
100
AcDbEntity
  8
0
  6
CONTINUOUS
 62
     7
100
AcDbLine
 10
124.254164
 20
18.082245
 30
0.0
 11
124.254164
 21
21.055738
 31
0.0
  0
LINE
  5
67D
100
AcDbEntity
  8
0
  6
CONTINUOUS
 62
     7
100
AcDbLine
 10
113.224164
 20
20.50773
 30
0.0
 11
116.224164
 21
20.50773
 31
0.0
  0
LINE
  5
67E
100
AcDbEntity
  8
0
  6
CONTINUOUS
 62
     7
100
AcDbLine
 10
117.034164
 20
20.50773
 30
0.0
 11
120.034164
 21
20.50773
 31
0.0
  0
LINE
  5
67F
100
AcDbEntity
  8
0
  6
CONTINUOUS
 62
     7
100
AcDbLine
 10
120.844164
 20
20.50773
 30
0.0
 11
123.844164
 21
20.50773
 31
0.0
  0
LINE
  5
680
100
AcDbEntity
  8
0
  6
CONTINUOUS
 62
     7
100
AcDbLine
 10
124.654164
 20
20.50773
 30
0.0
 11
127.654164
 21
20.50773
 31
0.0
  0
LINE
  5
681
100
AcDbEntity
  8
0
  6
CONTINUOUS
 62
     7
100
AcDbLine
 10
117.114164
 20
20.878961
 30
0.0
 11
117.114164
 21
22.003433
 31
0.0
  0
LINE
  5
682
100
AcDbEntity
  8
0
  6
CONTINUOUS
 62
     7
100
AcDbLine
 10
119.964164
 20
20.878961
 30
0.0
 11
119.964164
 21
22.003433
 31
0.0
  0
LINE
  5
683
100
AcDbEntity
  8
0
  6
CONTINUOUS
 62
     7
100
AcDbLine
 10
113.304164
 20
20.878961
 30
0.0
 11
113.304164
 21
22.003433
 31
0.0
  0
LINE
  5
684
100
AcDbEntity
  8
0
  6
CONTINUOUS
 62
     7
100
AcDbLine
 10
116.154164
 20
20.878961
 30
0.0
 11
116.154164
 21
22.003433
 31
0.0
  0
LINE
  5
685
100
AcDbEntity
  8
0
  6
CONTINUOUS
 62
     7
100
AcDbLine
 10
120.924164
 20
20.878961
 30
0.0
 11
120.924164
 21
22.003433
 31
0.0
  0
LINE
  5
686
100
AcDbEntity
  8
0
  6
CONTINUOUS
 62
     7
100
AcDbLine
 10
123.774164
 20
20.878961
 30
0.0
 11
123.774164
 21
22.003433
 31
0.0
  0
LINE
  5
687
100
AcDbEntity
  8
0
  6
CONTINUOUS
 62
     7
100
AcDbLine
 10
124.734164
 20
20.878961
 30
0.0
 11
124.734164
 21
22.003433
 31
0.0
  0
LINE
  5
688
100
AcDbEntity
  8
0
  6
CONTINUOUS
 62
     7
100
AcDbLine
 10
127.584164
 20
20.878961
 30
0.0
 11
127.584164
 21
22.003433
 31
0.0
  0
LINE
  5
689
100
AcDbEntity
  8
\U+53F3\U+5074\U+9762\U+56F3_\U+4F5C\U+56F3
  6
CONTINUOUS
100
AcDbLine
 10
120.034164
 20
18.112645
 30
0.0
 11
120.034164
 21
17.882245
 31
0.0
  0
LINE
  5
68A
100
AcDbEntity
  8
\U+53F3\U+5074\U+9762\U+56F3_\U+4F5C\U+56F3
  6
CONTINUOUS
100
AcDbLine
 10
117.034164
 20
18.244989
 30
0.0
 11
117.034164
 21
17.882245
 31
0.0
  0
LINE
  5
68B
100
AcDbEntity
  8
\U+53F3\U+5074\U+9762\U+56F3_\U+4F5C\U+56F3
  6
CONTINUOUS
100
AcDbLine
 10
113.224164
 20
18.244989
 30
0.0
 11
113.224164
 21
17.882245
 31
0.0
  0
LINE
  5
68C
100
AcDbEntity
  8
\U+53F3\U+5074\U+9762\U+56F3_\U+4F5C\U+56F3
  6
CONTINUOUS
100
AcDbLine
 10
116.224164
 20
18.112645
 30
0.0
 11
116.224164
 21
17.882245
 31
0.0
  0
LINE
  5
68D
100
AcDbEntity
  8
\U+53F3\U+5074\U+9762\U+56F3_\U+4F5C\U+56F3
  6
CONTINUOUS
100
AcDbLine
 10
127.654164
 20
18.112645
 30
0.0
 11
127.654164
 21
17.882245
 31
0.0
  0
LINE
  5
68E
100
AcDbEntity
  8
\U+53F3\U+5074\U+9762\U+56F3_\U+4F5C\U+56F3
  6
CONTINUOUS
100
AcDbLine
 10
124.654164
 20
18.244989
 30
0.0
 11
124.654164
 21
17.882245
 31
0.0
  0
LINE
  5
68F
100
AcDbEntity
  8
\U+53F3\U+5074\U+9762\U+56F3_\U+4F5C\U+56F3
  6
CONTINUOUS
100
AcDbLine
 10
123.844164
 20
18.112645
 30
0.0
 11
123.844164
 21
17.882245
 31
0.0
  0
LINE
  5
690
100
AcDbEntity
  8
\U+53F3\U+5074\U+9762\U+56F3_\U+4F5C\U+56F3
  6
CONTINUOUS
100
AcDbLine
 10
120.844164
 20
18.244989
 30
0.0
 11
120.844164
 21
17.882245
 31
0.0
  0
LINE
  5
691
100
AcDbEntity
  8
\U+53F3\U+5074\U+9762\U+56F3_\U+4F5C\U+56F3
  6
CONTINUOUS
100
AcDbLine
 10
119.964164
 20
20.742773
 30
0.0
 11
117.114164
 21
20.742773
 31
0.0
  0
LINE
  5
692
100
AcDbEntity
  8
\U+53F3\U+5074\U+9762\U+56F3_\U+4F5C\U+56F3
  6
CONTINUOUS
100
AcDbLine
 10
116.154164
 20
20.742773
 30
0.0
 11
113.304164
 21
20.742773
 31
0.0
  0
LINE
  5
693
100
AcDbEntity
  8
\U+53F3\U+5074\U+9762\U+56F3_\U+4F5C\U+56F3
  6
CONTINUOUS
100
AcDbLine
 10
123.774164
 20
20.742773
 30
0.0
 11
120.924164
 21
20.742773
 31
0.0
  0
LINE
  5
694
100
AcDbEntity
  8
\U+53F3\U+5074\U+9762\U+56F3_\U+4F5C\U+56F3
  6
CONTINUOUS
100
AcDbLine
 10
127.584164
 20
20.742773
 30
0.0
 11
124.734164
 21
20.742773
 31
0.0
  0
LINE
  5
695
100
AcDbEntity
  8
\U+53F3\U+5074\U+9762\U+56F3_\U+4F5C\U+56F3
  6
CONTINUOUS
100
AcDbLine
 10
127.584164
 20
21.762845
 30
0.0
 11
124.734164
 21
21.762845
 31
0.0
  0
LINE
  5
696
100
AcDbEntity
  8
\U+53F3\U+5074\U+9762\U+56F3_\U+4F5C\U+56F3
  6
CONTINUOUS
100
AcDbLine
 10
123.774164
 20
21.762845
 30
0.0
 11
120.924164
 21
21.762845
 31
0.0
  0
LINE
  5
697
100
AcDbEntity
  8
\U+53F3\U+5074\U+9762\U+56F3_\U+4F5C\U+56F3
  6
CONTINUOUS
100
AcDbLine
 10
119.964164
 20
21.762845
 30
0.0
 11
117.114164
 21
21.762845
 31
0.0
  0
LINE
  5
698
100
AcDbEntity
  8
\U+53F3\U+5074\U+9762\U+56F3_\U+4F5C\U+56F3
  6
CONTINUOUS
100
AcDbLine
 10
116.154164
 20
21.762845
 30
0.0
 11
113.304164
 21
21.762845
 31
0.0
  0
LINE
  5
699
100
AcDbEntity
  8
\U+53F3\U+5074\U+9762\U+56F3_\U+4F5C\U+56F3
  6
CONTINUOUS
100
AcDbLine
 10
112.824164
 20
20.560763
 30
0.0
 11
113.304164
 21
20.560763
 31
0.0
  0
LINE
  5
69A
100
AcDbEntity
  8
\U+53F3\U+5074\U+9762\U+56F3_\U+4F5C\U+56F3
  6
CONTINUOUS
100
AcDbLine
 10
116.154164
 20
20.560763
 30
0.0
 11
117.114164
 21
20.560763
 31
0.0
  0
LINE
  5
69B
100
AcDbEntity
  8
\U+53F3\U+5074\U+9762\U+56F3_\U+4F5C\U+56F3
  6
CONTINUOUS
100
AcDbLine
 10
119.964164
 20
20.560763
 30
0.0
 11
120.924164
 21
20.560763
 31
0.0
  0
LINE
  5
69C
100
AcDbEntity
  8
\U+53F3\U+5074\U+9762\U+56F3_\U+4F5C\U+56F3
  6
CONTINUOUS
100
AcDbLine
 10
123.774164
 20
20.560763
 30
0.0
 11
124.734164
 21
20.560763
 31
0.0
  0
LINE
  5
69D
100
AcDbEntity
  8
\U+53F3\U+5074\U+9762\U+56F3_\U+4F5C\U+56F3
  6
CONTINUOUS
100
AcDbLine
 10
123.774164
 20
20.560763
 30
0.0
 11
124.734164
 21
20.560763
 31
0.0
  0
LINE
  5
69E
100
AcDbEntity
  8
\U+53F3\U+5074\U+9762\U+56F3_\U+4F5C\U+56F3
  6
CONTINUOUS
100
AcDbLine
 10
127.584164
 20
20.560763
 30
0.0
 11
129.564164
 21
20.560763
 31
0.0
  0
LINE
  5
69F
100
AcDbEntity
  8
\U+53F3\U+5074\U+9762\U+56F3_\U+4F5C\U+56F3
  6
CONTINUOUS
100
AcDbLine
 10
113.304164
 20
20.862542
 30
0.0
 11
116.154164
 21
20.862542
 31
0.0
  0
LINE
  5
6A0
100
AcDbEntity
  8
\U+53F3\U+5074\U+9762\U+56F3_\U+4F5C\U+56F3
  6
CONTINUOUS
100
AcDbLine
 10
117.114164
 20
20.862542
 30
0.0
 11
119.964164
 21
20.862542
 31
0.0
  0
LINE
  5
6A1
100
AcDbEntity
  8
\U+53F3\U+5074\U+9762\U+56F3_\U+4F5C\U+56F3
  6
CONTINUOUS
100
AcDbLine
 10
124.734164
 20
20.862542
 30
0.0
 11
127.584164
 21
20.862542
 31
0.0
  0
LINE
  5
6A2
100
AcDbEntity
  8
\U+53F3\U+5074\U+9762\U+56F3_\U+4F5C\U+56F3
  6
CONTINUOUS
100
AcDbLine
 10
120.924164
 20
20.862542
 30
0.0
 11
123.774164
 21
20.862542
 31
0.0
  0
LINE
  5
6A3
100
AcDbEntity
  8
\U+53F3\U+5074\U+9762\U+56F3_\U+4F5C\U+56F3
  6
CONTINUOUS
100
AcDbLine
 10
112.824164
 20
20.382245
 30
0.0
 11
129.564164
 21
20.382245
 31
0.0
  0
LINE
  5
6A4
100
AcDbEntity
  8
\U+53F3\U+5074\U+9762\U+56F3_\U+4F5C\U+56F3
  6
CONTINUOUS
100
AcDbLine
 10
112.824164
 20
18.082245
 30
0.0
 11
129.564164
 21
18.082245
 31
0.0
  0
LINE
  5
6A5
100
AcDbEntity
  8
\U+53F3\U+5074\U+9762\U+56F3_\U+4F5C\U+56F3
  6
CONTINUOUS
100
AcDbLine
 10
116.154164
 20
20.560763
 30
0.0
 11
116.154164
 21
20.878961
 31
0.0
  0
LINE
  5
6A6
100
AcDbEntity
  8
\U+53F3\U+5074\U+9762\U+56F3_\U+4F5C\U+56F3
  6
CONTINUOUS
100
AcDbLine
 10
117.114164
 20
20.560763
 30
0.0
 11
117.114164
 21
20.878961
 31
0.0
  0
LINE
  5
6A7
100
AcDbEntity
  8
\U+53F3\U+5074\U+9762\U+56F3_\U+4F5C\U+56F3
  6
CONTINUOUS
100
AcDbLine
 10
119.964164
 20
20.560763
 30
0.0
 11
119.964164
 21
20.878961
 31
0.0
  0
LINE
  5
6A8
100
AcDbEntity
  8
\U+53F3\U+5074\U+9762\U+56F3_\U+4F5C\U+56F3
  6
CONTINUOUS
100
AcDbLine
 10
113.304164
 20
20.560763
 30
0.0
 11
113.304164
 21
20.878961
 31
0.0
  0
LINE
  5
6A9
100
AcDbEntity
  8
\U+53F3\U+5074\U+9762\U+56F3_\U+4F5C\U+56F3
  6
CONTINUOUS
100
AcDbLine
 10
120.924164
 20
20.560763
 30
0.0
 11
120.924164
 21
20.878961
 31
0.0
  0
LINE
  5
6AA
100
AcDbEntity
  8
\U+53F3\U+5074\U+9762\U+56F3_\U+4F5C\U+56F3
  6
CONTINUOUS
100
AcDbLine
 10
123.774164
 20
20.560763
 30
0.0
 11
123.774164
 21
20.878961
 31
0.0
  0
LINE
  5
6AB
100
AcDbEntity
  8
\U+53F3\U+5074\U+9762\U+56F3_\U+4F5C\U+56F3
  6
CONTINUOUS
100
AcDbLine
 10
124.734164
 20
20.560763
 30
0.0
 11
124.734164
 21
20.878961
 31
0.0
  0
LINE
  5
6AC
100
AcDbEntity
  8
\U+53F3\U+5074\U+9762\U+56F3_\U+4F5C\U+56F3
  6
CONTINUOUS
100
AcDbLine
 10
127.584164
 20
20.560763
 30
0.0
 11
127.584164
 21
20.878961
 31
0.0
  0
LINE
  5
6AD
100
AcDbEntity
  8
GR2_01
  6
CONTINUOUS
100
AcDbLine
 10
47.564164
 20
0.482245
 30
0.0
 11
103.564164
 21
0.482245
 31
0.0
  0
LINE
  5
6AE
100
AcDbEntity
  8
GR2_01
  6
CONTINUOUS
100
AcDbLine
 10
81.564164
 20
0.482245
 30
0.0
 11
81.564164
 21
4.482245
 31
0.0
  0
ARC
  5
6AF
100
AcDbEntity
  8
GR2_01
  6
CONTINUOUS
100
AcDbCircle
 10
81.064164
 20
4.482245
 30
0.0
 40
0.5
100
AcDbArc
 50
0.0
 51
90.0
  0
LINE
  5
6B0
100
AcDbEntity
  8
GR2_01
  6
CONTINUOUS
100
AcDbLine
 10
69.564164
 20
0.482245
 30
0.0
 11
69.564164
 21
4.482245
 31
0.0
  0
ARC
  5
6B1
100
AcDbEntity
  8
GR2_01
  6
CONTINUOUS
100
AcDbCircle
 10
70.064164
 20
4.482245
 30
0.0
 40
0.5
100
AcDbArc
 50
90.0
 51
180.0
  0
LINE
  5
6B2
100
AcDbEntity
  8
GR2_01
  6
CONTINUOUS
100
AcDbLine
 10
73.218956
 20
0.482245
 30
0.0
 11
73.218956
 21
4.982245
 31
0.0
  0
LINE
  5
6B3
100
AcDbEntity
  8
GR2_01
  6
CONTINUOUS
100
AcDbLine
 10
77.909372
 20
4.982245
 30
0.0
 11
77.909372
 21
0.482245
 31
0.0
  0
LINE
  5
6B4
100
AcDbEntity
  8
GR2_01
  6
CONTINUOUS
 62
     7
100
AcDbLine
 10
47.564164
 20
4.982245
 30
0.0
 11
103.564164
 21
4.982245
 31
0.0
  0
LINE
  5
6B5
100
AcDbEntity
  8
GR2_01
  6
CONTINUOUS
 62
     7
100
AcDbLine
 10
103.564164
 20
0.182245
 30
0.0
 11
103.564164
 21
4.982245
 31
0.0
  0
LINE
  5
6B6
100
AcDbEntity
  8
GR2_01
  6
CONTINUOUS
 62
     7
100
AcDbLine
 10
95.564164
 20
6.714295
 30
0.0
 11
99.564164
 21
6.714295
 31
0.0
  0
LINE
  5
6B7
100
AcDbEntity
  8
GR2_01
  6
CONTINUOUS
 62
     7
100
AcDbLine
 10
99.564164
 20
6.714295
 30
0.0
 11
99.564164
 21
4.982245
 31
0.0
  0
LINE
  5
6B8
100
AcDbEntity
  8
GR2_01
  6
CONTINUOUS
 62
     7
100
AcDbLine
 10
95.564164
 20
6.714295
 30
0.0
 11
95.564164
 21
4.982245
 31
0.0
  0
LINE
  5
6B9
100
AcDbEntity
  8
GR2_01
  6
CONTINUOUS
 62
     7
100
AcDbLine
 10
47.564164
 20
0.182245
 30
0.0
 11
47.564164
 21
4.982245
 31
0.0
  0
LINE
  5
6BA
100
AcDbEntity
  8
GR2_01
  6
CONTINUOUS
 62
     7
100
AcDbLine
 10
55.564164
 20
6.714295
 30
0.0
 11
51.564164
 21
6.714295
 31
0.0
  0
LINE
  5
6BB
100
AcDbEntity
  8
GR2_01
  6
CONTINUOUS
 62
     7
100
AcDbLine
 10
51.564164
 20
6.714295
 30
0.0
 11
51.564164
 21
4.982245
 31
0.0
  0
LINE
  5
6BC
100
AcDbEntity
  8
GR2_01
  6
CONTINUOUS
 62
     7
100
AcDbLine
 10
55.564164
 20
6.714295
 30
0.0
 11
55.564164
 21
4.982245
 31
0.0
  0
LINE
  5
6BD
100
AcDbEntity
  8
GR2_01
  6
CONTINUOUS
100
AcDbLine
 10
140.459281
 20
17.882245
 30
0.0
 11
10.721622
 21
17.882245
 31
0.0
  0
LINE
  5
6BE
100
AcDbEntity
  8
GR2_01
  6
CONTINUOUS
100
AcDbLine
 10
9.564164
 20
11.682245
 30
0.0
 11
141.564164
 21
11.682245
 31
0.0
  0
LINE
  5
6BF
100
AcDbEntity
  8
GR2_01
  6
CONTINUOUS
100
AcDbLine
 10
141.564164
 20
11.682245
 30
0.0
 11
141.459129
 21
16.899698
 31
0.0
  0
LINE
  5
6C0
100
AcDbEntity
  8
GR2_01
  6
CONTINUOUS
100
AcDbLine
 10
131.564164
 20
17.882245
 30
0.0
 11
131.029286
 21
25.008422
 31
0.0
  0
ARC
  5
6C1
100
AcDbEntity
  8
GR2_01
  6
CONTINUOUS
100
AcDbCircle
 10
140.459281
 20
16.882245
 30
0.0
 40
1.0
100
AcDbArc
 50
1.0
 51
90.0
  0
LINE
  5
6C2
100
AcDbEntity
  8
GR2_01
  6
CONTINUOUS
100
AcDbLine
 10
9.564164
 20
11.682245
 30
0.0
 11
9.669199
 21
16.899698
 31
0.0
  0
ARC
  5
6C3
100
AcDbEntity
  8
GR2_01
  6
CONTINUOUS
100
AcDbCircle
 10
10.669047
 20
16.882245
 30
0.0
 40
1.0
100
AcDbArc
 50
90.0
 51
179.0
  0
LINE
  5
6C4
100
AcDbEntity
  8
GR2_01
  6
CONTINUOUS
100
AcDbLine
 10
130.029628
 20
25.982245
 30
0.0
 11
37.664164
 21
25.982245
 31
0.0
  0
ARC
  5
6C5
100
AcDbEntity
  8
GR2_01
  6
CONTINUOUS
100
AcDbCircle
 10
130.029628
 20
24.982245
 30
0.0
 40
1.0
100
AcDbArc
 50
1.5
 51
90.0
  0
LINE
  5
6C6
100
AcDbEntity
  8
GR2_01
  6
CONTINUOUS
100
AcDbLine
 10
37.164164
 20
17.881843
 30
0.0
 11
37.164164
 21
25.482245
 31
0.0
  0
ARC
  5
6C7
100
AcDbEntity
  8
GR2_01
  6
CONTINUOUS
100
AcDbCircle
 10
37.664164
 20
25.482245
 30
0.0
 40
0.5
100
AcDbArc
 50
90.0
 51
180.0
  0
LINE
  5
6C8
100
AcDbEntity
  8
GR2_01
  6
CONTINUOUS
100
AcDbLine
 10
73.279036
 20
22.082245
 30
0.0
 11
73.483426
 21
25.682245
 31
0.0
  0
LINE
  5
6C9
100
AcDbEntity
  8
GR2_01
  6
CONTINUOUS
100
AcDbLine
 10
69.951366
 20
22.082245
 30
0.0
 11
69.759801
 21
25.697946
 31
0.0
  0
ARC
  5
6CA
100
AcDbEntity
  8
GR2_01
  6
CONTINUOUS
100
AcDbCircle
 10
69.460212
 20
25.682245
 30
0.0
 40
0.3
100
AcDbArc
 50
3.0
 51
90.0
  0
LINE
  5
6CB
100
AcDbEntity
  8
GR2_01
  6
CONTINUOUS
100
AcDbLine
 10
90.279036
 20
22.082245
 30
0.0
 11
90.468527
 21
25.697946
 31
0.0
  0
LINE
  5
6CC
100
AcDbEntity
  8
GR2_01
  6
CONTINUOUS
100
AcDbLine
 10
86.951366
 20
22.082245
 30
0.0
 11
86.759801
 21
25.697946
 31
0.0
  0
ARC
  5
6CD
100
AcDbEntity
  8
GR2_01
  6
CONTINUOUS
100
AcDbCircle
 10
86.460212
 20
25.682245
 30
0.0
 40
0.3
100
AcDbArc
 50
3.0
 51
90.0
  0
ARC
  5
6CE
100
AcDbEntity
  8
GR2_01
  6
CONTINUOUS
100
AcDbCircle
 10
90.768115
 20
25.682245
 30
0.0
 40
0.3
100
AcDbArc
 50
90.0
 51
177.0
  0
LINE
  5
6CF
100
AcDbEntity
  8
GR2_01
  6
CONTINUOUS
100
AcDbLine
 10
107.279036
 20
22.082245
 30
0.0
 11
107.468527
 21
25.697946
 31
0.0
  0
LINE
  5
6D0
100
AcDbEntity
  8
GR2_01
  6
CONTINUOUS
100
AcDbLine
 10
103.951367
 20
22.082245
 30
0.0
 11
103.759801
 21
25.697946
 31
0.0
  0
ARC
  5
6D1
100
AcDbEntity
  8
GR2_01
  6
CONTINUOUS
100
AcDbCircle
 10
103.460212
 20
25.682245
 30
0.0
 40
0.3
100
AcDbArc
 50
3.0
 51
90.0
  0
ARC
  5
6D2
100
AcDbEntity
  8
GR2_01
  6
CONTINUOUS
100
AcDbCircle
 10
107.768115
 20
25.682245
 30
0.0
 40
0.3
100
AcDbArc
 50
90.0
 51
177.0
  0
LINE
  5
6D3
100
AcDbEntity
  8
GR2_01
  6
CONTINUOUS
100
AcDbLine
 10
124.279036
 20
22.082245
 30
0.0
 11
124.468527
 21
25.697946
 31
0.0
  0
LINE
  5
6D4
100
AcDbEntity
  8
GR2_01
  6
CONTINUOUS
100
AcDbLine
 10
120.951367
 20
22.082245
 30
0.0
 11
120.759801
 21
25.697946
 31
0.0
  0
ARC
  5
6D5
100
AcDbEntity
  8
GR2_01
  6
CONTINUOUS
100
AcDbCircle
 10
120.460212
 20
25.682245
 30
0.0
 40
0.3
100
AcDbArc
 50
3.0
 51
90.0
  0
ARC
  5
6D6
100
AcDbEntity
  8
GR2_01
  6
CONTINUOUS
100
AcDbCircle
 10
124.768115
 20
25.682245
 30
0.0
 40
0.3
100
AcDbArc
 50
90.0
 51
177.0
  0
ARC
  5
6D7
100
AcDbEntity
  8
GR2_01
  6
CONTINUOUS
100
AcDbCircle
 10
73.783426
 20
25.682245
 30
0.0
 40
0.3
100
AcDbArc
 50
90.0
 51
180.0
  0
ARC
  5
6D8
100
AcDbEntity
  8
GR1_01
  6
CONTINUOUS
 62
     7
100
AcDbCircle
 10
63.651366
 20
162.155952
 30
0.0
 40
1.0
100
AcDbArc
 50
90.0
 51
180.0
  0
LINE
  5
6DA
102
{ACAD_REACTORS
330
6D9
102
}
100
AcDbEntity
  8
GR2_01
  6
CONTINUOUS
100
AcDbLine
 10
17.194164
 20
128.125952
 30
0.0
 11
17.194164
 21
126.525952
 31
0.0
  0
LINE
  5
6DB
102
{ACAD_REACTORS
330
6D9
102
}
100
AcDbEntity
  8
GR2_01
  6
CONTINUOUS
100
AcDbLine
 10
17.994164
 20
128.125952
 30
0.0
 11
17.994164
 21
126.525952
 31
0.0
  0
LINE
  5
6DC
102
{ACAD_REACTORS
330
6D9
102
}
100
AcDbEntity
  8
GR2_01
  6
CONTINUOUS
100
AcDbLine
 10
17.194164
 20
128.125952
 30
0.0
 11
17.994164
 21
128.125952
 31
0.0
  0
LINE
  5
6DD
102
{ACAD_REACTORS
330
6D9
102
}
100
AcDbEntity
  8
GR2_01
  6
CONTINUOUS
100
AcDbLine
 10
17.194164
 20
126.525952
 30
0.0
 11
17.994164
 21
126.525952
 31
0.0
  0
LINE
  5
6DE
102
{ACAD_REACTORS
330
6D9
102
}
100
AcDbEntity
  8
GR2_01
  6
CONTINUOUS
100
AcDbLine
 10
19.734164
 20
128.125952
 30
0.0
 11
19.734164
 21
126.525952
 31
0.0
  0
LINE
  5
6DF
102
{ACAD_REACTORS
330
6D9
102
}
100
AcDbEntity
  8
GR2_01
  6
CONTINUOUS
100
AcDbLine
 10
20.534164
 20
128.125952
 30
0.0
 11
20.534164
 21
126.525952
 31
0.0
  0
LINE
  5
6E0
102
{ACAD_REACTORS
330
6D9
102
}
100
AcDbEntity
  8
GR2_01
  6
CONTINUOUS
100
AcDbLine
 10
19.734164
 20
128.125952
 30
0.0
 11
20.534164
 21
128.125952
 31
0.0
  0
LINE
  5
6E1
102
{ACAD_REACTORS
330
6D9
102
}
100
AcDbEntity
  8
GR2_01
  6
CONTINUOUS
100
AcDbLine
 10
19.734164
 20
126.525952
 30
0.0
 11
20.534164
 21
126.525952
 31
0.0
  0
LINE
  5
6E2
102
{ACAD_REACTORS
330
6D9
102
}
100
AcDbEntity
  8
GR2_01
  6
CONTINUOUS
100
AcDbLine
 10
17.194164
 20
130.665952
 30
0.0
 11
17.194164
 21
129.065952
 31
0.0
  0
LINE
  5
6E3
102
{ACAD_REACTORS
330
6D9
102
}
100
AcDbEntity
  8
GR2_01
  6
CONTINUOUS
100
AcDbLine
 10
17.994164
 20
130.665952
 30
0.0
 11
17.994164
 21
129.065952
 31
0.0
  0
LINE
  5
6E4
102
{ACAD_REACTORS
330
6D9
102
}
100
AcDbEntity
  8
GR2_01
  6
CONTINUOUS
100
AcDbLine
 10
17.194164
 20
130.665952
 30
0.0
 11
17.994164
 21
130.665952
 31
0.0
  0
LINE
  5
6E5
102
{ACAD_REACTORS
330
6D9
102
}
100
AcDbEntity
  8
GR2_01
  6
CONTINUOUS
100
AcDbLine
 10
17.194164
 20
129.065952
 30
0.0
 11
17.994164
 21
129.065952
 31
0.0
  0
LINE
  5
6E6
102
{ACAD_REACTORS
330
6D9
102
}
100
AcDbEntity
  8
GR2_01
  6
CONTINUOUS
100
AcDbLine
 10
19.734164
 20
130.665952
 30
0.0
 11
19.734164
 21
129.065952
 31
0.0
  0
LINE
  5
6E7
102
{ACAD_REACTORS
330
6D9
102
}
100
AcDbEntity
  8
GR2_01
  6
CONTINUOUS
100
AcDbLine
 10
20.534164
 20
130.665952
 30
0.0
 11
20.534164
 21
129.065952
 31
0.0
  0
LINE
  5
6E8
102
{ACAD_REACTORS
330
6D9
102
}
100
AcDbEntity
  8
GR2_01
  6
CONTINUOUS
100
AcDbLine
 10
19.734164
 20
130.665952
 30
0.0
 11
20.534164
 21
130.665952
 31
0.0
  0
LINE
  5
6E9
102
{ACAD_REACTORS
330
6D9
102
}
100
AcDbEntity
  8
GR2_01
  6
CONTINUOUS
100
AcDbLine
 10
19.734164
 20
129.065952
 30
0.0
 11
20.534164
 21
129.065952
 31
0.0
  0
LINE
  5
6EA
102
{ACAD_REACTORS
330
6D9
102
}
100
AcDbEntity
  8
GR2_01
  6
CONTINUOUS
100
AcDbLine
 10
17.194164
 20
133.205952
 30
0.0
 11
17.194164
 21
131.605952
 31
0.0
  0
LINE
  5
6EB
102
{ACAD_REACTORS
330
6D9
102
}
100
AcDbEntity
  8
GR2_01
  6
CONTINUOUS
100
AcDbLine
 10
17.994164
 20
133.205952
 30
0.0
 11
17.994164
 21
131.605952
 31
0.0
  0
LINE
  5
6EC
102
{ACAD_REACTORS
330
6D9
102
}
100
AcDbEntity
  8
GR2_01
  6
CONTINUOUS
100
AcDbLine
 10
17.194164
 20
133.205952
 30
0.0
 11
17.994164
 21
133.205952
 31
0.0
  0
LINE
  5
6ED
102
{ACAD_REACTORS
330
6D9
102
}
100
AcDbEntity
  8
GR2_01
  6
CONTINUOUS
100
AcDbLine
 10
17.194164
 20
131.605952
 30
0.0
 11
17.994164
 21
131.605952
 31
0.0
  0
LINE
  5
6EE
102
{ACAD_REACTORS
330
6D9
102
}
100
AcDbEntity
  8
GR2_01
  6
CONTINUOUS
100
AcDbLine
 10
19.734164
 20
133.205952
 30
0.0
 11
19.734164
 21
131.605952
 31
0.0
  0
LINE
  5
6EF
102
{ACAD_REACTORS
330
6D9
102
}
100
AcDbEntity
  8
GR2_01
  6
CONTINUOUS
100
AcDbLine
 10
20.534164
 20
133.205952
 30
0.0
 11
20.534164
 21
131.605952
 31
0.0
  0
LINE
  5
6F0
102
{ACAD_REACTORS
330
6D9
102
}
100
AcDbEntity
  8
GR2_01
  6
CONTINUOUS
100
AcDbLine
 10
19.734164
 20
133.205952
 30
0.0
 11
20.534164
 21
133.205952
 31
0.0
  0
LINE
  5
6F1
102
{ACAD_REACTORS
330
6D9
102
}
100
AcDbEntity
  8
GR2_01
  6
CONTINUOUS
100
AcDbLine
 10
19.734164
 20
131.605952
 30
0.0
 11
20.534164
 21
131.605952
 31
0.0
  0
LINE
  5
6F2
102
{ACAD_REACTORS
330
6D9
102
}
100
AcDbEntity
  8
GR2_01
  6
CONTINUOUS
100
AcDbLine
 10
17.194164
 20
135.745952
 30
0.0
 11
17.194164
 21
134.145952
 31
0.0
  0
LINE
  5
6F3
102
{ACAD_REACTORS
330
6D9
102
}
100
AcDbEntity
  8
GR2_01
  6
CONTINUOUS
100
AcDbLine
 10
17.994164
 20
135.745952
 30
0.0
 11
17.994164
 21
134.145952
 31
0.0
  0
LINE
  5
6F4
102
{ACAD_REACTORS
330
6D9
102
}
100
AcDbEntity
  8
GR2_01
  6
CONTINUOUS
100
AcDbLine
 10
17.194164
 20
135.745952
 30
0.0
 11
17.994164
 21
135.745952
 31
0.0
  0
LINE
  5
6F5
102
{ACAD_REACTORS
330
6D9
102
}
100
AcDbEntity
  8
GR2_01
  6
CONTINUOUS
100
AcDbLine
 10
17.194164
 20
134.145952
 30
0.0
 11
17.994164
 21
134.145952
 31
0.0
  0
LINE
  5
6F6
102
{ACAD_REACTORS
330
6D9
102
}
100
AcDbEntity
  8
GR2_01
  6
CONTINUOUS
100
AcDbLine
 10
19.734164
 20
135.745952
 30
0.0
 11
19.734164
 21
134.145952
 31
0.0
  0
LINE
  5
6F7
102
{ACAD_REACTORS
330
6D9
102
}
100
AcDbEntity
  8
GR2_01
  6
CONTINUOUS
100
AcDbLine
 10
20.534164
 20
135.745952
 30
0.0
 11
20.534164
 21
134.145952
 31
0.0
  0
LINE
  5
6F8
102
{ACAD_REACTORS
330
6D9
102
}
100
AcDbEntity
  8
GR2_01
  6
CONTINUOUS
100
AcDbLine
 10
19.734164
 20
135.745952
 30
0.0
 11
20.534164
 21
135.745952
 31
0.0
  0
LINE
  5
6F9
102
{ACAD_REACTORS
330
6D9
102
}
100
AcDbEntity
  8
GR2_01
  6
CONTINUOUS
100
AcDbLine
 10
19.734164
 20
134.145952
 30
0.0
 11
20.534164
 21
134.145952
 31
0.0
  0
LINE
  5
6FA
102
{ACAD_REACTORS
330
6D9
102
}
100
AcDbEntity
  8
GR2_01
  6
CONTINUOUS
100
AcDbLine
 10
17.194164
 20
138.285952
 30
0.0
 11
17.194164
 21
136.685952
 31
0.0
  0
LINE
  5
6FB
102
{ACAD_REACTORS
330
6D9
102
}
100
AcDbEntity
  8
GR2_01
  6
CONTINUOUS
100
AcDbLine
 10
17.994164
 20
138.285952
 30
0.0
 11
17.994164
 21
136.685952
 31
0.0
  0
LINE
  5
6FC
102
{ACAD_REACTORS
330
6D9
102
}
100
AcDbEntity
  8
GR2_01
  6
CONTINUOUS
100
AcDbLine
 10
17.194164
 20
138.285952
 30
0.0
 11
17.994164
 21
138.285952
 31
0.0
  0
LINE
  5
6FD
102
{ACAD_REACTORS
330
6D9
102
}
100
AcDbEntity
  8
GR2_01
  6
CONTINUOUS
100
AcDbLine
 10
17.194164
 20
136.685952
 30
0.0
 11
17.994164
 21
136.685952
 31
0.0
  0
LINE
  5
6FE
102
{ACAD_REACTORS
330
6D9
102
}
100
AcDbEntity
  8
GR2_01
  6
CONTINUOUS
100
AcDbLine
 10
19.734164
 20
138.285952
 30
0.0
 11
19.734164
 21
136.685952
 31
0.0
  0
LINE
  5
6FF
102
{ACAD_REACTORS
330
6D9
102
}
100
AcDbEntity
  8
GR2_01
  6
CONTINUOUS
100
AcDbLine
 10
20.534164
 20
138.285952
 30
0.0
 11
20.534164
 21
136.685952
 31
0.0
  0
LINE
  5
700
102
{ACAD_REACTORS
330
6D9
102
}
100
AcDbEntity
  8
GR2_01
  6
CONTINUOUS
100
AcDbLine
 10
19.734164
 20
138.285952
 30
0.0
 11
20.534164
 21
138.285952
 31
0.0
  0
LINE
  5
701
102
{ACAD_REACTORS
330
6D9
102
}
100
AcDbEntity
  8
GR2_01
  6
CONTINUOUS
100
AcDbLine
 10
19.734164
 20
136.685952
 30
0.0
 11
20.534164
 21
136.685952
 31
0.0
  0
LINE
  5
702
102
{ACAD_REACTORS
330
6D9
102
}
100
AcDbEntity
  8
GR2_01
  6
CONTINUOUS
100
AcDbLine
 10
17.194164
 20
123.985952
 30
0.0
 11
17.194164
 21
125.585952
 31
0.0
  0
LINE
  5
703
102
{ACAD_REACTORS
330
6D9
102
}
100
AcDbEntity
  8
GR2_01
  6
CONTINUOUS
100
AcDbLine
 10
17.994164
 20
123.985952
 30
0.0
 11
17.994164
 21
125.585952
 31
0.0
  0
LINE
  5
704
102
{ACAD_REACTORS
330
6D9
102
}
100
AcDbEntity
  8
GR2_01
  6
CONTINUOUS
100
AcDbLine
 10
17.194164
 20
123.985952
 30
0.0
 11
17.994164
 21
123.985952
 31
0.0
  0
LINE
  5
705
102
{ACAD_REACTORS
330
6D9
102
}
100
AcDbEntity
  8
GR2_01
  6
CONTINUOUS
100
AcDbLine
 10
17.194164
 20
125.585952
 30
0.0
 11
17.994164
 21
125.585952
 31
0.0
  0
LINE
  5
706
102
{ACAD_REACTORS
330
6D9
102
}
100
AcDbEntity
  8
GR2_01
  6
CONTINUOUS
100
AcDbLine
 10
19.734164
 20
123.985952
 30
0.0
 11
19.734164
 21
125.585952
 31
0.0
  0
LINE
  5
707
102
{ACAD_REACTORS
330
6D9
102
}
100
AcDbEntity
  8
GR2_01
  6
CONTINUOUS
100
AcDbLine
 10
20.534164
 20
123.985952
 30
0.0
 11
20.534164
 21
125.585952
 31
0.0
  0
LINE
  5
708
102
{ACAD_REACTORS
330
6D9
102
}
100
AcDbEntity
  8
GR2_01
  6
CONTINUOUS
100
AcDbLine
 10
19.734164
 20
123.985952
 30
0.0
 11
20.534164
 21
123.985952
 31
0.0
  0
LINE
  5
709
102
{ACAD_REACTORS
330
6D9
102
}
100
AcDbEntity
  8
GR2_01
  6
CONTINUOUS
100
AcDbLine
 10
19.734164
 20
125.585952
 30
0.0
 11
20.534164
 21
125.585952
 31
0.0
  0
LINE
  5
70A
102
{ACAD_REACTORS
330
6D9
102
}
100
AcDbEntity
  8
GR2_01
  6
CONTINUOUS
100
AcDbLine
 10
17.194164
 20
121.445952
 30
0.0
 11
17.194164
 21
123.045952
 31
0.0
  0
LINE
  5
70B
102
{ACAD_REACTORS
330
6D9
102
}
100
AcDbEntity
  8
GR2_01
  6
CONTINUOUS
100
AcDbLine
 10
17.994164
 20
121.445952
 30
0.0
 11
17.994164
 21
123.045952
 31
0.0
  0
LINE
  5
70C
102
{ACAD_REACTORS
330
6D9
102
}
100
AcDbEntity
  8
GR2_01
  6
CONTINUOUS
100
AcDbLine
 10
17.194164
 20
121.445952
 30
0.0
 11
17.994164
 21
121.445952
 31
0.0
  0
LINE
  5
70D
102
{ACAD_REACTORS
330
6D9
102
}
100
AcDbEntity
  8
GR2_01
  6
CONTINUOUS
100
AcDbLine
 10
17.194164
 20
123.045952
 30
0.0
 11
17.994164
 21
123.045952
 31
0.0
  0
LINE
  5
70E
102
{ACAD_REACTORS
330
6D9
102
}
100
AcDbEntity
  8
GR2_01
  6
CONTINUOUS
100
AcDbLine
 10
19.734164
 20
121.445952
 30
0.0
 11
19.734164
 21
123.045952
 31
0.0
  0
LINE
  5
70F
102
{ACAD_REACTORS
330
6D9
102
}
100
AcDbEntity
  8
GR2_01
  6
CONTINUOUS
100
AcDbLine
 10
20.534164
 20
121.445952
 30
0.0
 11
20.534164
 21
123.045952
 31
0.0
  0
LINE
  5
710
102
{ACAD_REACTORS
330
6D9
102
}
100
AcDbEntity
  8
GR2_01
  6
CONTINUOUS
100
AcDbLine
 10
19.734164
 20
121.445952
 30
0.0
 11
20.534164
 21
121.445952
 31
0.0
  0
LINE
  5
711
102
{ACAD_REACTORS
330
6D9
102
}
100
AcDbEntity
  8
GR2_01
  6
CONTINUOUS
100
AcDbLine
 10
19.734164
 20
123.045952
 30
0.0
 11
20.534164
 21
123.045952
 31
0.0
  0
LINE
  5
712
102
{ACAD_REACTORS
330
6D9
102
}
100
AcDbEntity
  8
GR2_01
  6
CONTINUOUS
100
AcDbLine
 10
17.194164
 20
118.905952
 30
0.0
 11
17.194164
 21
120.505952
 31
0.0
  0
LINE
  5
713
102
{ACAD_REACTORS
330
6D9
102
}
100
AcDbEntity
  8
GR2_01
  6
CONTINUOUS
100
AcDbLine
 10
17.994164
 20
118.905952
 30
0.0
 11
17.994164
 21
120.505952
 31
0.0
  0
LINE
  5
714
102
{ACAD_REACTORS
330
6D9
102
}
100
AcDbEntity
  8
GR2_01
  6
CONTINUOUS
100
AcDbLine
 10
17.194164
 20
118.905952
 30
0.0
 11
17.994164
 21
118.905952
 31
0.0
  0
LINE
  5
715
102
{ACAD_REACTORS
330
6D9
102
}
100
AcDbEntity
  8
GR2_01
  6
CONTINUOUS
100
AcDbLine
 10
17.194164
 20
120.505952
 30
0.0
 11
17.994164
 21
120.505952
 31
0.0
  0
LINE
  5
716
102
{ACAD_REACTORS
330
6D9
102
}
100
AcDbEntity
  8
GR2_01
  6
CONTINUOUS
100
AcDbLine
 10
19.734164
 20
118.905952
 30
0.0
 11
19.734164
 21
120.505952
 31
0.0
  0
LINE
  5
717
102
{ACAD_REACTORS
330
6D9
102
}
100
AcDbEntity
  8
GR2_01
  6
CONTINUOUS
100
AcDbLine
 10
20.534164
 20
118.905952
 30
0.0
 11
20.534164
 21
120.505952
 31
0.0
  0
LINE
  5
718
102
{ACAD_REACTORS
330
6D9
102
}
100
AcDbEntity
  8
GR2_01
  6
CONTINUOUS
100
AcDbLine
 10
19.734164
 20
118.905952
 30
0.0
 11
20.534164
 21
118.905952
 31
0.0
  0
LINE
  5
719
102
{ACAD_REACTORS
330
6D9
102
}
100
AcDbEntity
  8
GR2_01
  6
CONTINUOUS
100
AcDbLine
 10
19.734164
 20
120.505952
 30
0.0
 11
20.534164
 21
120.505952
 31
0.0
  0
LINE
  5
71A
102
{ACAD_REACTORS
330
6D9
102
}
100
AcDbEntity
  8
GR2_01
  6
CONTINUOUS
100
AcDbLine
 10
17.194164
 20
116.365952
 30
0.0
 11
17.194164
 21
117.965952
 31
0.0
  0
LINE
  5
71B
102
{ACAD_REACTORS
330
6D9
102
}
100
AcDbEntity
  8
GR2_01
  6
CONTINUOUS
100
AcDbLine
 10
17.994164
 20
116.365952
 30
0.0
 11
17.994164
 21
117.965952
 31
0.0
  0
LINE
  5
71C
102
{ACAD_REACTORS
330
6D9
102
}
100
AcDbEntity
  8
GR2_01
  6
CONTINUOUS
100
AcDbLine
 10
17.194164
 20
116.365952
 30
0.0
 11
17.994164
 21
116.365952
 31
0.0
  0
LINE
  5
71D
102
{ACAD_REACTORS
330
6D9
102
}
100
AcDbEntity
  8
GR2_01
  6
CONTINUOUS
100
AcDbLine
 10
17.194164
 20
117.965952
 30
0.0
 11
17.994164
 21
117.965952
 31
0.0
  0
LINE
  5
71E
102
{ACAD_REACTORS
330
6D9
102
}
100
AcDbEntity
  8
GR2_01
  6
CONTINUOUS
100
AcDbLine
 10
19.734164
 20
116.365952
 30
0.0
 11
19.734164
 21
117.965952
 31
0.0
  0
LINE
  5
71F
102
{ACAD_REACTORS
330
6D9
102
}
100
AcDbEntity
  8
GR2_01
  6
CONTINUOUS
100
AcDbLine
 10
20.534164
 20
116.365952
 30
0.0
 11
20.534164
 21
117.965952
 31
0.0
  0
LINE
  5
720
102
{ACAD_REACTORS
330
6D9
102
}
100
AcDbEntity
  8
GR2_01
  6
CONTINUOUS
100
AcDbLine
 10
19.734164
 20
116.365952
 30
0.0
 11
20.534164
 21
116.365952
 31
0.0
  0
LINE
  5
721
102
{ACAD_REACTORS
330
6D9
102
}
100
AcDbEntity
  8
GR2_01
  6
CONTINUOUS
100
AcDbLine
 10
19.734164
 20
117.965952
 30
0.0
 11
20.534164
 21
117.965952
 31
0.0
  0
LINE
  5
722
102
{ACAD_REACTORS
330
6D9
102
}
100
AcDbEntity
  8
GR2_01
  6
CONTINUOUS
100
AcDbLine
 10
17.194164
 20
113.825952
 30
0.0
 11
17.194164
 21
115.425952
 31
0.0
  0
LINE
  5
723
102
{ACAD_REACTORS
330
6D9
102
}
100
AcDbEntity
  8
GR2_01
  6
CONTINUOUS
100
AcDbLine
 10
17.994164
 20
113.825952
 30
0.0
 11
17.994164
 21
115.425952
 31
0.0
  0
LINE
  5
724
102
{ACAD_REACTORS
330
6D9
102
}
100
AcDbEntity
  8
GR2_01
  6
CONTINUOUS
100
AcDbLine
 10
17.194164
 20
113.825952
 30
0.0
 11
17.994164
 21
113.825952
 31
0.0
  0
LINE
  5
725
102
{ACAD_REACTORS
330
6D9
102
}
100
AcDbEntity
  8
GR2_01
  6
CONTINUOUS
100
AcDbLine
 10
17.194164
 20
115.425952
 30
0.0
 11
17.994164
 21
115.425952
 31
0.0
  0
LINE
  5
726
102
{ACAD_REACTORS
330
6D9
102
}
100
AcDbEntity
  8
GR2_01
  6
CONTINUOUS
100
AcDbLine
 10
19.734164
 20
113.825952
 30
0.0
 11
19.734164
 21
115.425952
 31
0.0
  0
LINE
  5
727
102
{ACAD_REACTORS
330
6D9
102
}
100
AcDbEntity
  8
GR2_01
  6
CONTINUOUS
100
AcDbLine
 10
20.534164
 20
113.825952
 30
0.0
 11
20.534164
 21
115.425952
 31
0.0
  0
LINE
  5
728
102
{ACAD_REACTORS
330
6D9
102
}
100
AcDbEntity
  8
GR2_01
  6
CONTINUOUS
100
AcDbLine
 10
19.734164
 20
113.825952
 30
0.0
 11
20.534164
 21
113.825952
 31
0.0
  0
LINE
  5
729
102
{ACAD_REACTORS
330
6D9
102
}
100
AcDbEntity
  8
GR2_01
  6
CONTINUOUS
100
AcDbLine
 10
19.734164
 20
115.425952
 30
0.0
 11
20.534164
 21
115.425952
 31
0.0
  0
LINE
  5
72A
102
{ACAD_REACTORS
330
6D9
102
}
100
AcDbEntity
  8
0
  6
CONTINUOUS
 62
     7
100
AcDbLine
 10
15.864164
 20
141.355952
 30
0.0
 11
15.864164
 21
110.755952
 31
0.0
  0
LINE
  5
72B
102
{ACAD_REACTORS
330
6D9
102
}
100
AcDbEntity
  8
0
  6
CONTINUOUS
 62
     7
100
AcDbLine
 10
15.864164
 20
110.755952
 30
0.0
 11
21.864164
 21
110.755952
 31
0.0
  0
LINE
  5
72C
102
{ACAD_REACTORS
330
6D9
102
}
100
AcDbEntity
  8
0
  6
CONTINUOUS
 62
     7
100
AcDbLine
 10
21.864164
 20
110.755952
 30
0.0
 11
21.864164
 21
141.355952
 31
0.0
  0
LINE
  5
72D
102
{ACAD_REACTORS
330
6D9
102
}
100
AcDbEntity
  8
0
  6
CONTINUOUS
 62
     7
100
AcDbLine
 10
21.864164
 20
141.355952
 30
0.0
 11
15.864164
 21
141.355952
 31
0.0
  0
LINE
  5
72E
102
{ACAD_REACTORS
330
6D9
102
}
100
AcDbEntity
  8
0
  6
CONTINUOUS
 62
     7
100
AcDbLine
 10
16.864164
 20
148.505952
 30
0.0
 11
16.864164
 21
141.355952
 31
0.0
  0
LINE
  5
72F
102
{ACAD_REACTORS
330
6D9
102
}
100
AcDbEntity
  8
0
  6
CONTINUOUS
 62
     7
100
AcDbLine
 10
20.864164
 20
148.505952
 30
0.0
 11
20.864164
 21
141.355952
 31
0.0
  0
LINE
  5
730
102
{ACAD_REACTORS
330
6D9
102
}
100
AcDbEntity
  8
0
  6
CONTINUOUS
 62
     7
100
AcDbLine
 10
20.364164
 20
139.355952
 30
0.0
 11
17.364164
 21
139.355952
 31
0.0
  0
LINE
  5
731
102
{ACAD_REACTORS
330
6D9
102
}
100
AcDbEntity
  8
0
  6
CONTINUOUS
 62
     7
100
AcDbLine
 10
17.364164
 20
141.355952
 30
0.0
 11
17.364164
 21
139.355952
 31
0.0
  0
LINE
  5
732
102
{ACAD_REACTORS
330
6D9
102
}
100
AcDbEntity
  8
0
  6
CONTINUOUS
 62
     7
100
AcDbLine
 10
20.364164
 20
141.355952
 30
0.0
 11
20.364164
 21
139.355952
 31
0.0
  0
LINE
  5
733
102
{ACAD_REACTORS
330
6D9
102
}
100
AcDbEntity
  8
0
  6
CONTINUOUS
 62
     7
100
AcDbLine
 10
16.864164
 20
103.605952
 30
0.0
 11
16.864164
 21
110.755952
 31
0.0
  0
LINE
  5
734
102
{ACAD_REACTORS
330
6D9
102
}
100
AcDbEntity
  8
0
  6
CONTINUOUS
 62
     7
100
AcDbLine
 10
20.864164
 20
103.605952
 30
0.0
 11
20.864164
 21
110.755952
 31
0.0
  0
LINE
  5
735
102
{ACAD_REACTORS
330
6D9
102
}
100
AcDbEntity
  8
0
  6
CONTINUOUS
 62
     7
100
AcDbLine
 10
20.364164
 20
112.755952
 30
0.0
 11
17.364164
 21
112.755952
 31
0.0
  0
LINE
  5
736
102
{ACAD_REACTORS
330
6D9
102
}
100
AcDbEntity
  8
0
  6
CONTINUOUS
 62
     7
100
AcDbLine
 10
17.364164
 20
110.755952
 30
0.0
 11
17.364164
 21
112.755952
 31
0.0
  0
LINE
  5
737
102
{ACAD_REACTORS
330
6D9
102
}
100
AcDbEntity
  8
0
  6
CONTINUOUS
 62
     7
100
AcDbLine
 10
20.364164
 20
110.755952
 30
0.0
 11
20.364164
 21
112.755952
 31
0.0
  0
LINE
  5
739
102
{ACAD_REACTORS
330
738
102
}
100
AcDbEntity
  8
GR2_01
  6
CONTINUOUS
100
AcDbLine
 10
29.194164
 20
128.125952
 30
0.0
 11
29.194164
 21
126.525952
 31
0.0
  0
LINE
  5
73A
102
{ACAD_REACTORS
330
738
102
}
100
AcDbEntity
  8
GR2_01
  6
CONTINUOUS
100
AcDbLine
 10
29.994164
 20
128.125952
 30
0.0
 11
29.994164
 21
126.525952
 31
0.0
  0
LINE
  5
73B
102
{ACAD_REACTORS
330
738
102
}
100
AcDbEntity
  8
GR2_01
  6
CONTINUOUS
100
AcDbLine
 10
29.194164
 20
128.125952
 30
0.0
 11
29.994164
 21
128.125952
 31
0.0
  0
LINE
  5
73C
102
{ACAD_REACTORS
330
738
102
}
100
AcDbEntity
  8
GR2_01
  6
CONTINUOUS
100
AcDbLine
 10
29.194164
 20
126.525952
 30
0.0
 11
29.994164
 21
126.525952
 31
0.0
  0
LINE
  5
73D
102
{ACAD_REACTORS
330
738
102
}
100
AcDbEntity
  8
GR2_01
  6
CONTINUOUS
100
AcDbLine
 10
31.734164
 20
128.125952
 30
0.0
 11
31.734164
 21
126.525952
 31
0.0
  0
LINE
  5
73E
102
{ACAD_REACTORS
330
738
102
}
100
AcDbEntity
  8
GR2_01
  6
CONTINUOUS
100
AcDbLine
 10
32.534164
 20
128.125952
 30
0.0
 11
32.534164
 21
126.525952
 31
0.0
  0
LINE
  5
73F
102
{ACAD_REACTORS
330
738
102
}
100
AcDbEntity
  8
GR2_01
  6
CONTINUOUS
100
AcDbLine
 10
31.734164
 20
128.125952
 30
0.0
 11
32.534164
 21
128.125952
 31
0.0
  0
LINE
  5
740
102
{ACAD_REACTORS
330
738
102
}
100
AcDbEntity
  8
GR2_01
  6
CONTINUOUS
100
AcDbLine
 10
31.734164
 20
126.525952
 30
0.0
 11
32.534164
 21
126.525952
 31
0.0
  0
LINE
  5
741
102
{ACAD_REACTORS
330
738
102
}
100
AcDbEntity
  8
GR2_01
  6
CONTINUOUS
100
AcDbLine
 10
29.194164
 20
130.665952
 30
0.0
 11
29.194164
 21
129.065952
 31
0.0
  0
LINE
  5
742
102
{ACAD_REACTORS
330
738
102
}
100
AcDbEntity
  8
GR2_01
  6
CONTINUOUS
100
AcDbLine
 10
29.994164
 20
130.665952
 30
0.0
 11
29.994164
 21
129.065952
 31
0.0
  0
LINE
  5
743
102
{ACAD_REACTORS
330
738
102
}
100
AcDbEntity
  8
GR2_01
  6
CONTINUOUS
100
AcDbLine
 10
29.194164
 20
130.665952
 30
0.0
 11
29.994164
 21
130.665952
 31
0.0
  0
LINE
  5
744
102
{ACAD_REACTORS
330
738
102
}
100
AcDbEntity
  8
GR2_01
  6
CONTINUOUS
100
AcDbLine
 10
29.194164
 20
129.065952
 30
0.0
 11
29.994164
 21
129.065952
 31
0.0
  0
LINE
  5
745
102
{ACAD_REACTORS
330
738
102
}
100
AcDbEntity
  8
GR2_01
  6
CONTINUOUS
100
AcDbLine
 10
31.734164
 20
130.665952
 30
0.0
 11
31.734164
 21
129.065952
 31
0.0
  0
LINE
  5
746
102
{ACAD_REACTORS
330
738
102
}
100
AcDbEntity
  8
GR2_01
  6
CONTINUOUS
100
AcDbLine
 10
32.534164
 20
130.665952
 30
0.0
 11
32.534164
 21
129.065952
 31
0.0
  0
LINE
  5
747
102
{ACAD_REACTORS
330
738
102
}
100
AcDbEntity
  8
GR2_01
  6
CONTINUOUS
100
AcDbLine
 10
31.734164
 20
130.665952
 30
0.0
 11
32.534164
 21
130.665952
 31
0.0
  0
LINE
  5
748
102
{ACAD_REACTORS
330
738
102
}
100
AcDbEntity
  8
GR2_01
  6
CONTINUOUS
100
AcDbLine
 10
31.734164
 20
129.065952
 30
0.0
 11
32.534164
 21
129.065952
 31
0.0
  0
LINE
  5
749
102
{ACAD_REACTORS
330
738
102
}
100
AcDbEntity
  8
GR2_01
  6
CONTINUOUS
100
AcDbLine
 10
29.194164
 20
133.205952
 30
0.0
 11
29.194164
 21
131.605952
 31
0.0
  0
LINE
  5
74A
102
{ACAD_REACTORS
330
738
102
}
100
AcDbEntity
  8
GR2_01
  6
CONTINUOUS
100
AcDbLine
 10
29.994164
 20
133.205952
 30
0.0
 11
29.994164
 21
131.605952
 31
0.0
  0
LINE
  5
74B
102
{ACAD_REACTORS
330
738
102
}
100
AcDbEntity
  8
GR2_01
  6
CONTINUOUS
100
AcDbLine
 10
29.194164
 20
133.205952
 30
0.0
 11
29.994164
 21
133.205952
 31
0.0
  0
LINE
  5
74C
102
{ACAD_REACTORS
330
738
102
}
100
AcDbEntity
  8
GR2_01
  6
CONTINUOUS
100
AcDbLine
 10
29.194164
 20
131.605952
 30
0.0
 11
29.994164
 21
131.605952
 31
0.0
  0
LINE
  5
74D
102
{ACAD_REACTORS
330
738
102
}
100
AcDbEntity
  8
GR2_01
  6
CONTINUOUS
100
AcDbLine
 10
31.734164
 20
133.205952
 30
0.0
 11
31.734164
 21
131.605952
 31
0.0
  0
LINE
  5
74E
102
{ACAD_REACTORS
330
738
102
}
100
AcDbEntity
  8
GR2_01
  6
CONTINUOUS
100
AcDbLine
 10
32.534164
 20
133.205952
 30
0.0
 11
32.534164
 21
131.605952
 31
0.0
  0
LINE
  5
74F
102
{ACAD_REACTORS
330
738
102
}
100
AcDbEntity
  8
GR2_01
  6
CONTINUOUS
100
AcDbLine
 10
31.734164
 20
133.205952
 30
0.0
 11
32.534164
 21
133.205952
 31
0.0
  0
LINE
  5
750
102
{ACAD_REACTORS
330
738
102
}
100
AcDbEntity
  8
GR2_01
  6
CONTINUOUS
100
AcDbLine
 10
31.734164
 20
131.605952
 30
0.0
 11
32.534164
 21
131.605952
 31
0.0
  0
LINE
  5
751
102
{ACAD_REACTORS
330
738
102
}
100
AcDbEntity
  8
GR2_01
  6
CONTINUOUS
100
AcDbLine
 10
29.194164
 20
135.745952
 30
0.0
 11
29.194164
 21
134.145952
 31
0.0
  0
LINE
  5
752
102
{ACAD_REACTORS
330
738
102
}
100
AcDbEntity
  8
GR2_01
  6
CONTINUOUS
100
AcDbLine
 10
29.994164
 20
135.745952
 30
0.0
 11
29.994164
 21
134.145952
 31
0.0
  0
LINE
  5
753
102
{ACAD_REACTORS
330
738
102
}
100
AcDbEntity
  8
GR2_01
  6
CONTINUOUS
100
AcDbLine
 10
29.194164
 20
135.745952
 30
0.0
 11
29.994164
 21
135.745952
 31
0.0
  0
LINE
  5
754
102
{ACAD_REACTORS
330
738
102
}
100
AcDbEntity
  8
GR2_01
  6
CONTINUOUS
100
AcDbLine
 10
29.194164
 20
134.145952
 30
0.0
 11
29.994164
 21
134.145952
 31
0.0
  0
LINE
  5
755
102
{ACAD_REACTORS
330
738
102
}
100
AcDbEntity
  8
GR2_01
  6
CONTINUOUS
100
AcDbLine
 10
31.734164
 20
135.745952
 30
0.0
 11
31.734164
 21
134.145952
 31
0.0
  0
LINE
  5
756
102
{ACAD_REACTORS
330
738
102
}
100
AcDbEntity
  8
GR2_01
  6
CONTINUOUS
100
AcDbLine
 10
32.534164
 20
135.745952
 30
0.0
 11
32.534164
 21
134.145952
 31
0.0
  0
LINE
  5
757
102
{ACAD_REACTORS
330
738
102
}
100
AcDbEntity
  8
GR2_01
  6
CONTINUOUS
100
AcDbLine
 10
31.734164
 20
135.745952
 30
0.0
 11
32.534164
 21
135.745952
 31
0.0
  0
LINE
  5
758
102
{ACAD_REACTORS
330
738
102
}
100
AcDbEntity
  8
GR2_01
  6
CONTINUOUS
100
AcDbLine
 10
31.734164
 20
134.145952
 30
0.0
 11
32.534164
 21
134.145952
 31
0.0
  0
LINE
  5
759
102
{ACAD_REACTORS
330
738
102
}
100
AcDbEntity
  8
GR2_01
  6
CONTINUOUS
100
AcDbLine
 10
29.194164
 20
138.285952
 30
0.0
 11
29.194164
 21
136.685952
 31
0.0
  0
LINE
  5
75A
102
{ACAD_REACTORS
330
738
102
}
100
AcDbEntity
  8
GR2_01
  6
CONTINUOUS
100
AcDbLine
 10
29.994164
 20
138.285952
 30
0.0
 11
29.994164
 21
136.685952
 31
0.0
  0
LINE
  5
75B
102
{ACAD_REACTORS
330
738
102
}
100
AcDbEntity
  8
GR2_01
  6
CONTINUOUS
100
AcDbLine
 10
29.194164
 20
138.285952
 30
0.0
 11
29.994164
 21
138.285952
 31
0.0
  0
LINE
  5
75C
102
{ACAD_REACTORS
330
738
102
}
100
AcDbEntity
  8
GR2_01
  6
CONTINUOUS
100
AcDbLine
 10
29.194164
 20
136.685952
 30
0.0
 11
29.994164
 21
136.685952
 31
0.0
  0
LINE
  5
75D
102
{ACAD_REACTORS
330
738
102
}
100
AcDbEntity
  8
GR2_01
  6
CONTINUOUS
100
AcDbLine
 10
31.734164
 20
138.285952
 30
0.0
 11
31.734164
 21
136.685952
 31
0.0
  0
LINE
  5
75E
102
{ACAD_REACTORS
330
738
102
}
100
AcDbEntity
  8
GR2_01
  6
CONTINUOUS
100
AcDbLine
 10
32.534164
 20
138.285952
 30
0.0
 11
32.534164
 21
136.685952
 31
0.0
  0
LINE
  5
75F
102
{ACAD_REACTORS
330
738
102
}
100
AcDbEntity
  8
GR2_01
  6
CONTINUOUS
100
AcDbLine
 10
31.734164
 20
138.285952
 30
0.0
 11
32.534164
 21
138.285952
 31
0.0
  0
LINE
  5
760
102
{ACAD_REACTORS
330
738
102
}
100
AcDbEntity
  8
GR2_01
  6
CONTINUOUS
100
AcDbLine
 10
31.734164
 20
136.685952
 30
0.0
 11
32.534164
 21
136.685952
 31
0.0
  0
LINE
  5
761
102
{ACAD_REACTORS
330
738
102
}
100
AcDbEntity
  8
GR2_01
  6
CONTINUOUS
100
AcDbLine
 10
29.194164
 20
123.985952
 30
0.0
 11
29.194164
 21
125.585952
 31
0.0
  0
LINE
  5
762
102
{ACAD_REACTORS
330
738
102
}
100
AcDbEntity
  8
GR2_01
  6
CONTINUOUS
100
AcDbLine
 10
29.994164
 20
123.985952
 30
0.0
 11
29.994164
 21
125.585952
 31
0.0
  0
LINE
  5
763
102
{ACAD_REACTORS
330
738
102
}
100
AcDbEntity
  8
GR2_01
  6
CONTINUOUS
100
AcDbLine
 10
29.194164
 20
123.985952
 30
0.0
 11
29.994164
 21
123.985952
 31
0.0
  0
LINE
  5
764
102
{ACAD_REACTORS
330
738
102
}
100
AcDbEntity
  8
GR2_01
  6
CONTINUOUS
100
AcDbLine
 10
29.194164
 20
125.585952
 30
0.0
 11
29.994164
 21
125.585952
 31
0.0
  0
LINE
  5
765
102
{ACAD_REACTORS
330
738
102
}
100
AcDbEntity
  8
GR2_01
  6
CONTINUOUS
100
AcDbLine
 10
31.734164
 20
123.985952
 30
0.0
 11
31.734164
 21
125.585952
 31
0.0
  0
LINE
  5
766
102
{ACAD_REACTORS
330
738
102
}
100
AcDbEntity
  8
GR2_01
  6
CONTINUOUS
100
AcDbLine
 10
32.534164
 20
123.985952
 30
0.0
 11
32.534164
 21
125.585952
 31
0.0
  0
LINE
  5
767
102
{ACAD_REACTORS
330
738
102
}
100
AcDbEntity
  8
GR2_01
  6
CONTINUOUS
100
AcDbLine
 10
31.734164
 20
123.985952
 30
0.0
 11
32.534164
 21
123.985952
 31
0.0
  0
LINE
  5
768
102
{ACAD_REACTORS
330
738
102
}
100
AcDbEntity
  8
GR2_01
  6
CONTINUOUS
100
AcDbLine
 10
31.734164
 20
125.585952
 30
0.0
 11
32.534164
 21
125.585952
 31
0.0
  0
LINE
  5
769
102
{ACAD_REACTORS
330
738
102
}
100
AcDbEntity
  8
GR2_01
  6
CONTINUOUS
100
AcDbLine
 10
29.194164
 20
121.445952
 30
0.0
 11
29.194164
 21
123.045952
 31
0.0
  0
LINE
  5
76A
102
{ACAD_REACTORS
330
738
102
}
100
AcDbEntity
  8
GR2_01
  6
CONTINUOUS
100
AcDbLine
 10
29.994164
 20
121.445952
 30
0.0
 11
29.994164
 21
123.045952
 31
0.0
  0
LINE
  5
76B
102
{ACAD_REACTORS
330
738
102
}
100
AcDbEntity
  8
GR2_01
  6
CONTINUOUS
100
AcDbLine
 10
29.194164
 20
121.445952
 30
0.0
 11
29.994164
 21
121.445952
 31
0.0
  0
LINE
  5
76C
102
{ACAD_REACTORS
330
738
102
}
100
AcDbEntity
  8
GR2_01
  6
CONTINUOUS
100
AcDbLine
 10
29.194164
 20
123.045952
 30
0.0
 11
29.994164
 21
123.045952
 31
0.0
  0
LINE
  5
76D
102
{ACAD_REACTORS
330
738
102
}
100
AcDbEntity
  8
GR2_01
  6
CONTINUOUS
100
AcDbLine
 10
31.734164
 20
121.445952
 30
0.0
 11
31.734164
 21
123.045952
 31
0.0
  0
LINE
  5
76E
102
{ACAD_REACTORS
330
738
102
}
100
AcDbEntity
  8
GR2_01
  6
CONTINUOUS
100
AcDbLine
 10
32.534164
 20
121.445952
 30
0.0
 11
32.534164
 21
123.045952
 31
0.0
  0
LINE
  5
76F
102
{ACAD_REACTORS
330
738
102
}
100
AcDbEntity
  8
GR2_01
  6
CONTINUOUS
100
AcDbLine
 10
31.734164
 20
121.445952
 30
0.0
 11
32.534164
 21
121.445952
 31
0.0
  0
LINE
  5
770
102
{ACAD_REACTORS
330
738
102
}
100
AcDbEntity
  8
GR2_01
  6
CONTINUOUS
100
AcDbLine
 10
31.734164
 20
123.045952
 30
0.0
 11
32.534164
 21
123.045952
 31
0.0
  0
LINE
  5
771
102
{ACAD_REACTORS
330
738
102
}
100
AcDbEntity
  8
GR2_01
  6
CONTINUOUS
100
AcDbLine
 10
29.194164
 20
118.905952
 30
0.0
 11
29.194164
 21
120.505952
 31
0.0
  0
LINE
  5
772
102
{ACAD_REACTORS
330
738
102
}
100
AcDbEntity
  8
GR2_01
  6
CONTINUOUS
100
AcDbLine
 10
29.994164
 20
118.905952
 30
0.0
 11
29.994164
 21
120.505952
 31
0.0
  0
LINE
  5
773
102
{ACAD_REACTORS
330
738
102
}
100
AcDbEntity
  8
GR2_01
  6
CONTINUOUS
100
AcDbLine
 10
29.194164
 20
118.905952
 30
0.0
 11
29.994164
 21
118.905952
 31
0.0
  0
LINE
  5
774
102
{ACAD_REACTORS
330
738
102
}
100
AcDbEntity
  8
GR2_01
  6
CONTINUOUS
100
AcDbLine
 10
29.194164
 20
120.505952
 30
0.0
 11
29.994164
 21
120.505952
 31
0.0
  0
LINE
  5
775
102
{ACAD_REACTORS
330
738
102
}
100
AcDbEntity
  8
GR2_01
  6
CONTINUOUS
100
AcDbLine
 10
31.734164
 20
118.905952
 30
0.0
 11
31.734164
 21
120.505952
 31
0.0
  0
LINE
  5
776
102
{ACAD_REACTORS
330
738
102
}
100
AcDbEntity
  8
GR2_01
  6
CONTINUOUS
100
AcDbLine
 10
32.534164
 20
118.905952
 30
0.0
 11
32.534164
 21
120.505952
 31
0.0
  0
LINE
  5
777
102
{ACAD_REACTORS
330
738
102
}
100
AcDbEntity
  8
GR2_01
  6
CONTINUOUS
100
AcDbLine
 10
31.734164
 20
118.905952
 30
0.0
 11
32.534164
 21
118.905952
 31
0.0
  0
LINE
  5
778
102
{ACAD_REACTORS
330
738
102
}
100
AcDbEntity
  8
GR2_01
  6
CONTINUOUS
100
AcDbLine
 10
31.734164
 20
120.505952
 30
0.0
 11
32.534164
 21
120.505952
 31
0.0
  0
LINE
  5
779
102
{ACAD_REACTORS
330
738
102
}
100
AcDbEntity
  8
GR2_01
  6
CONTINUOUS
100
AcDbLine
 10
29.194164
 20
116.365952
 30
0.0
 11
29.194164
 21
117.965952
 31
0.0
  0
LINE
  5
77A
102
{ACAD_REACTORS
330
738
102
}
100
AcDbEntity
  8
GR2_01
  6
CONTINUOUS
100
AcDbLine
 10
29.994164
 20
116.365952
 30
0.0
 11
29.994164
 21
117.965952
 31
0.0
  0
LINE
  5
77B
102
{ACAD_REACTORS
330
738
102
}
100
AcDbEntity
  8
GR2_01
  6
CONTINUOUS
100
AcDbLine
 10
29.194164
 20
116.365952
 30
0.0
 11
29.994164
 21
116.365952
 31
0.0
  0
LINE
  5
77C
102
{ACAD_REACTORS
330
738
102
}
100
AcDbEntity
  8
GR2_01
  6
CONTINUOUS
100
AcDbLine
 10
29.194164
 20
117.965952
 30
0.0
 11
29.994164
 21
117.965952
 31
0.0
  0
LINE
  5
77D
102
{ACAD_REACTORS
330
738
102
}
100
AcDbEntity
  8
GR2_01
  6
CONTINUOUS
100
AcDbLine
 10
31.734164
 20
116.365952
 30
0.0
 11
31.734164
 21
117.965952
 31
0.0
  0
LINE
  5
77E
102
{ACAD_REACTORS
330
738
102
}
100
AcDbEntity
  8
GR2_01
  6
CONTINUOUS
100
AcDbLine
 10
32.534164
 20
116.365952
 30
0.0
 11
32.534164
 21
117.965952
 31
0.0
  0
LINE
  5
77F
102
{ACAD_REACTORS
330
738
102
}
100
AcDbEntity
  8
GR2_01
  6
CONTINUOUS
100
AcDbLine
 10
31.734164
 20
116.365952
 30
0.0
 11
32.534164
 21
116.365952
 31
0.0
  0
LINE
  5
780
102
{ACAD_REACTORS
330
738
102
}
100
AcDbEntity
  8
GR2_01
  6
CONTINUOUS
100
AcDbLine
 10
31.734164
 20
117.965952
 30
0.0
 11
32.534164
 21
117.965952
 31
0.0
  0
LINE
  5
781
102
{ACAD_REACTORS
330
738
102
}
100
AcDbEntity
  8
GR2_01
  6
CONTINUOUS
100
AcDbLine
 10
29.194164
 20
113.825952
 30
0.0
 11
29.194164
 21
115.425952
 31
0.0
  0
LINE
  5
782
102
{ACAD_REACTORS
330
738
102
}
100
AcDbEntity
  8
GR2_01
  6
CONTINUOUS
100
AcDbLine
 10
29.994164
 20
113.825952
 30
0.0
 11
29.994164
 21
115.425952
 31
0.0
  0
LINE
  5
783
102
{ACAD_REACTORS
330
738
102
}
100
AcDbEntity
  8
GR2_01
  6
CONTINUOUS
100
AcDbLine
 10
29.194164
 20
113.825952
 30
0.0
 11
29.994164
 21
113.825952
 31
0.0
  0
LINE
  5
784
102
{ACAD_REACTORS
330
738
102
}
100
AcDbEntity
  8
GR2_01
  6
CONTINUOUS
100
AcDbLine
 10
29.194164
 20
115.425952
 30
0.0
 11
29.994164
 21
115.425952
 31
0.0
  0
LINE
  5
785
102
{ACAD_REACTORS
330
738
102
}
100
AcDbEntity
  8
GR2_01
  6
CONTINUOUS
100
AcDbLine
 10
31.734164
 20
113.825952
 30
0.0
 11
31.734164
 21
115.425952
 31
0.0
  0
LINE
  5
786
102
{ACAD_REACTORS
330
738
102
}
100
AcDbEntity
  8
GR2_01
  6
CONTINUOUS
100
AcDbLine
 10
32.534164
 20
113.825952
 30
0.0
 11
32.534164
 21
115.425952
 31
0.0
  0
LINE
  5
787
102
{ACAD_REACTORS
330
738
102
}
100
AcDbEntity
  8
GR2_01
  6
CONTINUOUS
100
AcDbLine
 10
31.734164
 20
113.825952
 30
0.0
 11
32.534164
 21
113.825952
 31
0.0
  0
LINE
  5
788
102
{ACAD_REACTORS
330
738
102
}
100
AcDbEntity
  8
GR2_01
  6
CONTINUOUS
100
AcDbLine
 10
31.734164
 20
115.425952
 30
0.0
 11
32.534164
 21
115.425952
 31
0.0
  0
LINE
  5
789
102
{ACAD_REACTORS
330
738
102
}
100
AcDbEntity
  8
0
  6
CONTINUOUS
 62
     7
100
AcDbLine
 10
27.864164
 20
141.355952
 30
0.0
 11
27.864164
 21
110.755952
 31
0.0
  0
LINE
  5
78A
102
{ACAD_REACTORS
330
738
102
}
100
AcDbEntity
  8
0
  6
CONTINUOUS
 62
     7
100
AcDbLine
 10
27.864164
 20
110.755952
 30
0.0
 11
33.864164
 21
110.755952
 31
0.0
  0
LINE
  5
78B
102
{ACAD_REACTORS
330
738
102
}
100
AcDbEntity
  8
0
  6
CONTINUOUS
 62
     7
100
AcDbLine
 10
33.864164
 20
110.755952
 30
0.0
 11
33.864164
 21
141.355952
 31
0.0
  0
LINE
  5
78C
102
{ACAD_REACTORS
330
738
102
}
100
AcDbEntity
  8
0
  6
CONTINUOUS
 62
     7
100
AcDbLine
 10
33.864164
 20
141.355952
 30
0.0
 11
27.864164
 21
141.355952
 31
0.0
  0
LINE
  5
78D
102
{ACAD_REACTORS
330
738
102
}
100
AcDbEntity
  8
0
  6
CONTINUOUS
 62
     7
100
AcDbLine
 10
28.864164
 20
148.505952
 30
0.0
 11
28.864164
 21
141.355952
 31
0.0
  0
LINE
  5
78E
102
{ACAD_REACTORS
330
738
102
}
100
AcDbEntity
  8
0
  6
CONTINUOUS
 62
     7
100
AcDbLine
 10
32.864164
 20
148.505952
 30
0.0
 11
32.864164
 21
141.355952
 31
0.0
  0
LINE
  5
78F
102
{ACAD_REACTORS
330
738
102
}
100
AcDbEntity
  8
0
  6
CONTINUOUS
 62
     7
100
AcDbLine
 10
32.364164
 20
139.355952
 30
0.0
 11
29.364164
 21
139.355952
 31
0.0
  0
LINE
  5
790
102
{ACAD_REACTORS
330
738
102
}
100
AcDbEntity
  8
0
  6
CONTINUOUS
 62
     7
100
AcDbLine
 10
29.364164
 20
141.355952
 30
0.0
 11
29.364164
 21
139.355952
 31
0.0
  0
LINE
  5
791
102
{ACAD_REACTORS
330
738
102
}
100
AcDbEntity
  8
0
  6
CONTINUOUS
 62
     7
100
AcDbLine
 10
32.364164
 20
141.355952
 30
0.0
 11
32.364164
 21
139.355952
 31
0.0
  0
LINE
  5
792
102
{ACAD_REACTORS
330
738
102
}
100
AcDbEntity
  8
0
  6
CONTINUOUS
 62
     7
100
AcDbLine
 10
28.864164
 20
103.605952
 30
0.0
 11
28.864164
 21
110.755952
 31
0.0
  0
LINE
  5
793
102
{ACAD_REACTORS
330
738
102
}
100
AcDbEntity
  8
0
  6
CONTINUOUS
 62
     7
100
AcDbLine
 10
32.864164
 20
103.605952
 30
0.0
 11
32.864164
 21
110.755952
 31
0.0
  0
LINE
  5
794
102
{ACAD_REACTORS
330
738
102
}
100
AcDbEntity
  8
0
  6
CONTINUOUS
 62
     7
100
AcDbLine
 10
32.364164
 20
112.755952
 30
0.0
 11
29.364164
 21
112.755952
 31
0.0
  0
LINE
  5
795
102
{ACAD_REACTORS
330
738
102
}
100
AcDbEntity
  8
0
  6
CONTINUOUS
 62
     7
100
AcDbLine
 10
29.364164
 20
110.755952
 30
0.0
 11
29.364164
 21
112.755952
 31
0.0
  0
LINE
  5
796
102
{ACAD_REACTORS
330
738
102
}
100
AcDbEntity
  8
0
  6
CONTINUOUS
 62
     7
100
AcDbLine
 10
32.364164
 20
110.755952
 30
0.0
 11
32.364164
 21
112.755952
 31
0.0
  0
LINE
  5
797
100
AcDbEntity
  8
0
  6
CONTINUOUS
 62
     7
100
AcDbLine
 10
42.634164
 20
20.382245
 30
0.0
 11
55.564164
 21
20.382245
 31
0.0
  0
LINE
  5
798
100
AcDbEntity
  8
0
  6
CONTINUOUS
 62
   153
100
AcDbLine
 10
229.526232
 20
154.155952
 30
0.0
 11
234.226232
 21
154.155952
 31
0.0
  0
LWPOLYLINE
  5
799
100
AcDbEntity
  8
0
  6
CONTINUOUS
 62
   254
100
AcDbPolyline
 90
        3
 70
     0
 10
234.226232
 20
154.155952
 10
234.226232
 20
163.155952
 10
234.226232
 20
162.255952
  0
ARC
  5
79A
100
AcDbEntity
  8
0
  6
CONTINUOUS
 62
     7
100
AcDbCircle
 10
75.564164
 20
87.205952
 30
0.0
 40
1.75
100
AcDbArc
 50
188.213211
 51
351.786789
  0
LINE
  5
79B
100
AcDbEntity
  8
0
  6
CONTINUOUS
 62
     7
100
AcDbLine
 10
77.296215
 20
86.955952
 30
0.0
 11
79.564164
 21
86.955952
 31
0.0
  0
LINE
  5
79C
100
AcDbEntity
  8
0
  6
CONTINUOUS
 62
     7
100
AcDbLine
 10
71.564164
 20
86.955952
 30
0.0
 11
73.832113
 21
86.955952
 31
0.0
  0
LINE
  5
79E
102
{ACAD_REACTORS
330
7A6
102
}
100
AcDbEntity
  8
0
  6
CONTINUOUS
 62
     7
100
AcDbLine
 10
26.564404
 20
98.580515
 30
0.0
 11
26.564404
 21
93.330956
 31
0.0
  0
SPLINE
  5
79F
102
{ACAD_REACTORS
330
7A6
102
}
100
AcDbEntity
  8
0
  6
CONTINUOUS
 62
     7
100
AcDbSpline
210
0.0
220
0.0
230
1.0
 70
     8
 71
     3
 72
     8
 73
     4
 74
     0
 42
0.0000001
 43
0.0000001
 40
0.0
 40
0.0
 40
0.0
 40
0.0
 40
1.0
 40
1.0
 40
1.0
 40
1.0
 10
26.5644040404443977
 20
93.3309560393176127
 30
0.0
 10
26.5644040404443942
 20
93.1246673315973936
 30
0.0
 10
26.3952583808206107
 20
92.9559219219963779
 30
0.0
 10
26.1891696440948891
 20
92.9559219219963779
 30
0.0
  0
LINE
  5
7A0
102
{ACAD_REACTORS
330
7A6
102
}
100
AcDbEntity
  8
0
  6
CONTINUOUS
 62
     7
100
AcDbLine
 10
26.18917
 20
92.955922
 30
0.0
 11
20.939398
 21
92.955922
 31
0.0
  0
SPLINE
  5
7A1
102
{ACAD_REACTORS
330
7A6
102
}
100
AcDbEntity
  8
0
  6
CONTINUOUS
 62
     7
100
AcDbSpline
210
0.0
220
0.0
230
1.0
 70
     8
 71
     3
 72
     8
 73
     4
 74
     0
 42
0.0000001
 43
0.0000001
 40
0.0
 40
0.0
 40
0.0
 40
0.0
 40
1.0
 40
1.0
 40
1.0
 40
1.0
 10
20.9393982879015219
 20
92.9559219219963779
 30
0.0
 10
20.7331094261644182
 20
92.9559219219963779
 30
0.0
 10
20.5641638915520133
 20
93.1246673315973794
 30
0.0
 10
20.5641638915520133
 20
93.3309561933345009
 30
0.0
  0
LINE
  5
7A2
102
{ACAD_REACTORS
330
7A6
102
}
100
AcDbEntity
  8
0
  6
CONTINUOUS
 62
     7
100
AcDbLine
 10
20.564164
 20
93.330956
 30
0.0
 11
20.564164
 21
98.580515
 31
0.0
  0
SPLINE
  5
7A3
102
{ACAD_REACTORS
330
7A6
102
}
100
AcDbEntity
  8
0
  6
CONTINUOUS
 62
     7
100
AcDbSpline
210
0.0
220
0.0
230
1.0
 70
     8
 71
     3
 72
     8
 73
     4
 74
     0
 42
0.0000001
 43
0.0000001
 40
0.0
 40
0.0
 40
0.0
 40
0.0
 40
1.0
 40
1.0
 40
1.0
 40
1.0
 10
20.5641638915520133
 20
98.5805154170157323
 30
0.0
 10
20.5641638915520133
 20
98.7870444287665066
 30
0.0
 10
20.7331094261644182
 20
98.9559499383766195
 30
0.0
 10
20.9393982879015219
 20
98.9559499383766195
 30
0.0
  0
LINE
  5
7A4
102
{ACAD_REACTORS
330
7A6
102
}
100
AcDbEntity
  8
0
  6
CONTINUOUS
 62
     7
100
AcDbLine
 10
20.939398
 20
98.95595
 30
0.0
 11
26.18917
 21
98.95595
 31
0.0
  0
SPLINE
  5
7A5
102
{ACAD_REACTORS
330
7A6
102
}
100
AcDbEntity
  8
0
  6
CONTINUOUS
 62
     7
100
AcDbSpline
210
0.0
220
0.0
230
1.0
 70
     8
 71
     3
 72
     8
 73
     4
 74
     0
 42
0.0000001
 43
0.0000001
 40
0.0
 40
0.0
 40
0.0
 40
0.0
 40
1.0
 40
1.0
 40
1.0
 40
1.0
 10
26.1891696440948856
 20
98.9559499383766052
 30
0.0
 10
26.3952583808206107
 20
98.9559499383766195
 30
0.0
 10
26.5644040404443977
 20
98.7870444287665066
 30
0.0
 10
26.5644040404443977
 20
98.5805154170157749
 30
0.0
  0
HATCH
  5
7A6
102
{ACAD_REACTORS
330
79D
102
}
100
AcDbEntity
  8
0
 62
     7
100
AcDbHatch
 10
0.0
 20
0.0
 30
0.0
210
0.0
220
0.0
230
1.0
  2
SOLID
 70
     1
 71
     1
 91
        4
 92
        1
 93
        8
 72
     1
 10
26.5644040404443977
 20
98.5805154170157323
 11
26.5644040404443977
 21
93.3309560393176127
 72
     4
 94
        3
 73
     0
 74
     0
 95
        8
 96
        4
 40
0.0
 40
0.0
 40
0.0
 40
0.0
 40
1.0
 40
1.0
 40
1.0
 40
1.0
 10
26.5644040404443977
 20
93.3309560393176127
 10
26.5644040404443942
 20
93.1246673315973936
 10
26.3952583808206107
 20
92.9559219219963779
 10
26.1891696440948891
 20
92.9559219219963779
 72
     1
 10
26.1891696440948891
 20
92.9559219219963779
 11
20.9393982879015219
 21
92.9559219219963779
 72
     4
 94
        3
 73
     0
 74
     0
 95
        8
 96
        4
 40
0.0
 40
0.0
 40
0.0
 40
0.0
 40
1.0
 40
1.0
 40
1.0
 40
1.0
 10
20.9393982879015219
 20
92.9559219219963779
 10
20.7331094261644182
 20
92.9559219219963779
 10
20.5641638915520133
 20
93.1246673315973794
 10
20.5641638915520133
 20
93.3309561933345009
 72
     1
 10
20.5641638915520133
 20
93.3309561933345009
 11
20.5641638915520133
 21
98.5805154170157323
 72
     4
 94
        3
 73
     0
 74
     0
 95
        8
 96
        4
 40
0.0
 40
0.0
 40
0.0
 40
0.0
 40
1.0
 40
1.0
 40
1.0
 40
1.0
 10
20.5641638915520133
 20
98.5805154170157323
 10
20.5641638915520133
 20
98.7870444287665066
 10
20.7331094261644182
 20
98.9559499383766195
 10
20.9393982879015219
 20
98.9559499383766195
 72
     1
 10
20.9393982879015219
 20
98.9559499383766195
 11
26.1891696440948856
 21
98.9559499383766052
 72
     4
 94
        3
 73
     0
 74
     0
 95
        8
 96
        4
 40
0.0
 40
0.0
 40
0.0
 40
0.0
 40
1.0
 40
1.0
 40
1.0
 40
1.0
 10
26.1891696440948856
 20
98.9559499383766052
 10
26.3952583808206107
 20
98.9559499383766195
 10
26.5644040404443977
 20
98.7870444287665066
 10
26.5644040404443977
 20
98.5805154170157749
 97
        8
330
79E
330
79F
330
7A0
330
7A1
330
7A2
330
7A3
330
7A4
330
7A5
 92
        1
 93
        4
 72
     4
 94
        3
 73
     0
 74
     0
 95
        8
 96
        4
 40
0.0
 40
0.0
 40
0.0
 40
0.0
 40
1.0
 40
1.0
 40
1.0
 40
1.0
 10
24.7108862099858051
 20
95.548501419504916
 10
24.6446048062146126
 20
95.4162588119807964
 10
24.5213277992005878
 20
95.3065903057410111
 10
24.3762371659454367
 20
95.1960812744534621
 72
     1
 10
24.3762371659454367
 20
95.1960812744534621
 11
25.9319289544588081
 21
94.2505706456572767
 72
     1
 10
25.9319289544588081
 20
94.2505706456572767
 11
24.9573201490070211
 21
95.9011216895677734
 72
     4
 94
        3
 73
     0
 74
     0
 95
        8
 96
        4
 40
0.0
 40
0.0
 40
0.0
 40
0.0
 40
1.0
 40
1.0
 40
1.0
 40
1.0
 10
24.9573201490070211
 20
95.9011216895677734
 10
24.7926973146405523
 20
95.7966564336240509
 10
24.7692426633060734
 20
95.743223055583897
 10
24.7108862099858051
 20
95.548501419504916
 97
        4
330
7A7
330
7A8
330
7A9
330
7AA
 92
        1
 93
        5
 72
     1
 10
24.410498567894809
 20
96.8271001172526553
 11
23.5966701965908534
 21
98.2054811456776235
 72
     1
 10
23.5966701965908534
 20
98.2054811456776235
 11
22.4948419214007416
 21
96.3404361145631896
 72
     1
 10
22.4948419214007416
 20
96.3404361145631896
 11
22.6952671203042264
 21
96.2183598576174859
 72
     4
 94
        3
 73
     0
 74
     0
 95
        8
 96
        4
 40
0.0
 40
0.0
 40
0.0
 40
0.0
 40
1.0
 40
1.0
 40
1.0
 40
1.0
 10
22.6952671203042264
 20
96.2183598576174859
 10
22.8516047791993095
 20
96.427730644529916
 10
23.0214308638618128
 20
96.4596305713449595
 10
23.5966701965908463
 20
96.4913303731485428
 72
     4
 94
        3
 73
     0
 74
     0
 95
        8
 96
        4
 40
0.0
 40
0.0
 40
0.0
 40
0.0
 40
1.0
 40
1.0
 40
1.0
 40
1.0
 10
23.5966701965908463
 20
96.4913303731485428
 10
24.1206375014027579
 20
96.5315154754349294
 10
24.189920780344746
 20
96.5723009527554836
 10
24.4104985678948232
 20
96.8271001172526695
 97
        5
330
7AB
330
7AC
330
7AD
330
7AE
330
7AF
 92
        1
 93
       15
 72
     1
 10
25.6658425641036771
 20
93.7057503146589568
 11
20.9393983275457067
 21
93.705750381805359
 72
     1
 10
20.9393983275457067
 20
93.705750381805359
 11
22.1880062465055516
 21
95.8205513629969943
 72
     1
 10
22.1880062465055516
 20
95.8205513629969943
 11
22.3491349031105244
 21
95.7222099293883275
 72
     4
 94
        3
 73
     0
 74
     0
 95
        8
 96
        4
 40
0.0
 40
0.0
 40
0.0
 40
0.0
 40
1.0
 40
1.0
 40
1.0
 40
1.0
 10
22.3491349031105244
 20
95.7222099293883275
 10
22.1880062514428928
 20
95.514600242576094
 10
22.129381630607341
 20
95.3904026605096789
 10
22.0963690087290665
 20
95.2915809298870613
 72
     4
 94
        3
 73
     0
 74
     0
 95
        8
 96
        4
 40
0.0
 40
0.0
 40
0.0
 40
0.0
 40
1.0
 40
1.0
 40
1.0
 40
1.0
 10
22.0963690087290665
 20
95.2915809298870613
 10
22.0535942887952991
 20
95.1625803475473901
 10
22.0535942887952991
 20
94.9486867353775779
 10
22.182362726121795
 20
94.7773397006285592
 72
     4
 94
        3
 73
     0
 74
     0
 95
        8
 96
        4
 40
0.0
 40
0.0
 40
0.0
 40
0.0
 40
1.0
 40
1.0
 40
1.0
 40
1.0
 10
22.182362726121795
 20
94.7773397006285592
 10
22.4820299181718148
 20
93.9200842018538111
 10
22.5035233443947007
 20
93.8985907756308791
 10
22.6107983554982503
 20
93.8985907756308791
 72
     4
 94
        3
 73
     0
 74
     0
 95
        8
 96
        4
 40
0.0
 40
0.0
 40
0.0
 40
0.0
 40
1.0
 40
1.0
 40
1.0
 40
1.0
 10
22.6107983554982503
 20
93.8985907756308791
 10
22.8678949551261397
 20
93.9413374780630335
 10
22.8678949551261432
 20
94.4343254311122564
 10
22.6325119192336857
 20
94.7128594219599051
 72
     4
 94
        3
 73
     0
 74
     0
 95
        8
 96
        4
 40
0.0
 40
0.0
 40
0.0
 40
0.0
 40
1.0
 40
1.0
 40
1.0
 40
1.0
 10
22.6325119192336857
 20
94.7128594219599051
 10
22.696355800366149
 20
94.819726178040213
 10
22.696355800366149
 20
95.1198336451152926
 10
22.6107983554982503
 20
95.1625803475473901
 72
     4
 94
        3
 73
     0
 74
     0
 95
        8
 96
        4
 40
0.0
 40
0.0
 40
0.0
 40
0.0
 40
1.0
 40
1.0
 40
1.0
 40
1.0
 10
22.6107983554982503
 20
95.1625803475473901
 10
22.6820268495509154
 20
95.2164540006126145
 10
22.7538997461401955
 20
95.3003063803835317
 10
22.8375159792418643
 20
95.4253845119866071
 72
     1
 10
22.8375159792418643
 20
95.4253845119866071
 11
23.3228191310097088
 21
95.1302401457073614
 72
     4
 94
        3
 73
     0
 74
     0
 95
        8
 96
        4
 40
0.0
 40
0.0
 40
0.0
 40
0.0
 40
1.0
 40
1.0
 40
1.0
 40
1.0
 10
23.3228191310097088
 20
95.1302401457073614
 10
23.1814508229663545
 20
94.9634559612179459
 10
23.0767854420112926
 20
94.9332771095008781
 10
23.0392419898751903
 20
94.819726178040213
 72
     4
 94
        3
 73
     0
 74
     0
 95
        8
 96
        4
 40
0.0
 40
0.0
 40
0.0
 40
0.0
 40
1.0
 40
1.0
 40
1.0
 40
1.0
 10
23.0392419898751903
 20
94.819726178040213
 10
22.9106816825605435
 20
94.7343928731850724
 10
22.8678949551261397
 20
93.8985907756308791
 10
23.1250155697553659
 20
93.8985907756308791
 72
     4
 94
        3
 73
     0
 74
     0
 95
        8
 96
        4
 40
0.0
 40
0.0
 40
0.0
 40
0.0
 40
0.56566
 40
0.56566
 40
0.56566
 40
0.56566
 10
23.1250155697553659
 20
93.8985907756308791
 10
23.3065699529026027
 20
93.8985907756308791
 10
23.36798345286482
 20
94.1089813980553203
 10
23.4683555389277068
 20
94.3387520014936314
 72
     4
 94
        3
 73
     0
 74
     0
 95
        8
 96
        4
 40
0.0
 40
0.0
 40
0.0
 40
0.0
 40
0.43434
 40
0.43434
 40
0.43434
 40
0.43434
 10
23.4683555389277068
 20
94.3387520014936314
 10
23.5454260113643414
 20
94.5151808240243554
 10
23.6454660783188366
 20
94.7030358904260083
 10
23.8405025262597903
 20
94.8158437432130512
 72
     1
 10
23.8405025262597903
 20
94.8158437432130512
 11
25.6658427393194408
 21
93.7057503146589568
 97
       15
330
7B0
330
7B1
330
7B2
330
7B3
330
7B4
330
7B5
330
7B6
330
7B7
330
7B8
330
7B9
330
7BA
330
7BB
330
7BC
330
7BD
330
7BE
 75
     0
 76
     1
 98
        0
  0
SPLINE
  5
7A7
102
{ACAD_REACTORS
330
7A6
102
}
100
AcDbEntity
  8
0
  6
CONTINUOUS
 62
     7
100
AcDbSpline
210
0.0
220
0.0
230
1.0
 70
     8
 71
     3
 72
     8
 73
     4
 74
     0
 42
0.0000001
 43
0.0000001
 40
0.0
 40
0.0
 40
0.0
 40
0.0
 40
1.0
 40
1.0
 40
1.0
 40
1.0
 10
24.7108862099858051
 20
95.548501419504916
 30
0.0
 10
24.6446048062146126
 20
95.4162588119807964
 30
0.0
 10
24.5213277992005878
 20
95.3065903057410111
 30
0.0
 10
24.3762371659454367
 20
95.1960812744534621
 30
0.0
  0
LINE
  5
7A8
102
{ACAD_REACTORS
330
7A6
102
}
100
AcDbEntity
  8
0
  6
CONTINUOUS
 62
     7
100
AcDbLine
 10
24.376237
 20
95.196081
 30
0.0
 11
25.931929
 21
94.250571
 31
0.0
  0
LINE
  5
7A9
102
{ACAD_REACTORS
330
7A6
102
}
100
AcDbEntity
  8
0
  6
CONTINUOUS
 62
     7
100
AcDbLine
 10
25.931929
 20
94.250571
 30
0.0
 11
24.95732
 21
95.901122
 31
0.0
  0
SPLINE
  5
7AA
102
{ACAD_REACTORS
330
7A6
102
}
100
AcDbEntity
  8
0
  6
CONTINUOUS
 62
     7
100
AcDbSpline
210
0.0
220
0.0
230
1.0
 70
     8
 71
     3
 72
     8
 73
     4
 74
     0
 42
0.0000001
 43
0.0000001
 40
0.0
 40
0.0
 40
0.0
 40
0.0
 40
1.0
 40
1.0
 40
1.0
 40
1.0
 10
24.9573201490070211
 20
95.9011216895677734
 30
0.0
 10
24.7926973146405523
 20
95.7966564336240509
 30
0.0
 10
24.7692426633060734
 20
95.743223055583897
 30
0.0
 10
24.7108862099858051
 20
95.548501419504916
 30
0.0
  0
LINE
  5
7AB
102
{ACAD_REACTORS
330
7A6
102
}
100
AcDbEntity
  8
0
  6
CONTINUOUS
 62
     7
100
AcDbLine
 10
24.410499
 20
96.8271
 30
0.0
 11
23.59667
 21
98.205481
 31
0.0
  0
LINE
  5
7AC
102
{ACAD_REACTORS
330
7A6
102
}
100
AcDbEntity
  8
0
  6
CONTINUOUS
 62
     7
100
AcDbLine
 10
23.59667
 20
98.205481
 30
0.0
 11
22.494842
 21
96.340436
 31
0.0
  0
LINE
  5
7AD
102
{ACAD_REACTORS
330
7A6
102
}
100
AcDbEntity
  8
0
  6
CONTINUOUS
 62
     7
100
AcDbLine
 10
22.494842
 20
96.340436
 30
0.0
 11
22.695267
 21
96.21836
 31
0.0
  0
SPLINE
  5
7AE
102
{ACAD_REACTORS
330
7A6
102
}
100
AcDbEntity
  8
0
  6
CONTINUOUS
 62
     7
100
AcDbSpline
210
0.0
220
0.0
230
1.0
 70
     8
 71
     3
 72
     8
 73
     4
 74
     0
 42
0.0000001
 43
0.0000001
 40
0.0
 40
0.0
 40
0.0
 40
0.0
 40
1.0
 40
1.0
 40
1.0
 40
1.0
 10
22.6952671203042264
 20
96.2183598576174859
 30
0.0
 10
22.8516047791993095
 20
96.427730644529916
 30
0.0
 10
23.0214308638618128
 20
96.4596305713449595
 30
0.0
 10
23.5966701965908463
 20
96.4913303731485428
 30
0.0
  0
SPLINE
  5
7AF
102
{ACAD_REACTORS
330
7A6
102
}
100
AcDbEntity
  8
0
  6
CONTINUOUS
 62
     7
100
AcDbSpline
210
0.0
220
0.0
230
1.0
 70
     8
 71
     3
 72
     8
 73
     4
 74
     0
 42
0.0000001
 43
0.0000001
 40
0.0
 40
0.0
 40
0.0
 40
0.0
 40
1.0
 40
1.0
 40
1.0
 40
1.0
 10
23.5966701965908463
 20
96.4913303731485428
 30
0.0
 10
24.1206375014027579
 20
96.5315154754349294
 30
0.0
 10
24.189920780344746
 20
96.5723009527554836
 30
0.0
 10
24.4104985678948232
 20
96.8271001172526695
 30
0.0
  0
LINE
  5
7B0
102
{ACAD_REACTORS
330
7A6
102
}
100
AcDbEntity
  8
0
  6
CONTINUOUS
 62
     7
100
AcDbLine
 10
25.665843
 20
93.70575
 30
0.0
 11
20.939398
 21
93.70575
 31
0.0
  0
LINE
  5
7B1
102
{ACAD_REACTORS
330
7A6
102
}
100
AcDbEntity
  8
0
  6
CONTINUOUS
 62
     7
100
AcDbLine
 10
20.939398
 20
93.70575
 30
0.0
 11
22.188006
 21
95.820551
 31
0.0
  0
LINE
  5
7B2
102
{ACAD_REACTORS
330
7A6
102
}
100
AcDbEntity
  8
0
  6
CONTINUOUS
 62
     7
100
AcDbLine
 10
22.188006
 20
95.820551
 30
0.0
 11
22.349135
 21
95.72221
 31
0.0
  0
SPLINE
  5
7B3
102
{ACAD_REACTORS
330
7A6
102
}
100
AcDbEntity
  8
0
  6
CONTINUOUS
 62
     7
100
AcDbSpline
210
0.0
220
0.0
230
1.0
 70
     8
 71
     3
 72
     8
 73
     4
 74
     0
 42
0.0000001
 43
0.0000001
 40
0.0
 40
0.0
 40
0.0
 40
0.0
 40
1.0
 40
1.0
 40
1.0
 40
1.0
 10
22.3491349031105244
 20
95.7222099293883275
 30
0.0
 10
22.1880062514428928
 20
95.514600242576094
 30
0.0
 10
22.129381630607341
 20
95.3904026605096789
 30
0.0
 10
22.0963690087290665
 20
95.2915809298870613
 30
0.0
  0
SPLINE
  5
7B4
102
{ACAD_REACTORS
330
7A6
102
}
100
AcDbEntity
  8
0
  6
CONTINUOUS
 62
     7
100
AcDbSpline
210
0.0
220
0.0
230
1.0
 70
     8
 71
     3
 72
     8
 73
     4
 74
     0
 42
0.0000001
 43
0.0000001
 40
0.0
 40
0.0
 40
0.0
 40
0.0
 40
1.0
 40
1.0
 40
1.0
 40
1.0
 10
22.0963690087290665
 20
95.2915809298870613
 30
0.0
 10
22.0535942887952991
 20
95.1625803475473901
 30
0.0
 10
22.0535942887952991
 20
94.9486867353775779
 30
0.0
 10
22.182362726121795
 20
94.7773397006285592
 30
0.0
  0
SPLINE
  5
7B5
102
{ACAD_REACTORS
330
7A6
102
}
100
AcDbEntity
  8
0
  6
CONTINUOUS
 62
     7
100
AcDbSpline
210
0.0
220
0.0
230
1.0
 70
     8
 71
     3
 72
     8
 73
     4
 74
     0
 42
0.0000001
 43
0.0000001
 40
0.0
 40
0.0
 40
0.0
 40
0.0
 40
1.0
 40
1.0
 40
1.0
 40
1.0
 10
22.182362726121795
 20
94.7773397006285592
 30
0.0
 10
22.4820299181718148
 20
93.9200842018538111
 30
0.0
 10
22.5035233443947007
 20
93.8985907756308791
 30
0.0
 10
22.6107983554982503
 20
93.8985907756308791
 30
0.0
  0
SPLINE
  5
7B6
102
{ACAD_REACTORS
330
7A6
102
}
100
AcDbEntity
  8
0
  6
CONTINUOUS
 62
     7
100
AcDbSpline
210
0.0
220
0.0
230
1.0
 70
     8
 71
     3
 72
     8
 73
     4
 74
     0
 42
0.0000001
 43
0.0000001
 40
0.0
 40
0.0
 40
0.0
 40
0.0
 40
1.0
 40
1.0
 40
1.0
 40
1.0
 10
22.6107983554982503
 20
93.8985907756308791
 30
0.0
 10
22.8678949551261397
 20
93.9413374780630335
 30
0.0
 10
22.8678949551261432
 20
94.4343254311122564
 30
0.0
 10
22.6325119192336857
 20
94.7128594219599051
 30
0.0
  0
SPLINE
  5
7B7
102
{ACAD_REACTORS
330
7A6
102
}
100
AcDbEntity
  8
0
  6
CONTINUOUS
 62
     7
100
AcDbSpline
210
0.0
220
0.0
230
1.0
 70
     8
 71
     3
 72
     8
 73
     4
 74
     0
 42
0.0000001
 43
0.0000001
 40
0.0
 40
0.0
 40
0.0
 40
0.0
 40
1.0
 40
1.0
 40
1.0
 40
1.0
 10
22.6325119192336857
 20
94.7128594219599051
 30
0.0
 10
22.696355800366149
 20
94.819726178040213
 30
0.0
 10
22.696355800366149
 20
95.1198336451152926
 30
0.0
 10
22.6107983554982503
 20
95.1625803475473901
 30
0.0
  0
SPLINE
  5
7B8
102
{ACAD_REACTORS
330
7A6
102
}
100
AcDbEntity
  8
0
  6
CONTINUOUS
 62
     7
100
AcDbSpline
210
0.0
220
0.0
230
1.0
 70
     8
 71
     3
 72
     8
 73
     4
 74
     0
 42
0.0000001
 43
0.0000001
 40
0.0
 40
0.0
 40
0.0
 40
0.0
 40
1.0
 40
1.0
 40
1.0
 40
1.0
 10
22.6107983554982503
 20
95.1625803475473901
 30
0.0
 10
22.6820268495509154
 20
95.2164540006126145
 30
0.0
 10
22.7538997461401955
 20
95.3003063803835317
 30
0.0
 10
22.8375159792418643
 20
95.4253845119866071
 30
0.0
  0
LINE
  5
7B9
102
{ACAD_REACTORS
330
7A6
102
}
100
AcDbEntity
  8
0
  6
CONTINUOUS
 62
     7
100
AcDbLine
 10
22.837516
 20
95.425385
 30
0.0
 11
23.322819
 21
95.13024
 31
0.0
  0
SPLINE
  5
7BA
102
{ACAD_REACTORS
330
7A6
102
}
100
AcDbEntity
  8
0
  6
CONTINUOUS
 62
     7
100
AcDbSpline
210
0.0
220
0.0
230
1.0
 70
     8
 71
     3
 72
     8
 73
     4
 74
     0
 42
0.0000001
 43
0.0000001
 40
0.0
 40
0.0
 40
0.0
 40
0.0
 40
1.0
 40
1.0
 40
1.0
 40
1.0
 10
23.3228191310097088
 20
95.1302401457073614
 30
0.0
 10
23.1814508229663545
 20
94.9634559612179459
 30
0.0
 10
23.0767854420112926
 20
94.9332771095008781
 30
0.0
 10
23.0392419898751903
 20
94.819726178040213
 30
0.0
  0
SPLINE
  5
7BB
102
{ACAD_REACTORS
330
7A6
102
}
100
AcDbEntity
  8
0
  6
CONTINUOUS
 62
     7
100
AcDbSpline
210
0.0
220
0.0
230
1.0
 70
     8
 71
     3
 72
     8
 73
     4
 74
     0
 42
0.0000001
 43
0.0000001
 40
0.0
 40
0.0
 40
0.0
 40
0.0
 40
1.0
 40
1.0
 40
1.0
 40
1.0
 10
23.0392419898751903
 20
94.819726178040213
 30
0.0
 10
22.9106816825605435
 20
94.7343928731850724
 30
0.0
 10
22.8678949551261397
 20
93.8985907756308791
 30
0.0
 10
23.1250155697553659
 20
93.8985907756308791
 30
0.0
  0
SPLINE
  5
7BC
102
{ACAD_REACTORS
330
7A6
102
}
100
AcDbEntity
  8
0
  6
CONTINUOUS
 62
     7
100
AcDbSpline
210
0.0
220
0.0
230
1.0
 70
     8
 71
     3
 72
     8
 73
     4
 74
     0
 42
0.0000001
 43
0.0000001
 40
0.0
 40
0.0
 40
0.0
 40
0.0
 40
0.56565959661361
 40
0.56565959661361
 40
0.56565959661361
 40
0.56565959661361
 10
23.1250155697553659
 20
93.8985907756308791
 30
0.0
 10
23.3065699529026027
 20
93.8985907756308791
 30
0.0
 10
23.36798345286482
 20
94.1089813980553203
 30
0.0
 10
23.4683555389277068
 20
94.3387520014936314
 30
0.0
  0
SPLINE
  5
7BD
102
{ACAD_REACTORS
330
7A6
102
}
100
AcDbEntity
  8
0
  6
CONTINUOUS
 62
     7
100
AcDbSpline
210
0.0
220
0.0
230
1.0
 70
     8
 71
     3
 72
     8
 73
     4
 74
     0
 42
0.0000001
 43
0.0000001
 40
0.0
 40
0.0
 40
0.0
 40
0.0
 40
0.43434040338639
 40
0.43434040338639
 40
0.43434040338639
 40
0.43434040338639
 10
23.4683555389277068
 20
94.3387520014936314
 30
0.0
 10
23.5454260113643414
 20
94.5151808240243554
 30
0.0
 10
23.6454660783188366
 20
94.7030358904260083
 30
0.0
 10
23.8405025262597903
 20
94.8158437432130512
 30
0.0
  0
LINE
  5
7BE
102
{ACAD_REACTORS
330
7A6
102
}
100
AcDbEntity
  8
0
  6
CONTINUOUS
 62
     7
100
AcDbLine
 10
23.840503
 20
94.815844
 30
0.0
 11
25.665843
 21
93.70575
 31
0.0
  0
LWPOLYLINE
  5
7C0
102
{ACAD_REACTORS
330
7C1
102
}
100
AcDbEntity
  8
0
  6
CONTINUOUS
 62
     7
100
AcDbPolyline
 90
        3
 70
     1
 10
33.060157
 20
98.360116
 10
30.177948
 20
93.466149
 10
35.942314
 20
93.466157
  0
HATCH
  5
7C1
102
{ACAD_REACTORS
330
7BF
102
}
100
AcDbEntity
  8
0
 62
     7
100
AcDbHatch
 10
0.0
 20
0.0
 30
0.0
210
0.0
220
0.0
230
1.0
  2
SOLID
 70
     1
 71
     1
 91
        2
 92
        3
 72
     0
 73
     1
 93
        3
 10
33.0601569322453841
 20
98.3601164405475288
 10
30.1779478168671531
 20
93.4661494063260534
 10
35.9423135505097662
 20
93.4661570621536697
 97
        1
330
7C0
 92
        3
 72
     1
 73
     1
 93
        6
 10
36.4205037986022546
 20
93.5637008628208662
 42
0.0
 10
33.38057513398482
 20
98.7255722907733571
 42
0.5716086462068372
 10
32.7397387729545599
 20
98.7255723628519348
 42
0.0
 10
29.6998100658886663
 20
93.563700862820852
 42
0.5802317758076025
 10
30.0202282676280099
 20
93.0031457311795862
 42
0.0
 10
36.100085596862904
 20
93.0031457311795862
 42
0.5802317758076804
 97
        1
330
7C2
 75
     0
 76
     1
 98
        0
  0
LWPOLYLINE
  5
7C2
102
{ACAD_REACTORS
330
7C1
102
}
100
AcDbEntity
  8
0
  6
CONTINUOUS
 62
     7
100
AcDbPolyline
 90
        6
 70
     1
 10
36.420504
 20
93.563701
 10
33.380575
 20
98.725572
 42
0.571609
 10
32.739739
 20
98.725572
 10
29.69981
 20
93.563701
 42
0.580232
 10
30.020228
 20
93.003146
 10
36.100086
 20
93.003146
 42
0.580232
  0
CIRCLE
  5
7C3
102
{ACAD_REACTORS
330
7C4
102
}
100
AcDbEntity
  8
0
  6
CONTINUOUS
 62
     7
100
AcDbCircle
 10
33.060157
 20
94.160932
 30
0.0
 40
0.391444
  0
HATCH
  5
7C4
102
{ACAD_REACTORS
330
7BF
102
}
100
AcDbEntity
  8
0
 62
     7
100
AcDbHatch
 10
0.0
 20
0.0
 30
0.0
210
0.0
220
0.0
230
1.0
  2
SOLID
 70
     1
 71
     1
 91
        1
 92
        1
 93
        1
 72
     2
 10
33.0601569407721172
 20
94.1609319025778575
 40
0.3914440513053153
 50
0.0
 51
360.0
 73
     1
 97
        1
330
7C3
 75
     0
 76
     1
 98
        0
  0
ELLIPSE
  5
7C5
102
{ACAD_REACTORS
330
7CA
102
}
100
AcDbEntity
  8
0
  6
CONTINUOUS
 62
     7
100
AcDbEllipse
 10
33.054007
 20
95.033664
 30
0.0
 11
0.237942939072386
 21
-0.0102828742997471
 31
0.0
210
0.0
220
0.0
230
1.0
 40
0.999044
 41
-3.14158866123713
 42
0.0000039924306419
  0
LINE
  5
7C6
102
{ACAD_REACTORS
330
7CA
102
}
100
AcDbEntity
  8
0
  6
CONTINUOUS
 62
     7
100
AcDbLine
 10
32.816064
 20
95.043946
 30
0.0
 11
32.626614
 21
96.890878
 31
0.0
  0
LINE
  5
7C7
102
{ACAD_REACTORS
330
7CA
102
}
100
AcDbEntity
  8
0
  6
CONTINUOUS
 62
     7
100
AcDbLine
 10
32.626614
 20
96.890878
 30
0.0
 11
32.629467
 21
96.890878
 31
0.0
  0
ARC
  5
7C8
102
{ACAD_REACTORS
330
7CA
102
}
100
AcDbEntity
  8
0
  6
CONTINUOUS
 62
     7
100
AcDbCircle
 10
33.060111
 20
96.890861
 30
0.0
 40
0.430645
100
AcDbArc
 50
0.0
 51
179.997721
  0
LINE
  5
7C9
102
{ACAD_REACTORS
330
7CA
102
}
100
AcDbEntity
  8
0
  6
CONTINUOUS
 62
     7
100
AcDbLine
 10
33.490756
 20
96.890878
 30
0.0
 11
33.297997
 21
95.060144
 31
0.0
  0
HATCH
  5
7CA
102
{ACAD_REACTORS
330
7BF
102
}
100
AcDbEntity
  8
0
 62
     7
100
AcDbHatch
 10
0.0
 20
0.0
 30
0.0
210
0.0
220
0.0
230
1.0
  2
SOLID
 70
     1
 71
     1
 91
        1
 92
        1
 93
        6
 72
     3
 10
33.0540066630070726
 20
95.0336644511603339
 11
0.237942939072386
 21
-0.0102828742997471
 40
0.999044
 50
359.999771
 51
179.999771
 73
     0
 72
     1
 10
32.8160636829229801
 20
95.0439463764162156
 11
32.6266136580036985
 21
96.890878151026925
 72
     1
 10
32.6266136580036985
 20
96.890878151026925
 11
32.6294667133893341
 21
96.890878151026925
 72
     2
 10
33.0601113047775357
 20
96.8908610192841593
 40
0.4306445917289654
 50
0.002279
 51
179.997721
 73
     1
 72
     1
 10
33.4907558961657301
 20
96.8908781510269392
 11
33.2979968119673302
 21
95.0601437765316888
 72
     1
 10
33.2979968119673302
 20
95.0601437765316888
 11
33.2919496430919679
 21
95.0233825259229974
 97
        5
330
7C5
330
7C6
330
7C7
330
7C8
330
7C9
 75
     0
 76
     1
 98
        0
  0
LINE
  5
7CC
102
{ACAD_REACTORS
330
7CB
102
}
100
AcDbEntity
  8
0
  6
CONTINUOUS
 62
     7
100
AcDbLine
 10
9.405079
 20
13.150922
 30
0.0
 11
2.515431
 21
13.150922
 31
0.0
  0
LINE
  5
7CD
102
{ACAD_REACTORS
330
7CB
102
}
100
AcDbEntity
  8
0
  6
CONTINUOUS
 62
     7
100
AcDbLine
 10
9.436954
 20
0.2023
 30
0.0
 11
2.648765
 21
0.2023
 31
0.0
  0
MTEXT
  5
7CE
100
AcDbEntity
  8
GR2_01
100
AcDbMText
 10
3.563381
 20
6.672885
 30
0.0
 40
1.818983
 41
13.257576
 71
     8
 72
     5
  1
\C94;\fＭＳ Ｐゴシック|b0|i0|;\H1.8189826607704;\M+18250\M+18252
  7
HORIZONTALBIGFONT
 11
0.0
 21
1.0
 31
0.0
  0
LINE
  5
7CF
102
{ACAD_REACTORS
330
7CB
102
}
100
AcDbEntity
  8
GR2_01
  6
CONTINUOUS
100
AcDbLine
 10
3.814891
 20
0.2023
 30
0.0
 11
3.814891
 21
2.7023
 31
0.0
  0
LINE
  5
7D0
102
{ACAD_REACTORS
330
7CB
102
}
100
AcDbEntity
  8
GR2_01
  6
CONTINUOUS
100
AcDbLine
 10
3.814891
 20
0.2023
 30
0.0
 11
3.167843
 21
2.617115
 31
0.0
  0
LINE
  5
7D1
102
{ACAD_REACTORS
330
7CB
102
}
100
AcDbEntity
  8
GR2_01
  6
CONTINUOUS
100
AcDbLine
 10
3.814891
 20
0.2023
 30
0.0
 11
4.461938
 21
2.617115
 31
0.0
  0
LINE
  5
7D2
102
{ACAD_REACTORS
330
7CB
102
}
100
AcDbEntity
  8
GR2_01
  6
CONTINUOUS
100
AcDbLine
 10
3.814891
 20
13.150922
 30
0.0
 11
3.814891
 21
10.650922
 31
0.0
  0
LINE
  5
7D3
102
{ACAD_REACTORS
330
7CB
102
}
100
AcDbEntity
  8
GR2_01
  6
CONTINUOUS
100
AcDbLine
 10
3.814891
 20
13.150922
 30
0.0
 11
3.167843
 21
10.736107
 31
0.0
  0
LINE
  5
7D4
102
{ACAD_REACTORS
330
7CB
102
}
100
AcDbEntity
  8
GR2_01
  6
CONTINUOUS
100
AcDbLine
 10
3.814891
 20
13.150922
 30
0.0
 11
4.461938
 21
10.736107
 31
0.0
  0
LINE
  5
7D5
102
{ACAD_REACTORS
330
7CB
102
}
100
AcDbEntity
  8
GR1_01
  6
CONTINUOUS
 62
     7
100
AcDbLine
 10
3.814891
 20
0.194848
 30
0.0
 11
3.814891
 21
13.150922
 31
0.0
  0
LINE
  5
7D7
102
{ACAD_REACTORS
330
7D6
102
}
100
AcDbEntity
  8
0
  6
CONTINUOUS
100
AcDbLine
 10
226.115304
 20
97.037578
 30
0.0
 11
228.186936
 21
94.456002
 31
0.0
  0
LINE
  5
7D8
102
{ACAD_REACTORS
330
7D6
102
}
100
AcDbEntity
  8
0
  6
CONTINUOUS
100
AcDbLine
 10
226.115304
 20
97.037578
 30
0.0
 11
226.511284
 21
97.531031
 31
0.0
  0
LINE
  5
7D9
102
{ACAD_REACTORS
330
7D6
102
}
100
AcDbEntity
  8
0
  6
CONTINUOUS
100
AcDbLine
 10
225.294098
 20
99.047833
 30
0.0
 11
226.511284
 21
97.531031
 31
0.0
  0
LINE
  5
7DA
102
{ACAD_REACTORS
330
7D6
102
}
100
AcDbEntity
  8
0
  6
CONTINUOUS
100
AcDbLine
 10
225.294098
 20
102.132322
 30
0.0
 11
225.294098
 21
99.047833
 31
0.0
  0
LINE
  5
7DB
102
{ACAD_REACTORS
330
7D6
102
}
100
AcDbEntity
  8
0
  6
CONTINUOUS
100
AcDbLine
 10
225.294098
 20
102.132322
 30
0.0
 11
226.654098
 21
102.132322
 31
0.0
  0
LINE
  5
7DC
102
{ACAD_REACTORS
330
7D6
102
}
100
AcDbEntity
  8
0
  6
CONTINUOUS
100
AcDbLine
 10
226.654098
 20
104.126171
 30
0.0
 11
226.654098
 21
102.132322
 31
0.0
  0
LINE
  5
7DD
102
{ACAD_REACTORS
330
7D6
102
}
100
AcDbEntity
  8
0
  6
CONTINUOUS
100
AcDbLine
 10
228.494098
 20
106.419098
 30
0.0
 11
226.654098
 21
104.126171
 31
0.0
  0
LINE
  5
7DE
102
{ACAD_REACTORS
330
7D6
102
}
100
AcDbEntity
  8
0
  6
CONTINUOUS
100
AcDbLine
 10
229.528773
 20
106.419098
 30
0.0
 11
228.494098
 21
106.419098
 31
0.0
  0
LINE
  5
7DF
102
{ACAD_REACTORS
330
7D6
102
}
100
AcDbEntity
  8
0
  6
CONTINUOUS
100
AcDbLine
 10
229.492409
 20
94.456002
 30
0.0
 11
228.186936
 21
94.456002
 31
0.0
  0
LINE
  5
7E0
102
{ACAD_REACTORS
330
7D6
102
}
100
AcDbEntity
  8
0
  6
CONTINUOUS
100
AcDbLine
 10
225.549618
 20
98.729415
 30
0.0
 11
225.404011
 21
98.547966
 31
0.0
  0
LINE
  5
7E1
102
{ACAD_REACTORS
330
7D6
102
}
100
AcDbEntity
  8
0
  6
CONTINUOUS
100
AcDbLine
 10
225.850069
 20
98.355007
 30
0.0
 11
225.598686
 21
98.208931
 31
0.0
  0
LINE
  5
7E2
102
{ACAD_REACTORS
330
7D6
102
}
100
AcDbEntity
  8
0
  6
CONTINUOUS
100
AcDbLine
 10
225.41793
 20
98.248648
 30
0.0
 11
225.404011
 21
98.265993
 31
0.0
  0
LINE
  5
7E3
102
{ACAD_REACTORS
330
7D6
102
}
100
AcDbEntity
  8
0
  6
CONTINUOUS
100
AcDbLine
 10
226.139402
 20
97.349581
 30
0.0
 11
226.125484
 21
97.366926
 31
0.0
  0
LINE
  5
7E4
102
{ACAD_REACTORS
330
7D6
102
}
100
AcDbEntity
  8
0
  6
CONTINUOUS
100
AcDbLine
 10
226.093611
 20
97.592176
 30
0.0
 11
226.210833
 21
97.905439
 31
0.0
  0
ARC
  5
7E5
102
{ACAD_REACTORS
330
7D6
102
}
100
AcDbEntity
  8
0
  6
CONTINUOUS
100
AcDbCircle
 10
225.592657
 20
98.406979
 30
0.0
 40
0.235509
100
AcDbArc
 50
143.2271
 51
216.7729
  0
ARC
  5
7E6
102
{ACAD_REACTORS
330
7D6
102
}
100
AcDbEntity
  8
0
  6
CONTINUOUS
100
AcDbCircle
 10
225.530141
 20
98.328153
 30
0.0
 40
0.137522
100
AcDbArc
 50
215.318586
 51
299.895992
  0
ARC
  5
7E7
102
{ACAD_REACTORS
330
7D6
102
}
100
AcDbEntity
  8
0
  6
CONTINUOUS
100
AcDbCircle
 10
226.252539
 20
97.429974
 30
0.0
 40
0.138791
100
AcDbArc
 50
215.39673
 51
324.60327
  0
ARC
  5
7E8
102
{ACAD_REACTORS
330
7D6
102
}
100
AcDbEntity
  8
0
  6
CONTINUOUS
100
AcDbCircle
 10
226.315237
 20
97.508655
 30
0.0
 40
0.23684
100
AcDbArc
 50
159.350786
 51
216.756616
  0
ENDSEC
  0
SECTION
  2
OBJECTS
  0
DICTIONARY
  5
C
100
AcDbDictionary
  3
ACAD_GROUP
350
D
  3
ACAD_MLINESTYLE
350
1B
  3
ACAD_SCALELIST
350
2C
  3
ACAD_VISUALSTYLE
350
51
  3
ACAD_MATERIAL
350
6A
  3
ACAD_TABLESTYLE
350
6E
  3
ACAD_MLEADERSTYLE
350
70
  0
DICTIONARY
  5
D
102
{ACAD_REACTORS
330
C
102
}
100
AcDbDictionary
  3
VISIOGROUP_0
350
B0
  3
VISIOGROUP_1
350
B4
  3
VISIOGROUP_2
350
B8
  3
VISIOGROUP_3
350
BC
  3
VISIOGROUP_4
350
C0
  3
VISIOGROUP_5
350
C4
  3
VISIOGROUP_6
350
C8
  3
VISIOGROUP_7
350
CC
  3
VISIOGROUP_8
350
D0
  3
VISIOGROUP_9
350
D4
  3
VISIOGROUP_10
350
D8
  3
VISIOGROUP_11
350
DC
  3
VISIOGROUP_12
350
E0
  3
VISIOGROUP_13
350
E4
  3
VISIOGROUP_14
350
E8
  3
VISIOGROUP_15
350
EC
  3
VISIOGROUP_16
350
F0
  3
VISIOGROUP_17
350
F4
  3
VISIOGROUP_18
350
F8
  3
VISIOGROUP_19
350
FC
  3
VISIOGROUP_20
350
100
  3
VISIOGROUP_21
350
104
  3
VISIOGROUP_22
350
108
  3
VISIOGROUP_23
350
10C
  3
VISIOGROUP_24
350
110
  3
VISIOGROUP_25
350
114
  3
VISIOGROUP_26
350
6D9
  3
VISIOGROUP_27
350
738
  3
VISIOGROUP_28
350
79D
  3
VISIOGROUP_29
350
7BF
  3
VISIOGROUP_30
350
7CB
  3
VISIOGROUP_31
350
7D6
  0
DICTIONARY
  5
1B
102
{ACAD_REACTORS
330
C
102
}
100
AcDbDictionary
  3
STANDARD
350
1C
  0
MLINESTYLE
  5
1C
102
{ACAD_REACTORS
330
1B
102
}
100
AcDbMlineStyle
  2
STANDARD
 70
     0
  3

 62
   256
 51
90.0
 52
90.0
 71
     2
 49
0.5
 62
   256
  6
BYLAYER
 49
-0.5
 62
   256
  6
BYLAYER
  0
DICTIONARY
  5
29
102
{ACAD_REACTORS
330
C
102
}
100
AcDbDictionary
  0
DICTIONARY
  5
2C
102
{ACAD_REACTORS
330
C
102
}
100
AcDbDictionary
  3
A0
350
2D
  3
A1
350
2E
  3
A2
350
2F
  3
A3
350
30
  3
A4
350
31
  3
A5
350
32
  3
A6
350
33
  3
A7
350
34
  3
A8
350
35
  3
A9
350
36
  3
B0
350
37
  3
B1
350
38
  3
B2
350
39
  3
B3
350
3A
  3
B4
350
3B
  3
B5
350
3C
  3
B6
350
3D
  3
B7
350
3E
  3
B8
350
3F
  3
B9
350
40
  3
C0
350
41
  3
C1
350
42
  3
C2
350
43
  3
C3
350
44
  3
C4
350
45
  3
C5
350
46
  3
C6
350
47
  3
C7
350
48
  3
C8
350
49
  3
C9
350
4A
  3
D0
350
4B
  3
D1
350
4C
  3
D2
350
4D
  0
DICTIONARY
  5
4E
102
{ACAD_REACTORS
330
C
102
}
100
AcDbDictionary
  3
MODEL
350
4F
  3
LAYOUT1
350
50
  0
DICTIONARY
  5
51
102
{ACAD_REACTORS
330
C
102
}
100
AcDbDictionary
  3
FLAT
350
52
  3
FLATWITHEDGES
350
53
  3
GOURAUD
350
54
  3
GOURAUDWITHEDGES
350
55
  3
2DWIREFRAME
350
56
  3
WIREFRAME
350
57
  3
HIDDEN
350
58
  3
BASIC
350
59
  3
REALISTIC
350
5A
  3
CONCEPTUAL
350
5B
  3
DIM
350
5C
  3
BRIGHTEN
350
5D
  3
THICKEN
350
5E
  3
LINEPATTERN
350
5F
  3
FACEPATTERN
350
60
  3
COLORCHANGE
350
61
  3
JITTEROFF
350
62
  3
OVERHANGOFF
350
63
  3
EDGECOLOROFF
350
64
  3
SHADES OF GRAY
350
65
  3
SKETCHY
350
66
  3
X-RAY
350
67
  3
SHADED WITH EDGES
350
68
  3
SHADED
350
69
  0
DICTIONARY
  5
6A
102
{ACAD_REACTORS
330
C
102
}
100
AcDbDictionary
  3
BYLAYER
350
6B
  3
BYBLOCK
350
6C
  3
GLOBAL
350
6D
  0
DICTIONARY
  5
6E
102
{ACAD_REACTORS
330
C
102
}
100
AcDbDictionary
  3
STANDARD
350
6F
  0
DICTIONARY
  5
70
102
{ACAD_REACTORS
330
C
102
}
100
AcDbDictionary
  3
STANDARD
350
71
  0
GROUP
  5
B0
102
{ACAD_REACTORS
330
D
102
}
100
AcDbGroup
300
Group created by Visio.
 70
     0
 71
     1
340
B1
340
B2
340
B3
  0
GROUP
  5
B4
102
{ACAD_REACTORS
330
D
102
}
100
AcDbGroup
300
Group created by Visio.
 70
     0
 71
     1
340
B5
340
B6
340
B7
  0
GROUP
  5
B8
102
{ACAD_REACTORS
330
D
102
}
100
AcDbGroup
300
Group created by Visio.
 70
     0
 71
     1
340
B9
340
BA
340
BB
  0
GROUP
  5
BC
102
{ACAD_REACTORS
330
D
102
}
100
AcDbGroup
300
Group created by Visio.
 70
     0
 71
     1
340
BD
340
BE
340
BF
  0
GROUP
  5
C0
102
{ACAD_REACTORS
330
D
102
}
100
AcDbGroup
300
Group created by Visio.
 70
     0
 71
     1
340
C1
340
C2
340
C3
  0
GROUP
  5
C4
102
{ACAD_REACTORS
330
D
102
}
100
AcDbGroup
300
Group created by Visio.
 70
     0
 71
     1
340
C5
340
C6
340
C7
  0
GROUP
  5
C8
102
{ACAD_REACTORS
330
D
102
}
100
AcDbGroup
300
Group created by Visio.
 70
     0
 71
     1
340
C9
340
CA
340
CB
  0
GROUP
  5
CC
102
{ACAD_REACTORS
330
D
102
}
100
AcDbGroup
300
Group created by Visio.
 70
     0
 71
     1
340
CD
340
CE
340
CF
  0
GROUP
  5
D0
102
{ACAD_REACTORS
330
D
102
}
100
AcDbGroup
300
Group created by Visio.
 70
     0
 71
     1
340
D1
340
D2
340
D3
  0
GROUP
  5
D4
102
{ACAD_REACTORS
330
D
102
}
100
AcDbGroup
300
Group created by Visio.
 70
     0
 71
     1
340
D5
340
D6
340
D7
  0
GROUP
  5
D8
102
{ACAD_REACTORS
330
D
102
}
100
AcDbGroup
300
Group created by Visio.
 70
     0
 71
     1
340
D9
340
DA
340
DB
  0
GROUP
  5
DC
102
{ACAD_REACTORS
330
D
102
}
100
AcDbGroup
300
Group created by Visio.
 70
     0
 71
     1
340
DD
340
DE
340
DF
  0
GROUP
  5
E0
102
{ACAD_REACTORS
330
D
102
}
100
AcDbGroup
300
Group created by Visio.
 70
     0
 71
     1
340
E1
340
E2
340
E3
  0
GROUP
  5
E4
102
{ACAD_REACTORS
330
D
102
}
100
AcDbGroup
300
Group created by Visio.
 70
     0
 71
     1
340
E5
340
E6
340
E7
  0
GROUP
  5
E8
102
{ACAD_REACTORS
330
D
102
}
100
AcDbGroup
300
Group created by Visio.
 70
     0
 71
     1
340
E9
340
EA
340
EB
  0
GROUP
  5
EC
102
{ACAD_REACTORS
330
D
102
}
100
AcDbGroup
300
Group created by Visio.
 70
     0
 71
     1
340
ED
340
EE
340
EF
  0
GROUP
  5
F0
102
{ACAD_REACTORS
330
D
102
}
100
AcDbGroup
300
Group created by Visio.
 70
     0
 71
     1
340
F1
340
F2
340
F3
  0
GROUP
  5
F4
102
{ACAD_REACTORS
330
D
102
}
100
AcDbGroup
300
Group created by Visio.
 70
     0
 71
     1
340
F5
340
F6
340
F7
  0
GROUP
  5
F8
102
{ACAD_REACTORS
330
D
102
}
100
AcDbGroup
300
Group created by Visio.
 70
     0
 71
     1
340
F9
340
FA
340
FB
  0
GROUP
  5
FC
102
{ACAD_REACTORS
330
D
102
}
100
AcDbGroup
300
Group created by Visio.
 70
     0
 71
     1
340
FD
340
FE
340
FF
  0
GROUP
  5
100
102
{ACAD_REACTORS
330
D
102
}
100
AcDbGroup
300
Group created by Visio.
 70
     0
 71
     1
340
101
340
102
340
103
  0
GROUP
  5
104
102
{ACAD_REACTORS
330
D
102
}
100
AcDbGroup
300
Group created by Visio.
 70
     0
 71
     1
340
105
340
106
340
107
  0
GROUP
  5
108
102
{ACAD_REACTORS
330
D
102
}
100
AcDbGroup
300
Group created by Visio.
 70
     0
 71
     1
340
109
340
10A
340
10B
  0
GROUP
  5
10C
102
{ACAD_REACTORS
330
D
102
}
100
AcDbGroup
300
Group created by Visio.
 70
     0
 71
     1
340
10D
340
10E
340
10F
  0
GROUP
  5
110
102
{ACAD_REACTORS
330
D
102
}
100
AcDbGroup
300
Group created by Visio.
 70
     0
 71
     1
340
111
340
112
340
113
  0
GROUP
  5
114
102
{ACAD_REACTORS
330
D
102
}
100
AcDbGroup
300
Group created by Visio.
 70
     0
 71
     1
340
115
340
116
340
117
340
118
  0
GROUP
  5
6D9
102
{ACAD_REACTORS
330
D
102
}
100
AcDbGroup
300
Group created by Visio.
 70
     0
 71
     1
340
6DA
340
6DB
340
6DC
340
6DD
340
6DE
340
6DF
340
6E0
340
6E1
340
6E2
340
6E3
340
6E4
340
6E5
340
6E6
340
6E7
340
6E8
340
6E9
340
6EA
340
6EB
340
6EC
340
6ED
340
6EE
340
6EF
340
6F0
340
6F1
340
6F2
340
6F3
340
6F4
340
6F5
340
6F6
340
6F7
340
6F8
340
6F9
340
6FA
340
6FB
340
6FC
340
6FD
340
6FE
340
6FF
340
700
340
701
340
702
340
703
340
704
340
705
340
706
340
707
340
708
340
709
340
70A
340
70B
340
70C
340
70D
340
70E
340
70F
340
710
340
711
340
712
340
713
340
714
340
715
340
716
340
717
340
718
340
719
340
71A
340
71B
340
71C
340
71D
340
71E
340
71F
340
720
340
721
340
722
340
723
340
724
340
725
340
726
340
727
340
728
340
729
340
72A
340
72B
340
72C
340
72D
340
72E
340
72F
340
730
340
731
340
732
340
733
340
734
340
735
340
736
340
737
  0
GROUP
  5
738
102
{ACAD_REACTORS
330
D
102
}
100
AcDbGroup
300
Group created by Visio.
 70
     0
 71
     1
340
739
340
73A
340
73B
340
73C
340
73D
340
73E
340
73F
340
740
340
741
340
742
340
743
340
744
340
745
340
746
340
747
340
748
340
749
340
74A
340
74B
340
74C
340
74D
340
74E
340
74F
340
750
340
751
340
752
340
753
340
754
340
755
340
756
340
757
340
758
340
759
340
75A
340
75B
340
75C
340
75D
340
75E
340
75F
340
760
340
761
340
762
340
763
340
764
340
765
340
766
340
767
340
768
340
769
340
76A
340
76B
340
76C
340
76D
340
76E
340
76F
340
770
340
771
340
772
340
773
340
774
340
775
340
776
340
777
340
778
340
779
340
77A
340
77B
340
77C
340
77D
340
77E
340
77F
340
780
340
781
340
782
340
783
340
784
340
785
340
786
340
787
340
788
340
789
340
78A
340
78B
340
78C
340
78D
340
78E
340
78F
340
790
340
791
340
792
340
793
340
794
340
795
340
796
  0
GROUP
  5
79D
102
{ACAD_REACTORS
330
D
102
}
100
AcDbGroup
300
Group created by Visio.
 70
     0
 71
     1
340
79E
340
79F
340
7A0
340
7A1
340
7A2
340
7A3
340
7A4
340
7A5
340
7A7
340
7A8
340
7A9
340
7AA
340
7AB
340
7AC
340
7AD
340
7AE
340
7AF
340
7B0
340
7B1
340
7B2
340
7B3
340
7B4
340
7B5
340
7B6
340
7B7
340
7B8
340
7B9
340
7BA
340
7BB
340
7BC
340
7BD
340
7BE
340
7A6
  0
GROUP
  5
7BF
102
{ACAD_REACTORS
330
D
102
}
100
AcDbGroup
300
Group created by Visio.
 70
     0
 71
     1
340
7C0
340
7C2
340
7C1
340
7C3
340
7C4
340
7C5
340
7C6
340
7C7
340
7C8
340
7C9
340
7CA
  0
GROUP
  5
7CB
102
{ACAD_REACTORS
330
D
102
}
100
AcDbGroup
300
Group created by Visio.
 70
     0
 71
     1
340
7CC
340
7CD
340
7CF
340
7D0
340
7D1
340
7D2
340
7D3
340
7D4
340
7D5
  0
GROUP
  5
7D6
102
{ACAD_REACTORS
330
D
102
}
100
AcDbGroup
300
Group created by Visio.
 70
     0
 71
     1
340
7D7
340
7D8
340
7D9
340
7DA
340
7DB
340
7DC
340
7DD
340
7DE
340
7DF
340
7E0
340
7E1
340
7E2
340
7E3
340
7E4
340
7E5
340
7E6
340
7E7
340
7E8
  0
ENDSEC
  0
EOF
