  0
SECTION
  2
HEADER
  9
$ACADVER
  1
AC1014
  9
$ACADMAINTVER
 70
     0
  9
$DWGCODEPAGE
  3
DOS932
  9
$INSBASE
 10
0.0
 20
0.0
 30
0.0
  9
$EXTMIN
 10
0.0
 20
0.0
 30
0.0
  9
$EXTMAX
 10
297.0
 20
210.0
 30
0.0
  9
$LIMMIN
 10
0.0
 20
0.0
  9
$LIMMAX
 10
12.0
 20
9.0
  9
$ORTHOMODE
 70
     0
  9
$REGENMODE
 70
     1
  9
$FILLMODE
 70
     0
  9
$QTEXTMODE
 70
     0
  9
$MIRRTEXT
 70
     1
  9
$DRAGMODE
 70
     2
  9
$LTSCALE
 40
2.97
  9
$OSMODE
 70
    37
  9
$ATTMODE
 70
     1
  9
$TEXTSIZE
 40
0.2
  9
$TRACEWID
 40
0.05
  9
$TEXTSTYLE
  7
STANDARD
  9
$CLAYER
  8
0
  9
$CELTYPE
  6
BYLAYER
  9
$CECOLOR
 62
   256
  9
$CELTSCALE
 40
1.0
  9
$DELOBJ
 70
     1
  9
$DISPSILH
 70
     0
  9
$DIMSCALE
 40
1.0
  9
$DIMASZ
 40
0.18
  9
$DIMEXO
 40
0.0625
  9
$DIMDLI
 40
0.38
  9
$DIMRND
 40
0.0
  9
$DIMDLE
 40
0.0
  9
$DIMEXE
 40
0.18
  9
$DIMTP
 40
0.0
  9
$DIMTM
 40
0.0
  9
$DIMTXT
 40
0.18
  9
$DIMCEN
 40
0.09
  9
$DIMTSZ
 40
0.0
  9
$DIMTOL
 70
     0
  9
$DIMLIM
 70
     0
  9
$DIMTIH
 70
     0
  9
$DIMTOH
 70
     0
  9
$DIMSE1
 70
     0
  9
$DIMSE2
 70
     0
  9
$DIMTAD
 70
     1
  9
$DIMZIN
 70
     0
  9
$DIMBLK
  1

  9
$DIMASO
 70
     1
  9
$DIMSHO
 70
     1
  9
$DIMPOST
  1

  9
$DIMAPOST
  1

  9
$DIMALT
 70
     0
  9
$DIMALTD
 70
     2
  9
$DIMALTF
 40
25.4
  9
$DIMLFAC
 40
1.0
  9
$DIMTOFL
 70
     0
  9
$DIMTVP
 40
0.0
  9
$DIMTIX
 70
     0
  9
$DIMSOXD
 70
     0
  9
$DIMSAH
 70
     0
  9
$DIMBLK1
  1

  9
$DIMBLK2
  1

  9
$DIMSTYLE
  2
STANDARD
  9
$DIMCLRD
 70
     0
  9
$DIMCLRE
 70
     0
  9
$DIMCLRT
 70
     0
  9
$DIMTFAC
 40
1.0
  9
$DIMGAP
 40
0.09
  9
$DIMJUST
 70
     0
  9
$DIMSD1
 70
     0
  9
$DIMSD2
 70
     0
  9
$DIMTOLJ
 70
     1
  9
$DIMTZIN
 70
     0
  9
$DIMALTZ
 70
     0
  9
$DIMALTTZ
 70
     0
  9
$DIMFIT
 70
     5
  9
$DIMUPT
 70
     0
  9
$DIMUNIT
 70
     2
  9
$DIMDEC
 70
     2
  9
$DIMTDEC
 70
     4
  9
$DIMALTU
 70
     2
  9
$DIMALTTD
 70
     2
  9
$DIMTXSTY
  7
STANDARD
  9
$DIMAUNIT
 70
     0
  9
$LUNITS
 70
     2
  9
$LUPREC
 70
     4
  9
$SKETCHINC
 40
0.1
  9
$FILLETRAD
 40
0.5
  9
$AUNITS
 70
     0
  9
$AUPREC
 70
     0
  9
$MENU
  1
.
  9
$ELEVATION
 40
0.0
  9
$PELEVATION
 40
0.0
  9
$THICKNESS
 40
0.0
  9
$LIMCHECK
 70
     0
  9
$BLIPMODE
 70
     0
  9
$CHAMFERA
 40
0.5
  9
$CHAMFERB
 40
0.5
  9
$CHAMFERC
 40
1.0
  9
$CHAMFERD
 40
0.0
  9
$SKPOLY
 70
     0
  9
$TDCREATE
 40
2450772.666465926
  9
$TDUPDATE
 40
2459513.579780081
  9
$TDINDWG
 40
0.0011564931
  9
$TDUSRTIMER
 40
0.0011564931
  9
$USRTIMER
 70
     1
  9
$ANGBASE
 50
0.0
  9
$ANGDIR
 70
     0
  9
$PDMODE
 70
     0
  9
$PDSIZE
 40
0.0
  9
$PLINEWID
 40
0.0
  9
$COORDS
 70
     1
  9
$SPLFRAME
 70
     0
  9
$SPLINETYPE
 70
     6
  9
$SPLINESEGS
 70
     8
  9
$ATTDIA
 70
     0
  9
$ATTREQ
 70
     1
  9
$HANDLING
 70
     1
  9
$HANDSEED
  5
6A4
  9
$SURFTAB1
 70
     6
  9
$SURFTAB2
 70
     6
  9
$SURFTYPE
 70
     6
  9
$SURFU
 70
     6
  9
$SURFV
 70
     6
  9
$UCSNAME
  2

  9
$UCSORG
 10
0.0
 20
0.0
 30
0.0
  9
$UCSXDIR
 10
1.0
 20
0.0
 30
0.0
  9
$UCSYDIR
 10
0.0
 20
1.0
 30
0.0
  9
$PUCSNAME
  2

  9
$PUCSORG
 10
0.0
 20
0.0
 30
0.0
  9
$PUCSXDIR
 10
1.0
 20
0.0
 30
0.0
  9
$PUCSYDIR
 10
0.0
 20
1.0
 30
0.0
  9
$USERI1
 70
     0
  9
$USERI2
 70
     0
  9
$USERI3
 70
     0
  9
$USERI4
 70
     0
  9
$USERI5
 70
     0
  9
$USERR1
 40
0.0
  9
$USERR2
 40
0.0
  9
$USERR3
 40
0.0
  9
$USERR4
 40
0.0
  9
$USERR5
 40
0.0
  9
$WORLDVIEW
 70
     1
  9
$SHADEDGE
 70
     3
  9
$SHADEDIF
 70
    70
  9
$TILEMODE
 70
     1
  9
$MAXACTVP
 70
    48
  9
$PINSBASE
 10
0.0
 20
0.0
 30
0.0
  9
$PLIMCHECK
 70
     0
  9
$PEXTMIN
 10
0.0
 20
0.0
 30
0.0
  9
$PEXTMAX
 10
0.0
 20
0.0
 30
0.0
  9
$PLIMMIN
 10
0.0
 20
0.0
  9
$PLIMMAX
 10
12.0
 20
9.0
  9
$UNITMODE
 70
     0
  9
$VISRETAIN
 70
     1
  9
$PLINEGEN
 70
     0
  9
$PSLTSCALE
 70
     1
  9
$TREEDEPTH
 70
  3020
  9
$PICKSTYLE
 70
     1
  9
$CMLSTYLE
  2
STANDARD
  9
$CMLJUST
 70
     0
  9
$CMLSCALE
 40
1.0
  9
$PROXYGRAPHICS
 70
     1
  9
$MEASUREMENT
 70
     0
  0
ENDSEC
  0
SECTION
  2
CLASSES
  0
CLASS
  1
LWPOLYLINE
  2
AcDbPolyline
  3
ObjectDBX Classes
 90
       20
280
     0
281
     1
  0
CLASS
  1
IMAGE
  2
AcDbRasterImage
  3
ISM
 90
       21
280
     0
281
     1
  0
CLASS
  1
OLE2FRAME
  2
AcDbOle2Frame
  3
ObjectDBX Classes
 90
       21
280
     0
281
     1
  0
CLASS
  1
HATCH
  2
AcDbHatch
  3
ObjectDBX Classes
 90
       20
280
     0
281
     1
  0
CLASS
  1
DICTIONARYVAR
  2
AcDbDictionaryVar
  3
ObjectDBX Classes
 90
       20
280
     0
281
     0
  0
CLASS
  1
RASTERVARIABLES
  2
AcDbRasterVariables
  3
ISM
 90
       21
280
     0
281
     0
  0
CLASS
  1
IMAGEDEF
  2
AcDbRasterImageDef
  3
ISM
 90
       21
280
     0
281
     0
  0
CLASS
  1
IMAGEDEF_REACTOR
  2
AcDbRasterImageDefReactor
  3
ISM
 90
       21
280
     0
281
     0
  0
CLASS
  1
IDBUFFER
  2
AcDbIdBuffer
  3
ObjectDBX Classes
 90
       20
280
     0
281
     0
  0
CLASS
  1
SPATIAL_FILTER
  2
AcDbSpatialFilter
  3
ObjectDBX Classes
 90
       20
280
     0
281
     0
  0
CLASS
  1
XRECORD
  2
AcDbXrecord
  3
ObjectDBX Classes
 90
       21
280
     0
281
     0
  0
CLASS
  1
ACDBDICTIONARYWDFLT
  2
AcDbDictionaryWithDefault
  3
ObjectDBX Classes
 90
       22
280
     0
281
     0
  0
CLASS
  1
SCALE
  2
AcDbScale
  3
ObjectDBX Classes
 90
       27
280
     0
281
     0
  0
CLASS
  1
VISUALSTYLE
  2
AcDbVisualStyle
  3
ObjectDBX Classes
 90
       26
280
     0
281
     0
  0
CLASS
  1
MATERIAL
  2
AcDbMaterial
  3
ObjectDBX Classes
 90
       23
280
     0
281
     0
  0
CLASS
  1
TABLESTYLE
  2
AcDbTableStyle
  3
ObjectDBX Classes
 90
       25
280
     0
281
     0
  0
CLASS
  1
MLEADERSTYLE
  2
AcDbMLeaderStyle
  3
ACDB_MLEADERSTYLE_CLASS
 90
       27
280
     0
281
     0
  0
CLASS
  1
SORTENTSTABLE
  2
AcDbSortentsTable
  3
"AutoCAD"
 90
        0
280
     0
281
     0
  0
CLASS
  1
LAYER_INDEX
  2
AcDbLayerIndex
  3
"Acad"
 90
        0
280
     0
281
     0
  0
CLASS
  1
SPATIAL_INDEX
  2
AcDbSpatialIndex
  3
"Acad"
 90
        0
280
     0
281
     0
  0
CLASS
  1
OBJECT_PTR
  2
CAseDLPNTableRecord
  3
"ASE-LPNTableRecord"
 90
        1
280
     0
281
     0
  0
CLASS
  1
LAYOUT
  2
AcDbLayout
  3
"AutoCAD 2000"
 90
        1
280
     0
281
     0
  0
CLASS
  1
PLOTSETTINGS
  2
AcDbPlotsettings
  3
"AutoCAD 2000"
 90
        1
280
     0
281
     0
  0
CLASS
  1
ACDBPLACEHOLDER
  2
AcDbPlaceholder
  3
"AutoCAD 2000"
 90
        1
280
     0
281
     0
  0
CLASS
  1
VBA_PROJECT
  2
AcDbVbaProject
  3
"AutoCAD 2000"
 90
        1
280
     0
281
     0
  0
CLASS
  1
WIPEOUT
  2
AcDbWipeout
  3
"AutoCAD 2000"
 90
        1
280
     0
281
     1
  0
CLASS
  1
WIPEOUTVARIABLES
  2
AcDbWipeoutVariables
  3
"AutoCAD 2000"
 90
        1
280
     0
281
     0
  0
CLASS
  1
RTEXT
  2
RText
  3
RText|AutoCAD Express Tool|expresstools@autodesk.com
 90
        1
280
     0
281
     1
  0
CLASS
  1
ARCALIGNEDTEXT
  2
AcDbArcAlignedText
  3
RText|AutoCAD Express Tool|expresstools@autodesk.com
 90
        1
280
     0
281
     1
  0
ENDSEC
  0
SECTION
  2
TABLES
  0
TABLE
  2
VPORT
  5
8
100
AcDbSymbolTable
 70
     1
  0
VPORT
  5
25
100
AcDbSymbolTableRecord
100
AcDbViewportTableRecord
  2
*ACTIVE
 70
     0
 10
0.0
 20
0.0
 11
1.0
 21
1.0
 12
148.5
 22
105.0
 13
0.0
 23
0.0
 14
0.5
 24
0.5
 15
0.5
 25
0.5
 16
0.0
 26
0.0
 36
1.0
 17
0.0
 27
0.0
 37
0.0
 40
210.0
 41
1.414286
 42
50.0
 43
0.0
 44
0.0
 50
0.0
 51
0.0
 71
     0
 72
   100
 73
     1
 74
     1
 75
     0
 76
     0
 77
     0
 78
     0
  0
ENDTAB
  0
TABLE
  2
LTYPE
  5
5
100
AcDbSymbolTable
 70
     4
  0
LTYPE
  5
12
100
AcDbSymbolTableRecord
100
AcDbLinetypeTableRecord
  2
BYBLOCK
 70
     0
  3

 72
    65
 73
     0
 40
0.0
  0
LTYPE
  5
13
100
AcDbSymbolTableRecord
100
AcDbLinetypeTableRecord
  2
BYLAYER
 70
     0
  3

 72
    65
 73
     0
 40
0.0
  0
LTYPE
  5
14
100
AcDbSymbolTableRecord
100
AcDbLinetypeTableRecord
  2
CONTINUOUS
 70
     0
  3
Solid line
 72
    65
 73
     0
 40
0.0
  0
LTYPE
  5
F3
100
AcDbSymbolTableRecord
100
AcDbLinetypeTableRecord
  2
DASHDOT
 70
     0
  3
DASHDOT
 72
    65
 73
     4
 40
1.0
 49
0.5
 74
     0
 49
-0.25
 74
     0
 49
0.0
 74
     0
 49
-0.25
 74
     0
  0
ENDTAB
  0
TABLE
  2
LAYER
  5
2
100
AcDbSymbolTable
 70
     4
  0
LAYER
  5
E
100
AcDbSymbolTableRecord
100
AcDbLayerTableRecord
  2
0
 70
     0
 62
     7
  6
CONTINUOUS
  0
LAYER
  5
74
100
AcDbSymbolTableRecord
100
AcDbLayerTableRecord
  2
GR2_01
 70
     0
 62
     7
  6
CONTINUOUS
  0
LAYER
  5
A0
100
AcDbSymbolTableRecord
100
AcDbLayerTableRecord
  2
GR1_01
 70
     0
 62
     7
  6
CONTINUOUS
  0
LAYER
  5
1F4
100
AcDbSymbolTableRecord
100
AcDbLayerTableRecord
  2
GR2-1
 70
     0
 62
     7
  6
CONTINUOUS
  0
ENDTAB
  0
TABLE
  2
STYLE
  5
3
100
AcDbSymbolTable
 70
     2
  0
STYLE
  5
F
100
AcDbSymbolTableRecord
100
AcDbTextStyleTableRecord
  2
STANDARD
 70
     0
 40
0.0
 41
1.0
 50
0.0
 71
     0
 42
0.2
  3
txt.shx
  4

  0
STYLE
  5
87
100
AcDbSymbolTableRecord
100
AcDbTextStyleTableRecord
  2
HORIZONTALBIGFONT
 70
     0
 40
0.0
 41
1.0
 50
0.0
 71
     0
 42
0.2
  3
txt.shx
  4
bigfont.shx
  0
ENDTAB
  0
TABLE
  2
VIEW
  5
6
100
AcDbSymbolTable
 70
     0
  0
ENDTAB
  0
TABLE
  2
UCS
  5
7
100
AcDbSymbolTable
 70
     0
  0
ENDTAB
  0
TABLE
  2
APPID
  5
9
100
AcDbSymbolTable
 70
     1
  0
APPID
  5
10
100
AcDbSymbolTableRecord
100
AcDbRegAppTableRecord
  2
ACAD
 70
     0
  0
ENDTAB
  0
TABLE
  2
DIMSTYLE
  5
A
100
AcDbSymbolTable
 70
     1
  0
DIMSTYLE
105
1D
100
AcDbSymbolTableRecord
100
AcDbDimStyleTableRecord
  2
STANDARD
 70
     0
  3

  4

  5

  6

  7

 40
1.0
 41
0.18
 42
0.0625
 43
0.38
 44
0.18
 45
0.0
 46
0.0
 47
0.0
 48
0.0
 71
     0
 72
     0
 73
     1
 74
     1
 75
     0
 76
     0
 77
     0
 78
     0
140
0.18
141
0.09
142
0.0
143
25.4
144
1.0
145
0.0
146
1.0
147
0.09
170
     0
171
     2
172
     0
173
     0
174
     0
175
     0
176
     0
177
     0
178
     0
270
     2
271
     4
272
     4
273
     2
274
     2
275
     0
280
     0
281
     0
282
     0
283
     1
284
     0
285
     0
286
     0
287
     3
288
     0
340
F
  0
ENDTAB
  0
TABLE
  2
BLOCK_RECORD
  5
1
100
AcDbSymbolTable
 70
     1
  0
BLOCK_RECORD
  5
18
100
AcDbSymbolTableRecord
100
AcDbBlockTableRecord
  2
*MODEL_SPACE
  0
BLOCK_RECORD
  5
15
100
AcDbSymbolTableRecord
100
AcDbBlockTableRecord
  2
*PAPER_SPACE
  0
BLOCK_RECORD
  5
69A
100
AcDbSymbolTableRecord
100
AcDbBlockTableRecord
  2
BLKF117
  0
ENDTAB
  0
ENDSEC
  0
SECTION
  2
BLOCKS
  0
BLOCK
  5
19
100
AcDbEntity
  8
0
100
AcDbBlockBegin
  2
*MODEL_SPACE
 70
     0
 10
0.0
 20
0.0
 30
0.0
  3
*MODEL_SPACE
  1

  0
ENDBLK
  5
1A
100
AcDbEntity
  8
0
100
AcDbBlockEnd
  0
BLOCK
  5
16
100
AcDbEntity
 67
     1
  8
0
100
AcDbBlockBegin
  2
*PAPER_SPACE
 70
     0
 10
0.0
 20
0.0
 30
0.0
  3
*PAPER_SPACE
  1

  0
ENDBLK
  5
17
100
AcDbEntity
 67
     1
  8
0
100
AcDbBlockEnd
  0
BLOCK
  5
69B
100
AcDbEntity
  8
0
100
AcDbBlockBegin
  2
BLKF117
 70
     0
 10
0.0
 20
0.0
 30
0.0
  3
BLKF117
  1

  0
LINE
  5
69C
100
AcDbEntity
  8
0
  6
CONTINUOUS
100
AcDbLine
 10
90.212808
 20
15.415901
 30
0.0
 11
146.212808
 21
15.415901
 31
0.0
  0
LINE
  5
69D
100
AcDbEntity
  8
0
  6
CONTINUOUS
100
AcDbLine
 10
124.212808
 20
15.415901
 30
0.0
 11
124.212808
 21
19.415901
 31
0.0
  0
ARC
  5
69E
100
AcDbEntity
  8
0
  6
CONTINUOUS
100
AcDbCircle
 10
123.712808
 20
19.415901
 30
0.0
 40
0.5
100
AcDbArc
 50
0.0
 51
90.0
  0
LINE
  5
69F
100
AcDbEntity
  8
0
  6
CONTINUOUS
100
AcDbLine
 10
112.212808
 20
15.415901
 30
0.0
 11
112.212808
 21
19.415901
 31
0.0
  0
ARC
  5
6A0
100
AcDbEntity
  8
0
  6
CONTINUOUS
100
AcDbCircle
 10
112.712808
 20
19.415901
 30
0.0
 40
0.5
100
AcDbArc
 50
90.0
 51
180.0
  0
LINE
  5
6A1
100
AcDbEntity
  8
0
  6
CONTINUOUS
100
AcDbLine
 10
115.8676
 20
15.415901
 30
0.0
 11
115.8676
 21
19.915901
 31
0.0
  0
LINE
  5
6A2
100
AcDbEntity
  8
0
  6
CONTINUOUS
100
AcDbLine
 10
120.558016
 20
19.915901
 30
0.0
 11
120.558016
 21
15.415901
 31
0.0
  0
ENDBLK
  5
6A3
100
AcDbEntity
  8
0
100
AcDbBlockEnd
  0
ENDSEC
  0
SECTION
  2
ENTITIES
  0
LINE
  5
75
100
AcDbEntity
  8
GR2_01
  6
CONTINUOUS
100
AcDbLine
 10
259.535239
 20
144.686582
 30
0.0
 11
259.535239
 21
143.686582
 31
0.0
  0
LINE
  5
76
100
AcDbEntity
  8
GR2_01
  6
CONTINUOUS
100
AcDbLine
 10
256.035239
 20
144.686582
 30
0.0
 11
260.035239
 21
144.686582
 31
0.0
  0
LINE
  5
77
100
AcDbEntity
  8
GR2_01
  6
CONTINUOUS
100
AcDbLine
 10
257.135239
 20
144.686582
 30
0.0
 11
257.135239
 21
144.186582
 31
0.0
  0
LINE
  5
78
100
AcDbEntity
  8
GR2_01
  6
CONTINUOUS
100
AcDbLine
 10
258.585239
 20
142.686582
 30
0.0
 11
258.835239
 21
142.686582
 31
0.0
  0
LINE
  5
79
100
AcDbEntity
  8
GR2_01
  6
CONTINUOUS
100
AcDbLine
 10
257.135239
 20
144.186582
 30
0.0
 11
257.246732
 21
143.770483
 31
0.0
  0
LINE
  5
7A
100
AcDbEntity
  8
GR2_01
  6
CONTINUOUS
100
AcDbLine
 10
258.585239
 20
142.686582
 30
0.0
 11
257.246732
 21
143.770483
 31
0.0
  0
LINE
  5
7B
100
AcDbEntity
  8
GR2_01
  6
CONTINUOUS
100
AcDbLine
 10
260.035239
 20
174.886582
 30
0.0
 11
249.035239
 21
174.886582
 31
0.0
  0
LINE
  5
7C
100
AcDbEntity
  8
GR2_01
  6
CONTINUOUS
100
AcDbLine
 10
260.035239
 20
100.686582
 30
0.0
 11
249.035239
 21
100.686582
 31
0.0
  0
LINE
  5
7D
100
AcDbEntity
  8
GR2_01
  6
CONTINUOUS
100
AcDbLine
 10
260.035239
 20
109.186582
 30
0.0
 11
256.035239
 21
109.186582
 31
0.0
  0
LINE
  5
7E
100
AcDbEntity
  8
GR2_01
  6
CONTINUOUS
100
AcDbLine
 10
260.035239
 20
100.686582
 30
0.0
 11
260.035239
 21
109.186582
 31
0.0
  0
LINE
  5
7F
100
AcDbEntity
  8
GR2_01
  6
CONTINUOUS
100
AcDbLine
 10
248.535239
 20
174.386582
 30
0.0
 11
248.535239
 21
101.186582
 31
0.0
  0
LINE
  5
80
100
AcDbEntity
  8
GR2_01
  6
CONTINUOUS
100
AcDbLine
 10
260.035239
 20
144.686582
 30
0.0
 11
260.035239
 21
174.886582
 31
0.0
  0
LINE
  5
81
100
AcDbEntity
  8
GR2_01
  6
CONTINUOUS
100
AcDbLine
 10
256.035239
 20
144.686582
 30
0.0
 11
256.035239
 21
109.186582
 31
0.0
  0
LINE
  5
82
100
AcDbEntity
  8
GR2_01
  6
CONTINUOUS
100
AcDbLine
 10
248.535239
 20
174.386582
 30
0.0
 11
249.035239
 21
174.386582
 31
0.0
  0
LINE
  5
83
100
AcDbEntity
  8
GR2_01
  6
CONTINUOUS
100
AcDbLine
 10
249.035239
 20
101.186582
 30
0.0
 11
248.535239
 21
101.186582
 31
0.0
  0
LINE
  5
84
100
AcDbEntity
  8
GR2_01
  6
CONTINUOUS
100
AcDbLine
 10
249.035239
 20
174.886582
 30
0.0
 11
249.035239
 21
100.686582
 31
0.0
  0
LINE
  5
85
100
AcDbEntity
  8
GR2_01
  6
CONTINUOUS
100
AcDbLine
 10
259.535239
 20
143.686582
 30
0.0
 11
258.835239
 21
142.686582
 31
0.0
  0
ARC
  5
86
100
AcDbEntity
  8
GR2_01
  6
CONTINUOUS
100
AcDbCircle
 10
255.401148
 20
140.686582
 30
0.0
 40
1.184091
100
AcDbArc
 50
302.378413
 51
57.621587
  0
MTEXT
  5
88
100
AcDbEntity
  8
GR2_01
100
AcDbMText
 10
239.335239
 20
77.62484
 30
0.0
 40
1.818983
 41
18.826211
 71
     8
 72
     5
  1
\C94;\fMS ????|b0|i0|;\H1.8189826607704;\U+FF14\U+FF11.\U+FF14
  7
HORIZONTALBIGFONT
  0
LINE
  5
89
100
AcDbEntity
  8
GR2_01
  6
CONTINUOUS
 62
     7
100
AcDbLine
 10
218.635239
 20
77.523387
 30
0.0
 11
260.035239
 21
77.523387
 31
0.0
  0
LINE
  5
8A
100
AcDbEntity
  8
GR2_01
  6
CONTINUOUS
 62
     7
100
AcDbLine
 10
218.635239
 20
118.190669
 30
0.0
 11
218.635239
 21
75.810988
 31
0.0
  0
LINE
  5
8B
100
AcDbEntity
  8
GR2_01
  6
CONTINUOUS
 62
     7
100
AcDbLine
 10
260.035239
 20
99.16569
 30
0.0
 11
260.035239
 21
66.732041
 31
0.0
  0
LINE
  5
8C
100
AcDbEntity
  8
GR2_01
  6
CONTINUOUS
 62
     7
100
AcDbLine
 10
179.035239
 20
134.086582
 30
0.0
 11
179.035239
 21
66.732041
 31
0.0
  0
LINE
  5
8D
100
AcDbEntity
  8
GR2_01
  6
CONTINUOUS
 62
     7
100
AcDbLine
 10
140.852708
 20
173.886582
 30
0.0
 11
140.852708
 21
101.686582
 31
0.0
  0
LINE
  5
8E
100
AcDbEntity
  8
GR2_01
  6
CONTINUOUS
 62
     7
100
AcDbLine
 10
9.852708
 20
174.886582
 30
0.0
 11
139.852708
 21
174.886582
 31
0.0
  0
ARC
  5
8F
100
AcDbEntity
  8
GR2_01
  6
CONTINUOUS
 62
     7
100
AcDbCircle
 10
139.852708
 20
173.886582
 30
0.0
 40
1.0
100
AcDbArc
 50
0.0
 51
90.0
  0
ARC
  5
90
100
AcDbEntity
  8
GR2_01
  6
CONTINUOUS
 62
     7
100
AcDbCircle
 10
139.852708
 20
101.686582
 30
0.0
 40
1.0
100
AcDbArc
 50
270.0
 51
0.0
  0
LINE
  5
91
100
AcDbEntity
  8
GR2_01
  6
CONTINUOUS
 62
     7
100
AcDbLine
 10
132.352708
 20
118.686582
 30
0.0
 11
132.352708
 21
100.686582
 31
0.0
  0
LINE
  5
92
100
AcDbEntity
  8
GR2_01
  6
CONTINUOUS
 62
     7
100
AcDbLine
 10
133.852708
 20
110.886582
 30
0.0
 11
133.852708
 21
132.886582
 31
0.0
  0
LINE
  5
93
100
AcDbEntity
  8
GR2_01
  6
CONTINUOUS
 62
     7
100
AcDbLine
 10
63.452708
 20
173.386582
 30
0.0
 11
129.352708
 21
173.386582
 31
0.0
  0
LINE
  5
94
100
AcDbEntity
  8
GR2_01
  6
CONTINUOUS
 62
     7
100
AcDbLine
 10
132.352708
 20
111.386582
 30
0.0
 11
133.85483
 21
111.386582
 31
0.0
  0
LINE
  5
95
100
AcDbEntity
  8
GR2_01
  6
CONTINUOUS
 62
     7
100
AcDbLine
 10
8.852708
 20
173.886582
 30
0.0
 11
8.852708
 21
101.686582
 31
0.0
  0
ARC
  5
96
100
AcDbEntity
  8
GR2_01
  6
CONTINUOUS
 62
     7
100
AcDbCircle
 10
9.852708
 20
173.886582
 30
0.0
 40
1.0
100
AcDbArc
 50
90.0
 51
180.0
  0
ARC
  5
97
100
AcDbEntity
  8
GR2_01
  6
CONTINUOUS
 62
     7
100
AcDbCircle
 10
132.852708
 20
110.886582
 30
0.0
 40
1.0
100
AcDbArc
 50
270.0
 51
0.0
  0
LINE
  5
98
100
AcDbEntity
  8
GR2_01
  6
CONTINUOUS
 62
     7
100
AcDbLine
 10
55.852708
 20
118.686582
 30
0.0
 11
55.852708
 21
100.686582
 31
0.0
  0
LINE
  5
99
100
AcDbEntity
  8
GR2_01
  6
CONTINUOUS
 62
     7
100
AcDbLine
 10
54.352708
 20
110.886582
 30
0.0
 11
54.352708
 21
119.666612
 31
0.0
  0
LINE
  5
9A
100
AcDbEntity
  8
GR2_01
  6
CONTINUOUS
 62
     7
100
AcDbLine
 10
55.852708
 20
111.386582
 30
0.0
 11
54.374956
 21
111.386582
 31
0.0
  0
LINE
  5
9B
100
AcDbEntity
  8
GR2_01
  6
CONTINUOUS
 62
     7
100
AcDbLine
 10
139.852708
 20
100.686582
 30
0.0
 11
9.852708
 21
100.686582
 31
0.0
  0
ARC
  5
9C
100
AcDbEntity
  8
GR2_01
  6
CONTINUOUS
 62
     7
100
AcDbCircle
 10
55.352708
 20
110.886582
 30
0.0
 40
1.0
100
AcDbArc
 50
180.0
 51
270.0
  0
LINE
  5
9D
100
AcDbEntity
  8
GR2_01
  6
CONTINUOUS
 62
     7
100
AcDbLine
 10
136.352708
 20
175.645846
 30
0.0
 11
136.352708
 21
165.886582
 31
0.0
  0
LINE
  5
9E
100
AcDbEntity
  8
GR2_01
  6
CONTINUOUS
 62
     7
100
AcDbLine
 10
130.852708
 20
170.386582
 30
0.0
 11
141.295898
 21
170.386582
 31
0.0
  0
ARC
  5
9F
100
AcDbEntity
  8
GR2_01
  6
CONTINUOUS
 62
     7
100
AcDbCircle
 10
136.352708
 20
170.386582
 30
0.0
 40
2.25
100
AcDbArc
 50
111.03947
 51
248.96053
  0
ARC
  5
A1
100
AcDbEntity
  8
GR1_01
  6
CONTINUOUS
 62
     7
100
AcDbCircle
 10
136.352708
 20
170.386582
 30
0.0
 40
4.5
100
AcDbArc
 50
180.0
 51
270.0
  0
LINE
  5
A2
100
AcDbEntity
  8
GR1_01
  6
CONTINUOUS
 62
     7
100
AcDbLine
 10
136.352708
 20
165.886582
 30
0.0
 11
140.852708
 21
165.886582
 31
0.0
  0
LINE
  5
A3
100
AcDbEntity
  8
GR1_01
  6
CONTINUOUS
 62
     7
100
AcDbLine
 10
131.852708
 20
170.386582
 30
0.0
 11
131.852708
 21
174.886582
 31
0.0
  0
LINE
  5
A4
100
AcDbEntity
  8
GR1_01
  6
CONTINUOUS
 62
     7
100
AcDbLine
 10
130.852708
 20
173.886582
 30
0.0
 11
130.852708
 21
133.886582
 31
0.0
  0
ARC
  5
A5
100
AcDbEntity
  8
GR1_01
  6
CONTINUOUS
 62
     7
100
AcDbCircle
 10
129.852708
 20
173.886582
 30
0.0
 40
1.0
100
AcDbArc
 50
0.0
 51
90.0
  0
LINE
  5
A6
100
AcDbEntity
  8
GR1_01
  6
CONTINUOUS
 62
     7
100
AcDbLine
 10
129.352708
 20
173.386582
 30
0.0
 11
129.352708
 21
133.886582
 31
0.0
  0
LINE
  5
A7
100
AcDbEntity
  8
GR1_01
  6
CONTINUOUS
 62
     7
100
AcDbLine
 10
132.737708
 20
133.886582
 30
0.0
 11
130.852708
 21
133.886582
 31
0.0
  0
ARC
  5
A8
100
AcDbEntity
  8
GR1_01
  6
CONTINUOUS
 62
     7
100
AcDbCircle
 10
62.952708
 20
173.886582
 30
0.0
 40
1.0
100
AcDbArc
 50
90.0
 51
180.0
  0
LINE
  5
A9
100
AcDbEntity
  8
GR1_01
  6
CONTINUOUS
 62
     7
100
AcDbLine
 10
63.452708
 20
173.386582
 30
0.0
 11
63.452708
 21
133.886582
 31
0.0
  0
ARC
  5
AA
100
AcDbEntity
  8
GR1_01
  6
CONTINUOUS
 62
     7
100
AcDbCircle
 10
132.852708
 20
132.886582
 30
0.0
 40
1.0
100
AcDbArc
 50
0.0
 51
90.0
  0
ARC
  5
AB
100
AcDbEntity
  8
GR1_01
  6
CONTINUOUS
 62
     7
100
AcDbCircle
 10
9.852708
 20
101.686582
 30
0.0
 40
1.0
100
AcDbArc
 50
180.0
 51
270.0
  0
LINE
  5
AC
100
AcDbEntity
  8
GR2_01
  6
CONTINUOUS
 62
     7
100
AcDbLine
 10
13.352708
 20
100.49885
 30
0.0
 11
13.352708
 21
110.169788
 31
0.0
  0
LINE
  5
AD
100
AcDbEntity
  8
GR2_01
  6
CONTINUOUS
 62
     7
100
AcDbLine
 10
18.352708
 20
105.186582
 30
0.0
 11
8.409517
 21
105.186582
 31
0.0
  0
ARC
  5
AE
100
AcDbEntity
  8
GR2_01
  6
CONTINUOUS
 62
     7
100
AcDbCircle
 10
13.352708
 20
105.186582
 30
0.0
 40
2.25
100
AcDbArc
 50
111.03947
 51
248.96053
  0
ARC
  5
AF
100
AcDbEntity
  8
GR1_01
  6
CONTINUOUS
 62
     7
100
AcDbCircle
 10
13.352708
 20
105.186582
 30
0.0
 40
4.5
100
AcDbArc
 50
0.0
 51
90.0
  0
LINE
  5
B0
100
AcDbEntity
  8
GR1_01
  6
CONTINUOUS
 62
     7
100
AcDbLine
 10
13.352708
 20
109.686582
 30
0.0
 11
8.852708
 21
109.686582
 31
0.0
  0
LINE
  5
B1
100
AcDbEntity
  8
GR1_01
  6
CONTINUOUS
 62
     7
100
AcDbLine
 10
17.852708
 20
105.186582
 30
0.0
 11
17.852708
 21
100.686582
 31
0.0
  0
LINE
  5
B2
100
AcDbEntity
  8
GR2_01
  6
CONTINUOUS
 62
     7
100
AcDbLine
 10
25.352708
 20
114.786582
 30
0.0
 11
34.952708
 21
114.786582
 31
0.0
  0
LINE
  5
B3
100
AcDbEntity
  8
GR2_01
  6
CONTINUOUS
 62
     7
100
AcDbLine
 10
25.352708
 20
160.786582
 30
0.0
 11
25.352708
 21
114.786582
 31
0.0
  0
LINE
  5
B4
100
AcDbEntity
  8
GR2_01
  6
CONTINUOUS
 62
     7
100
AcDbLine
 10
34.952708
 20
160.786582
 30
0.0
 11
34.952708
 21
114.786582
 31
0.0
  0
LINE
  5
B5
100
AcDbEntity
  8
GR2_01
  6
CONTINUOUS
 62
     7
100
AcDbLine
 10
22.952708
 20
160.786582
 30
0.0
 11
13.352708
 21
160.786582
 31
0.0
  0
LINE
  5
B6
100
AcDbEntity
  8
GR2_01
  6
CONTINUOUS
 62
     7
100
AcDbLine
 10
13.352708
 20
114.786582
 30
0.0
 11
22.952708
 21
114.786582
 31
0.0
  0
LINE
  5
B7
100
AcDbEntity
  8
GR2_01
  6
CONTINUOUS
 62
     7
100
AcDbLine
 10
13.352708
 20
160.786582
 30
0.0
 11
13.352708
 21
114.786582
 31
0.0
  0
LINE
  5
B8
100
AcDbEntity
  8
GR2_01
  6
CONTINUOUS
 62
     7
100
AcDbLine
 10
22.952708
 20
160.786582
 30
0.0
 11
22.952708
 21
114.786582
 31
0.0
  0
LINE
  5
B9
100
AcDbEntity
  8
GR2_01
  6
CONTINUOUS
 62
     7
100
AcDbLine
 10
34.952708
 20
160.786582
 30
0.0
 11
25.352708
 21
160.786582
 31
0.0
  0
LINE
  5
BA
100
AcDbEntity
  8
GR1_01
  6
CONTINUOUS
 62
     7
100
AcDbLine
 10
132.352708
 20
132.386582
 30
0.0
 11
55.852708
 21
132.386582
 31
0.0
  0
LINE
  5
BB
100
AcDbEntity
  8
GR2_01
  6
CONTINUOUS
 62
     7
100
AcDbLine
 10
12.544933
 20
107.286582
 30
0.0
 11
14.160482
 21
107.286582
 31
0.0
  0
LINE
  5
BC
100
AcDbEntity
  8
GR2_01
  6
CONTINUOUS
 62
     7
100
AcDbLine
 10
12.544933
 20
103.086582
 30
0.0
 11
14.160482
 21
103.086582
 31
0.0
  0
ARC
  5
BD
100
AcDbEntity
  8
GR2_01
  6
CONTINUOUS
 62
     7
100
AcDbCircle
 10
13.352708
 20
105.186582
 30
0.0
 40
2.25
100
AcDbArc
 50
291.03947
 51
68.96053
  0
LINE
  5
BE
100
AcDbEntity
  8
GR2_01
  6
CONTINUOUS
 62
     7
100
AcDbLine
 10
135.544933
 20
172.486582
 30
0.0
 11
137.160482
 21
172.486582
 31
0.0
  0
LINE
  5
BF
100
AcDbEntity
  8
GR2_01
  6
CONTINUOUS
 62
     7
100
AcDbLine
 10
135.544933
 20
168.286582
 30
0.0
 11
137.160482
 21
168.286582
 31
0.0
  0
ARC
  5
C0
100
AcDbEntity
  8
GR2_01
  6
CONTINUOUS
 62
     7
100
AcDbCircle
 10
136.352708
 20
170.386582
 30
0.0
 40
2.25
100
AcDbArc
 50
291.03947
 51
68.96053
  0
LINE
  5
C1
100
AcDbEntity
  8
GR2_01
  6
CONTINUOUS
 62
     7
100
AcDbLine
 10
132.352708
 20
118.686582
 30
0.0
 11
132.352708
 21
132.386582
 31
0.0
  0
LINE
  5
C2
100
AcDbEntity
  8
GR2_01
  6
CONTINUOUS
 62
     7
100
AcDbLine
 10
55.852708
 20
118.686582
 30
0.0
 11
55.852708
 21
132.386582
 31
0.0
  0
ARC
  5
C3
100
AcDbEntity
  8
GR2_01
  6
CONTINUOUS
 62
     7
100
AcDbCircle
 10
55.352708
 20
132.886582
 30
0.0
 40
1.0
100
AcDbArc
 50
90.0
 51
180.0
  0
LINE
  5
C4
100
AcDbEntity
  8
GR2_01
  6
CONTINUOUS
 62
     7
100
AcDbLine
 10
63.782101
 20
127.886582
 30
0.0
 11
67.27131
 21
127.886582
 31
0.0
  0
LINE
  5
C5
100
AcDbEntity
  8
GR2_01
  6
CONTINUOUS
 62
     7
100
AcDbLine
 10
74.881052
 20
127.886582
 30
0.0
 11
71.414364
 21
127.886582
 31
0.0
  0
LINE
  5
C6
100
AcDbEntity
  8
GR2_01
  6
CONTINUOUS
 62
     7
100
AcDbLine
 10
82.501052
 20
127.886582
 30
0.0
 11
79.034364
 21
127.886582
 31
0.0
  0
LINE
  5
C7
100
AcDbEntity
  8
GR2_01
  6
CONTINUOUS
 62
     7
100
AcDbLine
 10
90.121052
 20
127.886582
 30
0.0
 11
86.654364
 21
127.886582
 31
0.0
  0
LINE
  5
C8
100
AcDbEntity
  8
GR2_01
  6
CONTINUOUS
 62
     7
100
AcDbLine
 10
97.741052
 20
127.886582
 30
0.0
 11
94.274364
 21
127.886582
 31
0.0
  0
LINE
  5
C9
100
AcDbEntity
  8
GR2_01
  6
CONTINUOUS
 62
     7
100
AcDbLine
 10
105.361052
 20
127.886582
 30
0.0
 11
101.894364
 21
127.886582
 31
0.0
  0
LINE
  5
CA
100
AcDbEntity
  8
GR2_01
  6
CONTINUOUS
 62
     7
100
AcDbLine
 10
112.981052
 20
127.886582
 30
0.0
 11
109.514364
 21
127.886582
 31
0.0
  0
LINE
  5
CB
100
AcDbEntity
  8
GR2_01
  6
CONTINUOUS
 62
     7
100
AcDbLine
 10
120.601052
 20
127.886582
 30
0.0
 11
117.134364
 21
127.886582
 31
0.0
  0
LINE
  5
CC
100
AcDbEntity
  8
GR2_01
  6
CONTINUOUS
 62
     7
100
AcDbLine
 10
125.927708
 20
125.386582
 30
0.0
 11
125.927708
 21
118.686582
 31
0.0
  0
LINE
  5
CD
100
AcDbEntity
  8
GR2_01
  6
CONTINUOUS
 62
     7
100
AcDbLine
 10
125.927708
 20
118.686582
 30
0.0
 11
132.852708
 21
118.686582
 31
0.0
  0
LINE
  5
CE
100
AcDbEntity
  8
GR2_01
  6
CONTINUOUS
 62
     7
100
AcDbLine
 10
58.467708
 20
118.686582
 30
0.0
 11
55.352708
 21
118.686582
 31
0.0
  0
LINE
  5
CF
100
AcDbEntity
  8
GR2_01
  6
CONTINUOUS
100
AcDbLine
 10
127.402708
 20
174.886582
 30
0.0
 11
127.402708
 21
173.386582
 31
0.0
  0
LINE
  5
D0
100
AcDbEntity
  8
GR2_01
  6
CONTINUOUS
100
AcDbLine
 10
120.402708
 20
174.886582
 30
0.0
 11
120.402708
 21
173.386582
 31
0.0
  0
LINE
  5
D1
100
AcDbEntity
  8
GR2_01
  6
CONTINUOUS
100
AcDbLine
 10
127.402708
 20
133.886582
 30
0.0
 11
127.402708
 21
132.386582
 31
0.0
  0
LINE
  5
D2
100
AcDbEntity
  8
GR2_01
  6
CONTINUOUS
100
AcDbLine
 10
120.402708
 20
133.886582
 30
0.0
 11
120.402708
 21
132.386582
 31
0.0
  0
LINE
  5
D3
100
AcDbEntity
  8
GR2_01
  6
CONTINUOUS
100
AcDbLine
 10
110.402708
 20
174.886582
 30
0.0
 11
110.402708
 21
173.386582
 31
0.0
  0
LINE
  5
D4
100
AcDbEntity
  8
GR2_01
  6
CONTINUOUS
100
AcDbLine
 10
103.402708
 20
174.886582
 30
0.0
 11
103.402708
 21
173.386582
 31
0.0
  0
LINE
  5
D5
100
AcDbEntity
  8
GR2_01
  6
CONTINUOUS
100
AcDbLine
 10
110.402708
 20
133.886582
 30
0.0
 11
110.402708
 21
132.386582
 31
0.0
  0
LINE
  5
D6
100
AcDbEntity
  8
GR2_01
  6
CONTINUOUS
100
AcDbLine
 10
103.402708
 20
133.886582
 30
0.0
 11
103.402708
 21
132.386582
 31
0.0
  0
LINE
  5
D7
100
AcDbEntity
  8
GR2_01
  6
CONTINUOUS
100
AcDbLine
 10
93.402708
 20
174.886582
 30
0.0
 11
93.402708
 21
173.386582
 31
0.0
  0
LINE
  5
D8
100
AcDbEntity
  8
GR2_01
  6
CONTINUOUS
100
AcDbLine
 10
86.402708
 20
174.886582
 30
0.0
 11
86.402708
 21
173.386582
 31
0.0
  0
LINE
  5
D9
100
AcDbEntity
  8
GR2_01
  6
CONTINUOUS
100
AcDbLine
 10
93.402708
 20
133.886582
 30
0.0
 11
93.402708
 21
132.386582
 31
0.0
  0
LINE
  5
DA
100
AcDbEntity
  8
GR2_01
  6
CONTINUOUS
100
AcDbLine
 10
86.402708
 20
133.886582
 30
0.0
 11
86.402708
 21
132.386582
 31
0.0
  0
LINE
  5
DB
100
AcDbEntity
  8
GR2_01
  6
CONTINUOUS
100
AcDbLine
 10
76.402708
 20
174.886582
 30
0.0
 11
76.402708
 21
173.386582
 31
0.0
  0
LINE
  5
DC
100
AcDbEntity
  8
GR2_01
  6
CONTINUOUS
100
AcDbLine
 10
69.402708
 20
174.886582
 30
0.0
 11
69.402708
 21
173.386582
 31
0.0
  0
LINE
  5
DD
100
AcDbEntity
  8
GR2_01
  6
CONTINUOUS
100
AcDbLine
 10
76.402708
 20
133.886582
 30
0.0
 11
76.402708
 21
132.386582
 31
0.0
  0
LINE
  5
DE
100
AcDbEntity
  8
GR2_01
  6
CONTINUOUS
100
AcDbLine
 10
69.402708
 20
133.886582
 30
0.0
 11
69.402708
 21
132.386582
 31
0.0
  0
ARC
  5
DF
100
AcDbEntity
  8
GR2_01
  6
CONTINUOUS
 62
     7
100
AcDbCircle
 10
132.852708
 20
119.686582
 30
0.0
 40
1.0
100
AcDbArc
 50
270.0
 51
0.0
  0
ARC
  5
E0
100
AcDbEntity
  8
GR2_01
  6
CONTINUOUS
 62
     7
100
AcDbCircle
 10
55.352708
 20
119.686582
 30
0.0
 40
1.0
100
AcDbArc
 50
180.0
 51
270.0
  0
LINE
  5
E1
100
AcDbEntity
  8
GR2_01
  6
CONTINUOUS
 62
     7
100
AcDbLine
 10
58.467708
 20
125.386582
 30
0.0
 11
58.467708
 21
118.686582
 31
0.0
  0
LINE
  5
E2
100
AcDbEntity
  8
0
  6
CONTINUOUS
 62
     7
100
AcDbLine
 10
218.635239
 20
132.886582
 30
0.0
 11
218.635239
 21
119.686582
 31
0.0
  0
LINE
  5
E3
100
AcDbEntity
  8
0
  6
CONTINUOUS
 62
     7
100
AcDbLine
 10
248.535239
 20
174.886582
 30
0.0
 11
248.535239
 21
100.686582
 31
0.0
  0
LINE
  5
E4
100
AcDbEntity
  8
0
  6
CONTINUOUS
 62
     7
100
AcDbLine
 10
218.635239
 20
173.886582
 30
0.0
 11
218.635239
 21
132.848637
 31
0.0
  0
LINE
  5
E5
100
AcDbEntity
  8
0
  6
CONTINUOUS
 62
     7
100
AcDbLine
 10
232.535239
 20
117.686582
 30
0.0
 11
232.535239
 21
110.885972
 31
0.0
  0
LINE
  5
E6
100
AcDbEntity
  8
0
  6
CONTINUOUS
 62
     7
100
AcDbLine
 10
242.335239
 20
173.886582
 30
0.0
 11
242.335239
 21
101.686582
 31
0.0
  0
ARC
  5
E7
100
AcDbEntity
  8
0
  6
CONTINUOUS
 62
     7
100
AcDbCircle
 10
233.535239
 20
110.885972
 30
0.0
 40
1.0
100
AcDbArc
 50
180.0
 51
268.0
  0
LINE
  5
E8
100
AcDbEntity
  8
0
  6
CONTINUOUS
 62
     7
100
AcDbLine
 10
231.535239
 20
118.686582
 30
0.0
 11
219.635239
 21
118.686582
 31
0.0
  0
ARC
  5
E9
100
AcDbEntity
  8
0
  6
CONTINUOUS
 62
     7
100
AcDbCircle
 10
231.535239
 20
117.686582
 30
0.0
 40
1.0
100
AcDbArc
 50
0.0
 51
90.0
  0
ARC
  5
EA
100
AcDbEntity
  8
0
  6
CONTINUOUS
 62
     7
100
AcDbCircle
 10
219.635239
 20
119.686582
 30
0.0
 40
1.0
100
AcDbArc
 50
180.0
 51
270.0
  0
LINE
  5
EB
100
AcDbEntity
  8
0
  6
CONTINUOUS
 62
     7
100
AcDbLine
 10
248.535239
 20
174.886582
 30
0.0
 11
219.635239
 21
174.886582
 31
0.0
  0
ARC
  5
EC
100
AcDbEntity
  8
0
  6
CONTINUOUS
 62
     7
100
AcDbCircle
 10
219.635239
 20
173.886582
 30
0.0
 40
1.0
100
AcDbArc
 50
90.0
 51
180.0
  0
ARC
  5
ED
100
AcDbEntity
  8
0
  6
CONTINUOUS
 62
     7
100
AcDbCircle
 10
243.335239
 20
173.886582
 30
0.0
 40
1.0
100
AcDbArc
 50
90.0
 51
180.0
  0
ARC
  5
EE
100
AcDbEntity
  8
0
  6
CONTINUOUS
 62
     7
100
AcDbCircle
 10
243.335239
 20
101.686582
 30
0.0
 40
1.0
100
AcDbArc
 50
180.0
 51
270.0
  0
LINE
  5
EF
100
AcDbEntity
  8
0
  6
CONTINUOUS
 62
     7
100
AcDbLine
 10
13.852708
 20
160.236582
 30
0.0
 11
13.852708
 21
115.336582
 31
0.0
  0
LINE
  5
F0
100
AcDbEntity
  8
0
  6
CONTINUOUS
 62
     7
100
AcDbLine
 10
22.452708
 20
115.336582
 30
0.0
 11
22.452708
 21
160.236582
 31
0.0
  0
LINE
  5
F1
100
AcDbEntity
  8
0
  6
CONTINUOUS
 62
     7
100
AcDbLine
 10
22.452708
 20
160.236582
 30
0.0
 11
13.852708
 21
160.236582
 31
0.0
  0
LINE
  5
F2
100
AcDbEntity
  8
0
  6
CONTINUOUS
 62
     7
100
AcDbLine
 10
22.452708
 20
115.336582
 30
0.0
 11
13.852708
 21
115.336582
 31
0.0
  0
LINE
  5
F4
100
AcDbEntity
  8
GR2_01
  6
DASHDOT
100
AcDbLine
 10
263.235239
 20
139.186582
 30
0.0
 11
263.235239
 21
115.186582
 31
0.0
  0
LINE
  5
F5
100
AcDbEntity
  8
GR2_01
  6
DASHDOT
100
AcDbLine
 10
261.735239
 20
140.686582
 30
0.0
 11
258.18994
 21
140.686582
 31
0.0
  0
ARC
  5
F6
100
AcDbEntity
  8
GR2_01
  6
DASHDOT
100
AcDbCircle
 10
261.735239
 20
139.186582
 30
0.0
 40
1.5
100
AcDbArc
 50
0.0
 51
90.0
  0
LINE
  5
F7
100
AcDbEntity
  8
GR2_01
  6
CONTINUOUS
100
AcDbLine
 10
256.035239
 20
144.186582
 30
0.0
 11
256.035239
 21
139.686582
 31
0.0
  0
LINE
  5
F8
100
AcDbEntity
  8
GR2_01
  6
DASHDOT
100
AcDbLine
 10
257.035239
 20
144.186582
 30
0.0
 11
257.035239
 21
142.686582
 31
0.0
  0
LINE
  5
F9
100
AcDbEntity
  8
GR2_01
  6
DASHDOT
100
AcDbLine
 10
257.035239
 20
142.686582
 30
0.0
 11
258.18994
 21
140.686582
 31
0.0
  0
ARC
  5
FA
100
AcDbEntity
  8
GR2_01
  6
DASHDOT
100
AcDbCircle
 10
256.535239
 20
144.186582
 30
0.0
 40
0.5
100
AcDbArc
 50
0.0
 51
180.0
  0
LINE
  5
FB
100
AcDbEntity
  8
GR2_01
  6
DASHDOT
100
AcDbLine
 10
261.235239
 20
139.186582
 30
0.0
 11
256.535239
 21
139.186582
 31
0.0
  0
ARC
  5
FC
100
AcDbEntity
  8
GR2_01
  6
DASHDOT
100
AcDbCircle
 10
256.535239
 20
139.686582
 30
0.0
 40
0.5
100
AcDbArc
 50
180.0
 51
270.0
  0
LINE
  5
FD
100
AcDbEntity
  8
GR2_01
  6
DASHDOT
100
AcDbLine
 10
261.735239
 20
138.686582
 30
0.0
 11
261.735239
 21
115.686582
 31
0.0
  0
ARC
  5
FE
100
AcDbEntity
  8
GR2_01
  6
DASHDOT
100
AcDbCircle
 10
261.235239
 20
138.686582
 30
0.0
 40
0.5
100
AcDbArc
 50
0.0
 51
90.0
  0
LINE
  5
FF
100
AcDbEntity
  8
GR2_01
  6
DASHDOT
100
AcDbLine
 10
261.735239
 20
113.686582
 30
0.0
 11
258.18994
 21
113.686582
 31
0.0
  0
ARC
  5
100
100
AcDbEntity
  8
GR2_01
  6
DASHDOT
100
AcDbCircle
 10
261.735239
 20
115.186582
 30
0.0
 40
1.5
100
AcDbArc
 50
270.0
 51
0.0
  0
LINE
  5
101
100
AcDbEntity
  8
GR2_01
  6
CONTINUOUS
100
AcDbLine
 10
256.035239
 20
110.186582
 30
0.0
 11
256.035239
 21
114.686582
 31
0.0
  0
LINE
  5
102
100
AcDbEntity
  8
GR2_01
  6
DASHDOT
100
AcDbLine
 10
257.035239
 20
110.186582
 30
0.0
 11
257.035239
 21
111.686582
 31
0.0
  0
ARC
  5
103
100
AcDbEntity
  8
GR2_01
  6
DASHDOT
100
AcDbCircle
 10
256.535239
 20
110.186582
 30
0.0
 40
0.5
100
AcDbArc
 50
180.0
 51
0.0
  0
LINE
  5
104
100
AcDbEntity
  8
GR2_01
  6
DASHDOT
100
AcDbLine
 10
261.235239
 20
115.186582
 30
0.0
 11
256.535239
 21
115.186582
 31
0.0
  0
ARC
  5
105
100
AcDbEntity
  8
GR2_01
  6
DASHDOT
100
AcDbCircle
 10
256.535239
 20
114.686582
 30
0.0
 40
0.5
100
AcDbArc
 50
90.0
 51
180.0
  0
ARC
  5
106
100
AcDbEntity
  8
GR2_01
  6
DASHDOT
100
AcDbCircle
 10
261.235239
 20
115.686582
 30
0.0
 40
0.5
100
AcDbArc
 50
270.0
 51
0.0
  0
LINE
  5
107
100
AcDbEntity
  8
GR2_01
  6
DASHDOT
100
AcDbLine
 10
258.18994
 20
113.686582
 30
0.0
 11
257.035239
 21
111.686582
 31
0.0
  0
LINE
  5
108
100
AcDbEntity
  8
GR2_01
  6
CONTINUOUS
 62
     7
100
AcDbLine
 10
259.535239
 20
96.686582
 30
0.0
 11
255.535239
 21
96.686582
 31
0.0
  0
LINE
  5
109
100
AcDbEntity
  8
GR2_01
  6
CONTINUOUS
 62
     7
100
AcDbLine
 10
259.535239
 20
95.686582
 30
0.0
 11
259.535239
 21
100.686582
 31
0.0
  0
LINE
  5
10A
100
AcDbEntity
  8
GR2_01
  6
CONTINUOUS
 62
     7
100
AcDbLine
 10
255.035239
 20
96.186582
 30
0.0
 11
255.035239
 21
100.686582
 31
0.0
  0
ARC
  5
10B
100
AcDbEntity
  8
GR2_01
  6
CONTINUOUS
 62
     7
100
AcDbCircle
 10
255.535239
 20
97.186582
 30
0.0
 40
0.5
100
AcDbArc
 50
180.0
 51
270.0
  0
LINE
  5
10C
100
AcDbEntity
  8
GR2_01
  6
CONTINUOUS
 62
     7
100
AcDbLine
 10
259.535239
 20
95.686582
 30
0.0
 11
255.535239
 21
95.686582
 31
0.0
  0
ARC
  5
10D
100
AcDbEntity
  8
GR2_01
  6
CONTINUOUS
 62
     7
100
AcDbCircle
 10
255.535239
 20
96.186582
 30
0.0
 40
0.5
100
AcDbArc
 50
180.0
 51
270.0
  0
MTEXT
  5
10E
100
AcDbEntity
  8
GR1_01
100
AcDbMText
 10
74.852708
 20
87.09057
 30
0.0
 40
1.818983
 41
15.551546
 71
     8
 72
     5
  1
\C94;\fMS ????|b0|i0|;\H1.8189826607704;\U+FF11\U+FF13\U+FF12
 11
1.0
 21
0.0
 31
0.0
  0
LINE
  5
10F
100
AcDbEntity
  8
GR1_01
  6
CONTINUOUS
 62
     7
100
AcDbLine
 10
8.852708
 20
86.723392
 30
0.0
 11
140.852708
 21
86.723392
 31
0.0
  0
LINE
  5
110
100
AcDbEntity
  8
GR1_01
  6
CONTINUOUS
 62
     7
100
AcDbLine
 10
8.852708
 20
100.686582
 30
0.0
 11
8.852708
 21
84.442563
 31
0.0
  0
LINE
  5
111
100
AcDbEntity
  8
GR1_01
  6
CONTINUOUS
 62
     7
100
AcDbLine
 10
140.852708
 20
100.686582
 30
0.0
 11
140.852708
 21
84.442563
 31
0.0
  0
MTEXT
  5
112
100
AcDbEntity
  8
GR1_01
100
AcDbMText
 10
166.918166
 20
137.786582
 30
0.0
 40
1.818983
 41
22.284768
 71
     8
 72
     5
  1
\C94;\fMS ????|b0|i0|;\H1.8189826607704;\U+FF17\U+FF14.\U+FF12
  7
HORIZONTALBIGFONT
 11
0.0
 21
1.0
 31
0.0
  0
LINE
  5
113
100
AcDbEntity
  8
GR1_01
  6
CONTINUOUS
 62
     7
100
AcDbLine
 10
167.577503
 20
100.686582
 30
0.0
 11
167.577503
 21
174.886582
 31
0.0
  0
LINE
  5
114
100
AcDbEntity
  8
GR1_01
  6
CONTINUOUS
 62
     7
100
AcDbLine
 10
140.852708
 20
100.686582
 30
0.0
 11
169.53266
 21
100.686582
 31
0.0
  0
LINE
  5
115
100
AcDbEntity
  8
GR1_01
  6
CONTINUOUS
 62
     7
100
AcDbLine
 10
140.852708
 20
174.886582
 30
0.0
 11
169.53266
 21
174.886582
 31
0.0
  0
MTEXT
  5
116
100
AcDbEntity
  8
GR1_01
100
AcDbMText
 10
167.573324
 20
89.785366
 30
0.0
 40
1.818983
 41
3.314394
 71
     8
 72
     5
  1
\C94;\fMS ????|b0|i0|;\H1.8189826607704;\U+FF15
 11
0.0
 21
1.0
 31
0.0
  0
LINE
  5
117
100
AcDbEntity
  8
GR1_01
  6
CONTINUOUS
 62
     7
100
AcDbLine
 10
167.577503
 20
86.810984
 30
0.0
 11
167.577503
 21
100.686582
 31
0.0
  0
LINE
  5
118
100
AcDbEntity
  8
GR1_01
  6
CONTINUOUS
 62
     7
100
AcDbLine
 10
76.517184
 20
95.686582
 30
0.0
 11
169.53266
 21
95.686582
 31
0.0
  0
MTEXT
  5
119
100
AcDbEntity
  8
GR1_01
100
AcDbMText
 10
158.095165
 20
137.786582
 30
0.0
 40
1.818983
 41
19.784768
 71
     8
 72
     5
  1
\C94;\fMS ????|b0|i0|;\H1.8189826607704;\U+FF16\U+FF15.\U+FF12
  7
HORIZONTALBIGFONT
 11
0.0
 21
1.0
 31
0.0
  0
LINE
  5
11A
100
AcDbEntity
  8
GR1_01
  6
CONTINUOUS
 62
     7
100
AcDbLine
 10
158.485615
 20
105.186582
 30
0.0
 11
158.485615
 21
170.386582
 31
0.0
  0
LINE
  5
11B
100
AcDbEntity
  8
GR1_01
  6
CONTINUOUS
 62
     7
100
AcDbLine
 10
19.352708
 20
105.186582
 30
0.0
 11
159.999329
 21
105.186582
 31
0.0
  0
LINE
  5
11C
100
AcDbEntity
  8
GR1_01
  6
CONTINUOUS
 62
     7
100
AcDbLine
 10
142.295898
 20
170.386582
 30
0.0
 11
159.92552
 21
170.386582
 31
0.0
  0
MTEXT
  5
11D
100
AcDbEntity
  8
GR1_01
100
AcDbMText
 10
275.637859
 20
91.584773
 30
0.0
 40
1.818983
 41
13.715585
 71
     8
 72
     5
  1
\C94;\fMS ????|b0|i0|;\H1.8189826607704;\U+FF18.\U+FF15
  7
HORIZONTALBIGFONT
 11
0.0
 21
1.0
 31
0.0
  0
LINE
  5
11E
100
AcDbEntity
  8
GR1_01
  6
CONTINUOUS
 62
     7
100
AcDbLine
 10
275.846004
 20
100.686582
 30
0.0
 11
275.846004
 21
109.186582
 31
0.0
  0
LINE
  5
11F
100
AcDbEntity
  8
GR1_01
  6
CONTINUOUS
 62
     7
100
AcDbLine
 10
261.035239
 20
100.686582
 30
0.0
 11
276.846004
 21
100.686582
 31
0.0
  0
LINE
  5
120
100
AcDbEntity
  8
GR1_01
  6
CONTINUOUS
 62
     7
100
AcDbLine
 10
261.035239
 20
109.186582
 30
0.0
 11
276.846004
 21
109.186582
 31
0.0
  0
LINE
  5
121
100
AcDbEntity
  8
GR1_01
  6
CONTINUOUS
 62
     7
100
AcDbLine
 10
275.846004
 20
85.317566
 30
0.0
 11
275.846004
 21
100.686582
 31
0.0
  0
MTEXT
  5
122
100
AcDbEntity
  8
GR1_01
100
AcDbMText
 10
275.637859
 20
126.936582
 30
0.0
 40
1.818983
 41
17.122804
 71
     8
 72
     5
  1
\C94;\fMS ????|b0|i0|;\H1.8189826607704;\U+FF13\U+FF15.\U+FF15
  7
HORIZONTALBIGFONT
 11
0.0
 21
1.0
 31
0.0
  0
LINE
  5
123
100
AcDbEntity
  8
GR1_01
  6
CONTINUOUS
 62
     7
100
AcDbLine
 10
275.846004
 20
109.186582
 30
0.0
 11
275.846004
 21
144.686582
 31
0.0
  0
LINE
  5
124
100
AcDbEntity
  8
GR1_01
  6
CONTINUOUS
 62
     7
100
AcDbLine
 10
261.035239
 20
144.686582
 30
0.0
 11
276.846004
 21
144.686582
 31
0.0
  0
MTEXT
  5
125
100
AcDbEntity
  8
GR1_01
100
AcDbMText
 10
275.637859
 20
159.786582
 30
0.0
 40
1.818983
 41
25.866238
 71
     8
 72
     5
  1
\C94;\fＭＳ ゴシック|b0|i0|;\H1.8189826607704;(\U+FF13\U+FF10.\U+FF12)
  7
HORIZONTALBIGFONT
 11
0.0
 21
1.0
 31
0.0
  0
LINE
  5
126
100
AcDbEntity
  8
GR1_01
  6
CONTINUOUS
 62
     7
100
AcDbLine
 10
275.846004
 20
144.686582
 30
0.0
 11
275.846004
 21
174.886582
 31
0.0
  0
LINE
  5
127
100
AcDbEntity
  8
GR1_01
  6
CONTINUOUS
 62
     7
100
AcDbLine
 10
261.035239
 20
174.886582
 30
0.0
 11
276.846004
 21
174.886582
 31
0.0
  0
MTEXT
  5
128
100
AcDbEntity
  8
GR1_01
100
AcDbMText
 10
253.535239
 20
181.151937
 30
0.0
 40
1.818983
 41
8.564385
 71
     8
 72
     5
  1
\C94;\fMS ????|b0|i0|;\H1.8189826607704;\U+FF11\U+FF13
 11
1.0
 21
0.0
 31
0.0
  0
LINE
  5
129
100
AcDbEntity
  8
GR1_01
  6
CONTINUOUS
 62
     7
100
AcDbLine
 10
247.035239
 20
181.442562
 30
0.0
 11
260.035239
 21
181.442562
 31
0.0
  0
LINE
  5
12A
100
AcDbEntity
  8
GR1_01
  6
CONTINUOUS
 62
     7
100
AcDbLine
 10
247.035239
 20
175.886582
 30
0.0
 11
247.035239
 21
182.685671
 31
0.0
  0
LINE
  5
12B
100
AcDbEntity
  8
GR1_01
  6
CONTINUOUS
 62
     7
100
AcDbLine
 10
260.035239
 20
175.886582
 30
0.0
 11
260.035239
 21
182.685671
 31
0.0
  0
LINE
  5
12C
100
AcDbEntity
  8
GR2_01
  6
CONTINUOUS
 62
     7
100
AcDbLine
 10
258.135239
 20
111.686582
 30
0.0
 11
257.571137
 21
111.686582
 31
0.0
  0
LINE
  5
12D
100
AcDbEntity
  8
GR2_01
  6
CONTINUOUS
 62
     7
100
AcDbLine
 10
258.135239
 20
111.686582
 30
0.0
 11
259.735239
 21
109.186582
 31
0.0
  0
LINE
  5
12E
100
AcDbEntity
  8
GR2_01
  6
CONTINUOUS
 62
     7
100
AcDbLine
 10
257.035239
 20
109.686582
 30
0.0
 11
256.035239
 21
109.686582
 31
0.0
  0
LINE
  5
12F
100
AcDbEntity
  8
GR2_01
  6
CONTINUOUS
 62
     7
100
AcDbLine
 10
257.035239
 20
109.686582
 30
0.0
 11
257.571137
 21
111.686582
 31
0.0
  0
LINE
  5
130
100
AcDbEntity
  8
GR2_01
  6
CONTINUOUS
100
AcDbLine
 10
34.452708
 20
159.750736
 30
0.0
 11
34.452708
 21
152.450736
 31
0.0
  0
LINE
  5
131
100
AcDbEntity
  8
GR2_01
  6
CONTINUOUS
100
AcDbLine
 10
25.852708
 20
159.750736
 30
0.0
 11
25.852708
 21
152.450736
 31
0.0
  0
LINE
  5
132
100
AcDbEntity
  8
GR2_01
  6
CONTINUOUS
100
AcDbLine
 10
22.452708
 20
159.750736
 30
0.0
 11
22.452708
 21
152.450736
 31
0.0
  0
LINE
  5
133
100
AcDbEntity
  8
GR2_01
  6
CONTINUOUS
100
AcDbLine
 10
13.852708
 20
159.750736
 30
0.0
 11
13.852708
 21
152.450736
 31
0.0
  0
LINE
  5
134
100
AcDbEntity
  8
GR2_01
  6
CONTINUOUS
 62
     7
100
AcDbLine
 10
69.352708
 20
96.686582
 30
0.0
 11
72.5075
 21
96.686582
 31
0.0
  0
LINE
  5
135
100
AcDbEntity
  8
GR2_01
  6
CONTINUOUS
 62
     7
100
AcDbLine
 10
80.852708
 20
97.186582
 30
0.0
 11
80.852708
 21
100.686582
 31
0.0
  0
LINE
  5
136
100
AcDbEntity
  8
GR2_01
  6
CONTINUOUS
 62
     7
100
AcDbLine
 10
68.852708
 20
97.186582
 30
0.0
 11
68.852708
 21
100.686582
 31
0.0
  0
ARC
  5
137
100
AcDbEntity
  8
GR2_01
  6
CONTINUOUS
 62
     7
100
AcDbCircle
 10
80.352708
 20
97.186582
 30
0.0
 40
0.5
100
AcDbArc
 50
270.0
 51
0.0
  0
ARC
  5
138
100
AcDbEntity
  8
GR2_01
  6
CONTINUOUS
 62
     7
100
AcDbCircle
 10
69.352708
 20
97.186582
 30
0.0
 40
0.5
100
AcDbArc
 50
180.0
 51
270.0
  0
LINE
  5
139
100
AcDbEntity
  8
GR2_01
  6
CONTINUOUS
 62
     7
100
AcDbLine
 10
78.852708
 20
98.686582
 30
0.0
 11
78.852708
 21
100.186582
 31
0.0
  0
LINE
  5
13A
100
AcDbEntity
  8
GR2_01
  6
CONTINUOUS
 62
     7
100
AcDbLine
 10
70.852708
 20
100.186582
 30
0.0
 11
78.852708
 21
100.186582
 31
0.0
  0
LINE
  5
13B
100
AcDbEntity
  8
GR2_01
  6
CONTINUOUS
 62
     7
100
AcDbLine
 10
70.852708
 20
98.686582
 30
0.0
 11
70.852708
 21
100.186582
 31
0.0
  0
ARC
  5
13C
100
AcDbEntity
  8
GR2_01
  6
CONTINUOUS
 62
     7
100
AcDbCircle
 10
74.852708
 20
98.936582
 30
0.0
 40
3.25
100
AcDbArc
 50
223.813061
 51
316.186939
  0
LINE
  5
13D
100
AcDbEntity
  8
GR2_01
  6
CONTINUOUS
 62
     7
100
AcDbLine
 10
77.197915
 20
96.686582
 30
0.0
 11
80.352708
 21
96.686582
 31
0.0
  0
LINE
  5
13E
100
AcDbEntity
  8
GR2_01
  6
CONTINUOUS
100
AcDbLine
 10
25.852708
 20
160.236582
 30
0.0
 11
25.852708
 21
115.336582
 31
0.0
  0
LINE
  5
13F
100
AcDbEntity
  8
GR2_01
  6
CONTINUOUS
100
AcDbLine
 10
34.452708
 20
115.336582
 30
0.0
 11
34.452708
 21
160.236582
 31
0.0
  0
LINE
  5
140
100
AcDbEntity
  8
GR2_01
  6
CONTINUOUS
100
AcDbLine
 10
34.452708
 20
160.236582
 30
0.0
 11
25.852708
 21
160.236582
 31
0.0
  0
LINE
  5
141
100
AcDbEntity
  8
GR2_01
  6
CONTINUOUS
100
AcDbLine
 10
34.452708
 20
115.336582
 30
0.0
 11
25.852708
 21
115.336582
 31
0.0
  0
MTEXT
  5
142
100
AcDbEntity
  8
GR2_01
100
AcDbMText
 10
167.097059
 20
181.151937
 30
0.0
 40
1.818983
 41
39.128789
 71
     8
 72
     5
  3
\C94;\fＭＳ Ｐゴシック|b0|i0|;\H1.8189826607704;\M+18251\fＭＳ ゴシック|b0|i0|;-\fＭＳ Ｐゴシック|b0|i0|;\M+183D3\M+18253\fＭＳ ゴシック|b0|i0|;.\fＭＳ Ｐゴシック|b0|i0|;\M+18254\fＭＳ ゴシック|b0|i0|;\M+1817E\fＭＳ Ｐゴシック|b0|i0|;\M+18254\fＭＳ �
  1
Sシック|b0|i0|;.\fＭＳ Ｐゴシック|b0|i0|;\M+18250\M+192B7\M+18C8A
  7
HORIZONTALBIGFONT
  0
LINE
  5
143
100
AcDbEntity
  8
GR2_01
  6
CONTINUOUS
 62
     7
100
AcDbLine
 10
147.88634
 20
180.936595
 30
0.0
 11
186.66078
 21
180.936595
 31
0.0
  0
MTEXT
  5
144
100
AcDbEntity
  8
GR2_01
100
AcDbMText
 10
149.073344
 20
160.492564
 30
0.0
 40
1.818983
 41
10.900005
 71
     8
 72
     5
  1
\C94;\fMS ????|b0|i0|;\H1.8189826607704;\U+FF14.\U+FF12
  7
HORIZONTALBIGFONT
 11
0.0
 21
1.0
 31
0.0
  0
LINE
  5
145
100
AcDbEntity
  8
GR2_01
  6
CONTINUOUS
 62
     7
100
AcDbLine
 10
149.385615
 20
168.286582
 30
0.0
 11
149.385615
 21
172.486582
 31
0.0
  0
LINE
  5
146
100
AcDbEntity
  8
GR2_01
  6
CONTINUOUS
 62
     7
100
AcDbLine
 10
138.160482
 20
168.286582
 30
0.0
 11
150.532666
 21
168.286582
 31
0.0
  0
LINE
  5
147
100
AcDbEntity
  8
GR2_01
  6
CONTINUOUS
 62
     7
100
AcDbLine
 10
138.160482
 20
172.486582
 30
0.0
 11
150.532666
 21
172.486582
 31
0.0
  0
LINE
  5
148
100
AcDbEntity
  8
GR2_01
  6
CONTINUOUS
 62
     7
100
AcDbLine
 10
149.385615
 20
172.486582
 30
0.0
 11
149.385615
 21
176.486582
 31
0.0
  0
LINE
  5
149
100
AcDbEntity
  8
GR2_01
  6
CONTINUOUS
 62
     7
100
AcDbLine
 10
149.385615
 20
155.126773
 30
0.0
 11
149.385615
 21
168.286582
 31
0.0
  0
MTEXT
  5
14A
100
AcDbEntity
  8
GR2_01
100
AcDbMText
 10
18.15271
 20
161.914657
 30
0.0
 40
2.272708
 41
11.363636
 71
     8
 72
     5
  1
\C94;\fMS ????|b0|i0|;\H2.2727082967758;\U+FF23\U+FF2F\U+FF2E\U+FF11
  0
MTEXT
  5
14B
100
AcDbEntity
  8
GR2_01
100
AcDbMText
 10
30.15271
 20
161.914657
 30
0.0
 40
2.272708
 41
11.363636
 71
     8
 72
     5
  1
\C94;\fMS ????|b0|i0|;\H2.2727082967758;\U+FF23\U+FF2F\U+FF2E\U+FF12
  0
ARC
  5
14C
100
AcDbEntity
  8
GR2_01
  6
CONTINUOUS
 62
     7
100
AcDbCircle
 10
122.677708
 20
125.386582
 30
0.0
 40
3.25
100
AcDbArc
 50
0.0
 51
129.715137
  0
ARC
  5
14D
100
AcDbEntity
  8
GR2_01
  6
CONTINUOUS
 62
     7
100
AcDbCircle
 10
61.717708
 20
125.386582
 30
0.0
 40
3.25
100
AcDbArc
 50
50.284863
 51
180.0
  0
LINE
  5
14E
100
AcDbEntity
  8
0
  6
CONTINUOUS
 62
     7
100
AcDbLine
 10
55.352708
 20
109.886582
 30
0.0
 11
55.852708
 21
109.886582
 31
0.0
  0
LINE
  5
14F
100
AcDbEntity
  8
0
  6
CONTINUOUS
 62
     7
100
AcDbLine
 10
131.857708
 20
118.686582
 30
0.0
 11
131.857708
 21
109.886582
 31
0.0
  0
LINE
  5
150
100
AcDbEntity
  8
0
  6
CONTINUOUS
 62
     7
100
AcDbLine
 10
56.347708
 20
118.686582
 30
0.0
 11
56.347708
 21
109.886582
 31
0.0
  0
CIRCLE
  5
151
100
AcDbEntity
  8
GR2_01
  6
CONTINUOUS
100
AcDbCircle
 10
122.677708
 20
125.186582
 30
0.0
 40
2.75
  0
LINE
  5
152
100
AcDbEntity
  8
GR2_01
  6
CONTINUOUS
100
AcDbLine
 10
120.733164
 20
123.242038
 30
0.0
 11
124.622251
 21
127.131125
 31
0.0
  0
LINE
  5
153
100
AcDbEntity
  8
GR2_01
  6
CONTINUOUS
100
AcDbLine
 10
121.45873
 20
126.405559
 30
0.0
 11
123.896685
 21
123.967604
 31
0.0
  0
CIRCLE
  5
154
100
AcDbEntity
  8
GR2_01
  6
CONTINUOUS
100
AcDbCircle
 10
115.057708
 20
125.186582
 30
0.0
 40
2.75
  0
LINE
  5
155
100
AcDbEntity
  8
GR2_01
  6
CONTINUOUS
100
AcDbLine
 10
113.113164
 20
123.242038
 30
0.0
 11
117.002251
 21
127.131125
 31
0.0
  0
LINE
  5
156
100
AcDbEntity
  8
GR2_01
  6
CONTINUOUS
100
AcDbLine
 10
113.83873
 20
126.405559
 30
0.0
 11
116.276685
 21
123.967604
 31
0.0
  0
CIRCLE
  5
157
100
AcDbEntity
  8
0
  6
CONTINUOUS
 62
     7
100
AcDbCircle
 10
122.677708
 20
125.186582
 30
0.0
 40
3.25
  0
CIRCLE
  5
158
100
AcDbEntity
  8
0
  6
CONTINUOUS
 62
     7
100
AcDbCircle
 10
115.057708
 20
125.186582
 30
0.0
 40
3.25
  0
CIRCLE
  5
159
100
AcDbEntity
  8
GR2_01
  6
CONTINUOUS
100
AcDbCircle
 10
61.717708
 20
125.186582
 30
0.0
 40
2.75
  0
LINE
  5
15A
100
AcDbEntity
  8
GR2_01
  6
CONTINUOUS
100
AcDbLine
 10
59.773164
 20
123.242038
 30
0.0
 11
63.662251
 21
127.131125
 31
0.0
  0
LINE
  5
15B
100
AcDbEntity
  8
GR2_01
  6
CONTINUOUS
100
AcDbLine
 10
60.49873
 20
126.405559
 30
0.0
 11
62.936685
 21
123.967604
 31
0.0
  0
CIRCLE
  5
15C
100
AcDbEntity
  8
0
  6
CONTINUOUS
 62
     7
100
AcDbCircle
 10
61.717708
 20
125.186582
 30
0.0
 40
3.25
  0
CIRCLE
  5
15D
100
AcDbEntity
  8
GR2_01
  6
CONTINUOUS
100
AcDbCircle
 10
69.337708
 20
125.186582
 30
0.0
 40
2.75
  0
LINE
  5
15E
100
AcDbEntity
  8
GR2_01
  6
CONTINUOUS
100
AcDbLine
 10
67.393164
 20
123.242038
 30
0.0
 11
71.282251
 21
127.131125
 31
0.0
  0
LINE
  5
15F
100
AcDbEntity
  8
GR2_01
  6
CONTINUOUS
100
AcDbLine
 10
68.11873
 20
126.405559
 30
0.0
 11
70.556685
 21
123.967604
 31
0.0
  0
CIRCLE
  5
160
100
AcDbEntity
  8
0
  6
CONTINUOUS
 62
     7
100
AcDbCircle
 10
69.337708
 20
125.186582
 30
0.0
 40
3.25
  0
CIRCLE
  5
161
100
AcDbEntity
  8
GR2_01
  6
CONTINUOUS
100
AcDbCircle
 10
76.957708
 20
125.186582
 30
0.0
 40
2.75
  0
LINE
  5
162
100
AcDbEntity
  8
GR2_01
  6
CONTINUOUS
100
AcDbLine
 10
75.013164
 20
123.242038
 30
0.0
 11
78.902251
 21
127.131125
 31
0.0
  0
LINE
  5
163
100
AcDbEntity
  8
GR2_01
  6
CONTINUOUS
100
AcDbLine
 10
75.73873
 20
126.405559
 30
0.0
 11
78.176685
 21
123.967604
 31
0.0
  0
CIRCLE
  5
164
100
AcDbEntity
  8
0
  6
CONTINUOUS
 62
     7
100
AcDbCircle
 10
76.957708
 20
125.186582
 30
0.0
 40
3.25
  0
CIRCLE
  5
165
100
AcDbEntity
  8
GR2_01
  6
CONTINUOUS
100
AcDbCircle
 10
84.577708
 20
125.186582
 30
0.0
 40
2.75
  0
LINE
  5
166
100
AcDbEntity
  8
GR2_01
  6
CONTINUOUS
100
AcDbLine
 10
82.633164
 20
123.242038
 30
0.0
 11
86.522251
 21
127.131125
 31
0.0
  0
LINE
  5
167
100
AcDbEntity
  8
GR2_01
  6
CONTINUOUS
100
AcDbLine
 10
83.35873
 20
126.405559
 30
0.0
 11
85.796685
 21
123.967604
 31
0.0
  0
CIRCLE
  5
168
100
AcDbEntity
  8
0
  6
CONTINUOUS
 62
     7
100
AcDbCircle
 10
84.577708
 20
125.186582
 30
0.0
 40
3.25
  0
CIRCLE
  5
169
100
AcDbEntity
  8
GR2_01
  6
CONTINUOUS
100
AcDbCircle
 10
92.197708
 20
125.186582
 30
0.0
 40
2.75
  0
LINE
  5
16A
100
AcDbEntity
  8
GR2_01
  6
CONTINUOUS
100
AcDbLine
 10
90.253164
 20
123.242038
 30
0.0
 11
94.142251
 21
127.131125
 31
0.0
  0
LINE
  5
16B
100
AcDbEntity
  8
GR2_01
  6
CONTINUOUS
100
AcDbLine
 10
90.97873
 20
126.405559
 30
0.0
 11
93.416685
 21
123.967604
 31
0.0
  0
CIRCLE
  5
16C
100
AcDbEntity
  8
0
  6
CONTINUOUS
 62
     7
100
AcDbCircle
 10
92.197708
 20
125.186582
 30
0.0
 40
3.25
  0
CIRCLE
  5
16D
100
AcDbEntity
  8
GR2_01
  6
CONTINUOUS
100
AcDbCircle
 10
99.817708
 20
125.186582
 30
0.0
 40
2.75
  0
LINE
  5
16E
100
AcDbEntity
  8
GR2_01
  6
CONTINUOUS
100
AcDbLine
 10
97.873164
 20
123.242038
 30
0.0
 11
101.762251
 21
127.131125
 31
0.0
  0
LINE
  5
16F
100
AcDbEntity
  8
GR2_01
  6
CONTINUOUS
100
AcDbLine
 10
98.59873
 20
126.405559
 30
0.0
 11
101.036685
 21
123.967604
 31
0.0
  0
CIRCLE
  5
170
100
AcDbEntity
  8
0
  6
CONTINUOUS
 62
     7
100
AcDbCircle
 10
99.817708
 20
125.186582
 30
0.0
 40
3.25
  0
CIRCLE
  5
171
100
AcDbEntity
  8
GR2_01
  6
CONTINUOUS
100
AcDbCircle
 10
107.437708
 20
125.186582
 30
0.0
 40
2.75
  0
LINE
  5
172
100
AcDbEntity
  8
GR2_01
  6
CONTINUOUS
100
AcDbLine
 10
105.493164
 20
123.242038
 30
0.0
 11
109.382251
 21
127.131125
 31
0.0
  0
LINE
  5
173
100
AcDbEntity
  8
GR2_01
  6
CONTINUOUS
100
AcDbLine
 10
106.21873
 20
126.405559
 30
0.0
 11
108.656685
 21
123.967604
 31
0.0
  0
CIRCLE
  5
174
100
AcDbEntity
  8
0
  6
CONTINUOUS
 62
     7
100
AcDbCircle
 10
107.437708
 20
125.186582
 30
0.0
 40
3.25
  0
CIRCLE
  5
175
100
AcDbEntity
  8
GR2_01
  6
CONTINUOUS
100
AcDbCircle
 10
126.487708
 20
114.886582
 30
0.0
 40
2.75
  0
LINE
  5
176
100
AcDbEntity
  8
GR2_01
  6
CONTINUOUS
100
AcDbLine
 10
124.543164
 20
112.942038
 30
0.0
 11
128.432251
 21
116.831125
 31
0.0
  0
LINE
  5
177
100
AcDbEntity
  8
GR2_01
  6
CONTINUOUS
100
AcDbLine
 10
125.26873
 20
116.105559
 30
0.0
 11
127.706685
 21
113.667604
 31
0.0
  0
CIRCLE
  5
178
100
AcDbEntity
  8
0
  6
CONTINUOUS
 62
     7
100
AcDbCircle
 10
126.487708
 20
114.886582
 30
0.0
 40
3.25
  0
CIRCLE
  5
179
100
AcDbEntity
  8
GR2_01
  6
CONTINUOUS
100
AcDbCircle
 10
118.867708
 20
114.886582
 30
0.0
 40
2.75
  0
LINE
  5
17A
100
AcDbEntity
  8
GR2_01
  6
CONTINUOUS
100
AcDbLine
 10
116.923164
 20
112.942038
 30
0.0
 11
120.812251
 21
116.831125
 31
0.0
  0
LINE
  5
17B
100
AcDbEntity
  8
GR2_01
  6
CONTINUOUS
100
AcDbLine
 10
117.64873
 20
116.105559
 30
0.0
 11
120.086685
 21
113.667604
 31
0.0
  0
CIRCLE
  5
17C
100
AcDbEntity
  8
0
  6
CONTINUOUS
 62
     7
100
AcDbCircle
 10
118.867708
 20
114.886582
 30
0.0
 40
3.25
  0
CIRCLE
  5
17D
100
AcDbEntity
  8
GR2_01
  6
CONTINUOUS
100
AcDbCircle
 10
111.247708
 20
114.886582
 30
0.0
 40
2.75
  0
LINE
  5
17E
100
AcDbEntity
  8
GR2_01
  6
CONTINUOUS
100
AcDbLine
 10
109.303164
 20
112.942038
 30
0.0
 11
113.192251
 21
116.831125
 31
0.0
  0
LINE
  5
17F
100
AcDbEntity
  8
GR2_01
  6
CONTINUOUS
100
AcDbLine
 10
110.02873
 20
116.105559
 30
0.0
 11
112.466685
 21
113.667604
 31
0.0
  0
CIRCLE
  5
180
100
AcDbEntity
  8
0
  6
CONTINUOUS
 62
     7
100
AcDbCircle
 10
111.247708
 20
114.886582
 30
0.0
 40
3.25
  0
CIRCLE
  5
181
100
AcDbEntity
  8
GR2_01
  6
CONTINUOUS
100
AcDbCircle
 10
103.627708
 20
114.886582
 30
0.0
 40
2.75
  0
LINE
  5
182
100
AcDbEntity
  8
GR2_01
  6
CONTINUOUS
100
AcDbLine
 10
101.683164
 20
112.942038
 30
0.0
 11
105.572251
 21
116.831125
 31
0.0
  0
LINE
  5
183
100
AcDbEntity
  8
GR2_01
  6
CONTINUOUS
100
AcDbLine
 10
102.40873
 20
116.105559
 30
0.0
 11
104.846685
 21
113.667604
 31
0.0
  0
CIRCLE
  5
184
100
AcDbEntity
  8
0
  6
CONTINUOUS
 62
     7
100
AcDbCircle
 10
103.627708
 20
114.886582
 30
0.0
 40
3.25
  0
CIRCLE
  5
185
100
AcDbEntity
  8
GR2_01
  6
CONTINUOUS
100
AcDbCircle
 10
96.007708
 20
114.886582
 30
0.0
 40
2.75
  0
LINE
  5
186
100
AcDbEntity
  8
GR2_01
  6
CONTINUOUS
100
AcDbLine
 10
94.063164
 20
112.942038
 30
0.0
 11
97.952251
 21
116.831125
 31
0.0
  0
LINE
  5
187
100
AcDbEntity
  8
GR2_01
  6
CONTINUOUS
100
AcDbLine
 10
94.78873
 20
116.105559
 30
0.0
 11
97.226685
 21
113.667604
 31
0.0
  0
CIRCLE
  5
188
100
AcDbEntity
  8
0
  6
CONTINUOUS
 62
     7
100
AcDbCircle
 10
96.007708
 20
114.886582
 30
0.0
 40
3.25
  0
CIRCLE
  5
189
100
AcDbEntity
  8
GR2_01
  6
CONTINUOUS
100
AcDbCircle
 10
88.387708
 20
114.886582
 30
0.0
 40
2.75
  0
LINE
  5
18A
100
AcDbEntity
  8
GR2_01
  6
CONTINUOUS
100
AcDbLine
 10
86.443164
 20
112.942038
 30
0.0
 11
90.332251
 21
116.831125
 31
0.0
  0
LINE
  5
18B
100
AcDbEntity
  8
GR2_01
  6
CONTINUOUS
100
AcDbLine
 10
87.16873
 20
116.105559
 30
0.0
 11
89.606685
 21
113.667604
 31
0.0
  0
CIRCLE
  5
18C
100
AcDbEntity
  8
0
  6
CONTINUOUS
 62
     7
100
AcDbCircle
 10
88.387708
 20
114.886582
 30
0.0
 40
3.25
  0
CIRCLE
  5
18D
100
AcDbEntity
  8
GR2_01
  6
CONTINUOUS
100
AcDbCircle
 10
80.767708
 20
114.886582
 30
0.0
 40
2.75
  0
LINE
  5
18E
100
AcDbEntity
  8
GR2_01
  6
CONTINUOUS
100
AcDbLine
 10
78.823164
 20
112.942038
 30
0.0
 11
82.712251
 21
116.831125
 31
0.0
  0
LINE
  5
18F
100
AcDbEntity
  8
GR2_01
  6
CONTINUOUS
100
AcDbLine
 10
79.54873
 20
116.105559
 30
0.0
 11
81.986685
 21
113.667604
 31
0.0
  0
CIRCLE
  5
190
100
AcDbEntity
  8
0
  6
CONTINUOUS
 62
     7
100
AcDbCircle
 10
80.767708
 20
114.886582
 30
0.0
 40
3.25
  0
CIRCLE
  5
191
100
AcDbEntity
  8
GR2_01
  6
CONTINUOUS
100
AcDbCircle
 10
73.147708
 20
114.886582
 30
0.0
 40
2.75
  0
LINE
  5
192
100
AcDbEntity
  8
GR2_01
  6
CONTINUOUS
100
AcDbLine
 10
71.203164
 20
112.942038
 30
0.0
 11
75.092251
 21
116.831125
 31
0.0
  0
LINE
  5
193
100
AcDbEntity
  8
GR2_01
  6
CONTINUOUS
100
AcDbLine
 10
71.92873
 20
116.105559
 30
0.0
 11
74.366685
 21
113.667604
 31
0.0
  0
CIRCLE
  5
194
100
AcDbEntity
  8
0
  6
CONTINUOUS
 62
     7
100
AcDbCircle
 10
73.147708
 20
114.886582
 30
0.0
 40
3.25
  0
CIRCLE
  5
195
100
AcDbEntity
  8
GR2_01
  6
CONTINUOUS
100
AcDbCircle
 10
65.527708
 20
114.886582
 30
0.0
 40
2.75
  0
LINE
  5
196
100
AcDbEntity
  8
GR2_01
  6
CONTINUOUS
100
AcDbLine
 10
63.583164
 20
112.942038
 30
0.0
 11
67.472251
 21
116.831125
 31
0.0
  0
LINE
  5
197
100
AcDbEntity
  8
GR2_01
  6
CONTINUOUS
100
AcDbLine
 10
64.30873
 20
116.105559
 30
0.0
 11
66.746685
 21
113.667604
 31
0.0
  0
CIRCLE
  5
198
100
AcDbEntity
  8
0
  6
CONTINUOUS
 62
     7
100
AcDbCircle
 10
65.527708
 20
114.886582
 30
0.0
 40
3.25
  0
LINE
  5
199
100
AcDbEntity
  8
0
  6
CONTINUOUS
 62
     7
100
AcDbLine
 10
58.467708
 20
119.386582
 30
0.0
 11
125.927708
 21
119.386582
 31
0.0
  0
LINE
  5
19A
100
AcDbEntity
  8
0
  6
CONTINUOUS
 62
     7
100
AcDbLine
 10
56.347708
 20
114.886582
 30
0.0
 11
56.102708
 21
114.886582
 31
0.0
  0
LINE
  5
19B
100
AcDbEntity
  8
0
  6
CONTINUOUS
 62
     7
100
AcDbLine
 10
56.347708
 20
109.886582
 30
0.0
 11
131.857708
 21
109.886582
 31
0.0
  0
LINE
  5
19C
100
AcDbEntity
  8
0
  6
CONTINUOUS
 62
     7
100
AcDbLine
 10
132.352708
 20
109.886582
 30
0.0
 11
132.852708
 21
109.886582
 31
0.0
  0
LINE
  5
19D
100
AcDbEntity
  8
GR2_01
  6
CONTINUOUS
 62
     7
100
AcDbLine
 10
61.952708
 20
133.886582
 30
0.0
 11
61.952708
 21
173.886582
 31
0.0
  0
LINE
  5
19E
100
AcDbEntity
  8
GR1_01
  6
CONTINUOUS
 62
     7
100
AcDbLine
 10
242.345741
 20
109.886582
 30
0.0
 11
233.500339
 21
109.886582
 31
0.0
  0
CIRCLE
  5
19F
100
AcDbEntity
  8
0
  6
CONTINUOUS
 62
     7
100
AcDbCircle
 10
135.852708
 20
137.786582
 30
0.0
 40
1.0
  0
MTEXT
  5
1A0
100
AcDbEntity
  8
GR2_01
100
AcDbMText
 10
135.852692
 20
141.351471
 30
0.0
 40
1.74246
 41
4.356061
 71
     8
 72
     5
  1
\C7;\fMS ????|b0|i0|;\H1.742459654808;\U+FF30\U+FF37
  0
MTEXT
  5
1A1
100
AcDbEntity
  8
GR1_01
100
AcDbMText
 10
251.185239
 20
86.62484
 30
0.0
 40
1.818983
 41
18.826211
 71
     8
 72
     5
  1
\C94;\fMS ????|b0|i0|;\H1.8189826607704;\U+FF11\U+FF17.\U+FF17
  7
HORIZONTALBIGFONT
 11
1.0
 21
0.0
 31
0.0
  0
LINE
  5
1A2
100
AcDbEntity
  8
GR1_01
  6
CONTINUOUS
 62
     7
100
AcDbLine
 10
242.335239
 20
86.589611
 30
0.0
 11
260.035239
 21
86.589611
 31
0.0
  0
LINE
  5
1A3
100
AcDbEntity
  8
GR1_01
  6
CONTINUOUS
 62
     7
100
AcDbLine
 10
242.335239
 20
100.686582
 30
0.0
 11
242.335239
 21
85.509231
 31
0.0
  0
LINE
  5
1A4
100
AcDbEntity
  8
GR1_01
  6
CONTINUOUS
 62
     7
100
AcDbLine
 10
260.035239
 20
99.686582
 30
0.0
 11
260.035239
 21
88.010288
 31
0.0
  0
LINE
  5
1A5
100
AcDbEntity
  8
GR2_01
  6
CONTINUOUS
 62
     7
100
AcDbLine
 10
116.752708
 20
133.886582
 30
0.0
 11
116.752708
 21
132.386582
 31
0.0
  0
LINE
  5
1A6
100
AcDbEntity
  8
GR2_01
  6
CONTINUOUS
 62
     7
100
AcDbLine
 10
117.752708
 20
132.386582
 30
0.0
 11
117.752708
 21
133.886582
 31
0.0
  0
LINE
  5
1A7
100
AcDbEntity
  8
GR2_01
  6
CONTINUOUS
 62
     7
100
AcDbLine
 10
116.752708
 20
132.386582
 30
0.0
 11
117.752708
 21
132.386582
 31
0.0
  0
LINE
  5
1A8
100
AcDbEntity
  8
GR2_01
  6
CONTINUOUS
 62
     7
100
AcDbLine
 10
99.752708
 20
133.886582
 30
0.0
 11
99.752708
 21
132.386582
 31
0.0
  0
LINE
  5
1A9
100
AcDbEntity
  8
GR2_01
  6
CONTINUOUS
 62
     7
100
AcDbLine
 10
100.752708
 20
132.386582
 30
0.0
 11
100.752708
 21
133.886582
 31
0.0
  0
LINE
  5
1AA
100
AcDbEntity
  8
GR2_01
  6
CONTINUOUS
 62
     7
100
AcDbLine
 10
99.752708
 20
132.386582
 30
0.0
 11
100.752708
 21
132.386582
 31
0.0
  0
LINE
  5
1AB
100
AcDbEntity
  8
GR2_01
  6
CONTINUOUS
 62
     7
100
AcDbLine
 10
82.752708
 20
133.886582
 30
0.0
 11
82.752708
 21
132.386582
 31
0.0
  0
LINE
  5
1AC
100
AcDbEntity
  8
GR2_01
  6
CONTINUOUS
 62
     7
100
AcDbLine
 10
83.752708
 20
132.386582
 30
0.0
 11
83.752708
 21
133.886582
 31
0.0
  0
LINE
  5
1AD
100
AcDbEntity
  8
GR2_01
  6
CONTINUOUS
 62
     7
100
AcDbLine
 10
82.752708
 20
132.386582
 30
0.0
 11
83.752708
 21
132.386582
 31
0.0
  0
LINE
  5
1AE
100
AcDbEntity
  8
GR2_01
  6
CONTINUOUS
 62
     7
100
AcDbLine
 10
65.752708
 20
133.886582
 30
0.0
 11
65.752708
 21
132.386582
 31
0.0
  0
LINE
  5
1AF
100
AcDbEntity
  8
GR2_01
  6
CONTINUOUS
 62
     7
100
AcDbLine
 10
66.752708
 20
132.386582
 30
0.0
 11
66.752708
 21
133.886582
 31
0.0
  0
LINE
  5
1B0
100
AcDbEntity
  8
GR2_01
  6
CONTINUOUS
 62
     7
100
AcDbLine
 10
65.752708
 20
132.386582
 30
0.0
 11
66.752708
 21
132.386582
 31
0.0
  0
LINE
  5
1B1
100
AcDbEntity
  8
GR2_01
  6
CONTINUOUS
 62
     7
100
AcDbLine
 10
114.654829
 20
135.386582
 30
0.0
 11
114.252708
 21
135.386582
 31
0.0
  0
LINE
  5
1B2
100
AcDbEntity
  8
GR2_01
  6
CONTINUOUS
 62
     7
100
AcDbLine
 10
114.252708
 20
135.386582
 30
0.0
 11
114.252708
 21
135.886582
 31
0.0
  0
LINE
  5
1B3
100
AcDbEntity
  8
GR2_01
  6
CONTINUOUS
 62
     7
100
AcDbLine
 10
114.752708
 20
133.886582
 30
0.0
 11
114.752708
 21
134.631215
 31
0.0
  0
LINE
  5
1B4
100
AcDbEntity
  8
GR2_01
  6
CONTINUOUS
 62
     7
100
AcDbLine
 10
114.673011
 20
134.886582
 30
0.0
 11
112.152708
 21
134.886582
 31
0.0
  0
LINE
  5
1B5
100
AcDbEntity
  8
GR2_01
  6
CONTINUOUS
 62
     7
100
AcDbLine
 10
112.152708
 20
135.886582
 30
0.0
 11
114.691193
 21
135.886582
 31
0.0
  0
LINE
  5
1B6
100
AcDbEntity
  8
GR2_01
  6
CONTINUOUS
 62
     7
100
AcDbLine
 10
115.752708
 20
133.886582
 30
0.0
 11
115.752708
 21
134.08576
 31
0.0
  0
LINE
  5
1B7
100
AcDbEntity
  8
GR2_01
  6
CONTINUOUS
 62
     7
100
AcDbLine
 10
114.654829
 20
171.886582
 30
0.0
 11
114.252708
 21
171.886582
 31
0.0
  0
LINE
  5
1B8
100
AcDbEntity
  8
GR2_01
  6
CONTINUOUS
 62
     7
100
AcDbLine
 10
114.252708
 20
171.886582
 30
0.0
 11
114.252708
 21
171.386582
 31
0.0
  0
LINE
  5
1B9
100
AcDbEntity
  8
GR2_01
  6
CONTINUOUS
 62
     7
100
AcDbLine
 10
112.152708
 20
134.886582
 30
0.0
 11
112.152708
 21
172.386582
 31
0.0
  0
LINE
  5
1BA
100
AcDbEntity
  8
GR2_01
  6
CONTINUOUS
 62
     7
100
AcDbLine
 10
114.752708
 20
173.386582
 30
0.0
 11
114.752708
 21
172.558489
 31
0.0
  0
LINE
  5
1BB
100
AcDbEntity
  8
GR2_01
  6
CONTINUOUS
 62
     7
100
AcDbLine
 10
114.654829
 20
172.386582
 30
0.0
 11
112.152708
 21
172.386582
 31
0.0
  0
LINE
  5
1BC
100
AcDbEntity
  8
GR2_01
  6
CONTINUOUS
 62
     7
100
AcDbLine
 10
112.152708
 20
171.386582
 30
0.0
 11
114.654829
 21
171.386582
 31
0.0
  0
LINE
  5
1BD
100
AcDbEntity
  8
GR2_01
  6
CONTINUOUS
 62
     7
100
AcDbLine
 10
115.752708
 20
173.386582
 30
0.0
 11
115.752708
 21
173.158489
 31
0.0
  0
LINE
  5
1BE
100
AcDbEntity
  8
GR2_01
  6
CONTINUOUS
 62
     7
100
AcDbLine
 10
113.652708
 20
135.886582
 30
0.0
 11
113.652708
 21
171.386582
 31
0.0
  0
LINE
  5
1BF
100
AcDbEntity
  8
GR2_01
  6
CONTINUOUS
 62
     7
100
AcDbLine
 10
97.636647
 20
135.386582
 30
0.0
 11
97.252708
 21
135.386582
 31
0.0
  0
LINE
  5
1C0
100
AcDbEntity
  8
GR2_01
  6
CONTINUOUS
 62
     7
100
AcDbLine
 10
97.252708
 20
135.386582
 30
0.0
 11
97.252708
 21
135.886582
 31
0.0
  0
LINE
  5
1C1
100
AcDbEntity
  8
GR2_01
  6
CONTINUOUS
 62
     7
100
AcDbLine
 10
97.752708
 20
133.886582
 30
0.0
 11
97.752708
 21
134.68576
 31
0.0
  0
LINE
  5
1C2
100
AcDbEntity
  8
GR2_01
  6
CONTINUOUS
 62
     7
100
AcDbLine
 10
97.654829
 20
134.886582
 30
0.0
 11
95.152708
 21
134.886582
 31
0.0
  0
LINE
  5
1C3
100
AcDbEntity
  8
GR2_01
  6
CONTINUOUS
 62
     7
100
AcDbLine
 10
95.152708
 20
135.886582
 30
0.0
 11
97.636647
 21
135.886582
 31
0.0
  0
LINE
  5
1C4
100
AcDbEntity
  8
GR2_01
  6
CONTINUOUS
 62
     7
100
AcDbLine
 10
98.752708
 20
133.886582
 30
0.0
 11
98.752708
 21
134.103942
 31
0.0
  0
LINE
  5
1C5
100
AcDbEntity
  8
GR2_01
  6
CONTINUOUS
 62
     7
100
AcDbLine
 10
97.636647
 20
171.886582
 30
0.0
 11
97.252708
 21
171.886582
 31
0.0
  0
LINE
  5
1C6
100
AcDbEntity
  8
GR2_01
  6
CONTINUOUS
 62
     7
100
AcDbLine
 10
97.252708
 20
171.886582
 30
0.0
 11
97.252708
 21
171.386582
 31
0.0
  0
LINE
  5
1C7
100
AcDbEntity
  8
GR2_01
  6
CONTINUOUS
 62
     7
100
AcDbLine
 10
95.152708
 20
134.886582
 30
0.0
 11
95.152708
 21
172.386582
 31
0.0
  0
LINE
  5
1C8
100
AcDbEntity
  8
GR2_01
  6
CONTINUOUS
 62
     7
100
AcDbLine
 10
97.752708
 20
173.386582
 30
0.0
 11
97.752708
 21
172.594852
 31
0.0
  0
LINE
  5
1C9
100
AcDbEntity
  8
GR2_01
  6
CONTINUOUS
 62
     7
100
AcDbLine
 10
97.673011
 20
172.386582
 30
0.0
 11
95.152708
 21
172.386582
 31
0.0
  0
LINE
  5
1CA
100
AcDbEntity
  8
GR2_01
  6
CONTINUOUS
 62
     7
100
AcDbLine
 10
95.152708
 20
171.386582
 30
0.0
 11
97.654829
 21
171.386582
 31
0.0
  0
LINE
  5
1CB
100
AcDbEntity
  8
GR2_01
  6
CONTINUOUS
 62
     7
100
AcDbLine
 10
98.752708
 20
173.386582
 30
0.0
 11
98.752708
 21
173.17667
 31
0.0
  0
LINE
  5
1CC
100
AcDbEntity
  8
GR2_01
  6
CONTINUOUS
 62
     7
100
AcDbLine
 10
96.652708
 20
135.886582
 30
0.0
 11
96.652708
 21
171.386582
 31
0.0
  0
LINE
  5
1CD
100
AcDbEntity
  8
GR2_01
  6
CONTINUOUS
 62
     7
100
AcDbLine
 10
80.67301
 20
135.386582
 30
0.0
 11
80.252708
 21
135.386582
 31
0.0
  0
LINE
  5
1CE
100
AcDbEntity
  8
GR2_01
  6
CONTINUOUS
 62
     7
100
AcDbLine
 10
80.252708
 20
135.386582
 30
0.0
 11
80.252708
 21
135.886582
 31
0.0
  0
LINE
  5
1CF
100
AcDbEntity
  8
GR2_01
  6
CONTINUOUS
 62
     7
100
AcDbLine
 10
80.752708
 20
133.886582
 30
0.0
 11
80.752708
 21
134.649397
 31
0.0
  0
LINE
  5
1D0
100
AcDbEntity
  8
GR2_01
  6
CONTINUOUS
 62
     7
100
AcDbLine
 10
80.691192
 20
134.886582
 30
0.0
 11
78.152708
 21
134.886582
 31
0.0
  0
LINE
  5
1D1
100
AcDbEntity
  8
GR2_01
  6
CONTINUOUS
 62
     7
100
AcDbLine
 10
78.152708
 20
135.886582
 30
0.0
 11
80.67301
 21
135.886582
 31
0.0
  0
LINE
  5
1D2
100
AcDbEntity
  8
GR2_01
  6
CONTINUOUS
 62
     7
100
AcDbLine
 10
81.752708
 20
133.886582
 30
0.0
 11
81.752708
 21
134.08576
 31
0.0
  0
LINE
  5
1D3
100
AcDbEntity
  8
GR2_01
  6
CONTINUOUS
 62
     7
100
AcDbLine
 10
78.152708
 20
134.886582
 30
0.0
 11
78.152708
 21
172.386582
 31
0.0
  0
LINE
  5
1D4
100
AcDbEntity
  8
GR2_01
  6
CONTINUOUS
 62
     7
100
AcDbLine
 10
80.752708
 20
173.386582
 30
0.0
 11
80.752708
 21
172.61398
 31
0.0
  0
LINE
  5
1D5
100
AcDbEntity
  8
GR2_01
  6
CONTINUOUS
 62
     7
100
AcDbLine
 10
80.613675
 20
172.386582
 30
0.0
 11
78.152708
 21
172.386582
 31
0.0
  0
LINE
  5
1D6
100
AcDbEntity
  8
GR2_01
  6
CONTINUOUS
 62
     7
100
AcDbLine
 10
78.152708
 20
171.386582
 30
0.0
 11
80.639991
 21
171.386582
 31
0.0
  0
LINE
  5
1D7
100
AcDbEntity
  8
GR2_01
  6
CONTINUOUS
 62
     7
100
AcDbLine
 10
79.652708
 20
135.886582
 30
0.0
 11
79.652708
 21
171.386582
 31
0.0
  0
LINE
  5
1D8
100
AcDbEntity
  8
GR1_01
  6
CONTINUOUS
 62
     7
100
AcDbLine
 10
37.452708
 20
118.686582
 30
0.0
 11
55.352708
 21
118.686582
 31
0.0
  0
LINE
  5
1D9
100
AcDbEntity
  8
GR1_01
  6
CONTINUOUS
 62
     7
100
AcDbLine
 10
36.452708
 20
174.386582
 30
0.0
 11
36.452708
 21
119.686582
 31
0.0
  0
LINE
  5
1DA
100
AcDbEntity
  8
GR1_01
  6
CONTINUOUS
 62
     7
100
AcDbLine
 10
243.335239
 20
100.686582
 30
0.0
 11
248.535239
 21
100.686582
 31
0.0
  0
LINE
  5
1DB
100
AcDbEntity
  8
GR1_01
  6
CONTINUOUS
 62
     7
100
AcDbLine
 10
132.352708
 20
108.886582
 30
0.0
 11
55.852708
 21
108.886582
 31
0.0
  0
ARC
  5
1DC
100
AcDbEntity
  8
GR1_01
  6
CONTINUOUS
 62
     7
100
AcDbCircle
 10
37.452708
 20
119.686582
 30
0.0
 40
1.0
100
AcDbArc
 50
180.0
 51
270.0
  0
LINE
  5
1DD
100
AcDbEntity
  8
GR2_01
  6
CONTINUOUS
 62
     7
100
AcDbLine
 10
54.352708
 20
119.686582
 30
0.0
 11
54.352708
 21
132.886582
 31
0.0
  0
ARC
  5
1DE
100
AcDbEntity
  8
GR1_01
  6
CONTINUOUS
 62
     7
100
AcDbCircle
 10
36.952708
 20
174.386582
 30
0.0
 40
0.5
100
AcDbArc
 50
90.0
 51
180.0
  0
LINE
  5
1DF
100
AcDbEntity
  8
GR1_01
  6
CONTINUOUS
 62
     7
100
AcDbLine
 10
61.952708
 20
133.886582
 30
0.0
 11
55.352708
 21
133.886582
 31
0.0
  0
LINE
  5
1E0
100
AcDbEntity
  8
GR1_01
  6
CONTINUOUS
 62
     7
100
AcDbLine
 10
129.352708
 20
133.886582
 30
0.0
 11
63.452708
 21
133.886582
 31
0.0
  0
MTEXT
  5
1E1
100
AcDbEntity
  8
GR1_01
100
AcDbMText
 10
149.168264
 20
189.151944
 30
0.0
 40
1.818983
 41
10.728792
 71
     8
 72
     5
  1
\C94;\fMS ????|b0|i0|;\H1.8189826607704;\U+FF14.\U+FF15
  7
HORIZONTALBIGFONT
 11
1.0
 21
0.0
 31
0.0
  0
LINE
  5
1E2
100
AcDbEntity
  8
GR1_01
  6
CONTINUOUS
 62
     7
100
AcDbLine
 10
136.352708
 20
189.357158
 30
0.0
 11
140.852708
 21
189.357158
 31
0.0
  0
LINE
  5
1E3
100
AcDbEntity
  8
GR1_01
  6
CONTINUOUS
 62
     7
100
AcDbLine
 10
136.352708
 20
177.008401
 30
0.0
 11
136.352708
 21
191.442571
 31
0.0
  0
LINE
  5
1E4
100
AcDbEntity
  8
GR1_01
  6
CONTINUOUS
 62
     7
100
AcDbLine
 10
140.852708
 20
174.886582
 30
0.0
 11
140.852708
 21
191.442571
 31
0.0
  0
LINE
  5
1E5
100
AcDbEntity
  8
GR1_01
  6
CONTINUOUS
 62
     7
100
AcDbLine
 10
140.852708
 20
189.357158
 30
0.0
 11
154.901081
 21
189.357158
 31
0.0
  0
MTEXT
  5
1E6
100
AcDbEntity
  8
GR1_01
100
AcDbMText
 10
74.852708
 20
189.151944
 30
0.0
 40
1.818983
 41
13.257576
 71
     8
 72
     5
  1
\C94;\fMS ????|b0|i0|;\H1.8189826607704;\U+FF11\U+FF12\U+FF13
 11
1.0
 21
0.0
 31
0.0
  0
LINE
  5
1E7
100
AcDbEntity
  8
GR1_01
  6
CONTINUOUS
 62
     7
100
AcDbLine
 10
13.352708
 20
189.357158
 30
0.0
 11
136.352708
 21
189.357158
 31
0.0
  0
LINE
  5
1E8
100
AcDbEntity
  8
GR1_01
  6
CONTINUOUS
 62
     7
100
AcDbLine
 10
13.352708
 20
110.186582
 30
0.0
 11
13.352708
 21
191.600466
 31
0.0
  0
LINE
  5
1E9
100
AcDbEntity
  8
GR2_01
  6
CONTINUOUS
100
AcDbLine
 10
211.035239
 20
174.686582
 30
0.0
 11
205.535239
 21
173.186582
 31
0.0
  0
LINE
  5
1EA
100
AcDbEntity
  8
GR2_01
  6
CONTINUOUS
100
AcDbLine
 10
180.035239
 20
173.186582
 30
0.0
 11
218.666319
 21
173.186582
 31
0.0
  0
LINE
  5
1EB
100
AcDbEntity
  8
GR2_01
  6
CONTINUOUS
100
AcDbLine
 10
179.035239
 20
172.186582
 30
0.0
 11
179.035239
 21
135.086582
 31
0.0
  0
ARC
  5
1EC
100
AcDbEntity
  8
GR2_01
  6
CONTINUOUS
100
AcDbCircle
 10
180.035239
 20
172.186582
 30
0.0
 40
1.0
100
AcDbArc
 50
90.0
 51
180.0
  0
LINE
  5
1ED
100
AcDbEntity
  8
GR2_01
  6
CONTINUOUS
100
AcDbLine
 10
211.035239
 20
174.686582
 30
0.0
 11
214.035239
 21
174.686582
 31
0.0
  0
LINE
  5
1EE
100
AcDbEntity
  8
GR2_01
  6
CONTINUOUS
100
AcDbLine
 10
214.035239
 20
174.686582
 30
0.0
 11
215.535239
 21
173.186582
 31
0.0
  0
LINE
  5
1EF
100
AcDbEntity
  8
GR2_01
  6
CONTINUOUS
100
AcDbLine
 10
211.035239
 20
132.586582
 30
0.0
 11
205.535239
 21
134.086582
 31
0.0
  0
LINE
  5
1F0
100
AcDbEntity
  8
GR2_01
  6
CONTINUOUS
100
AcDbLine
 10
180.035239
 20
134.086582
 30
0.0
 11
218.648765
 21
134.086582
 31
0.0
  0
ARC
  5
1F1
100
AcDbEntity
  8
GR2_01
  6
CONTINUOUS
100
AcDbCircle
 10
180.035239
 20
135.086582
 30
0.0
 40
1.0
100
AcDbArc
 50
180.0
 51
270.0
  0
LINE
  5
1F2
100
AcDbEntity
  8
GR2_01
  6
CONTINUOUS
100
AcDbLine
 10
211.035239
 20
132.586582
 30
0.0
 11
214.035239
 21
132.586582
 31
0.0
  0
LINE
  5
1F3
100
AcDbEntity
  8
GR2_01
  6
CONTINUOUS
100
AcDbLine
 10
214.035239
 20
132.586582
 30
0.0
 11
215.535239
 21
134.086582
 31
0.0
  0
LINE
  5
1F5
100
AcDbEntity
  8
GR2-1
  6
CONTINUOUS
100
AcDbLine
 10
128.152708
 20
173.186582
 30
0.0
 11
115.652708
 21
173.186582
 31
0.0
  0
LINE
  5
1F6
100
AcDbEntity
  8
GR2-1
  6
CONTINUOUS
100
AcDbLine
 10
129.152708
 20
172.186582
 30
0.0
 11
129.152708
 21
135.086582
 31
0.0
  0
LINE
  5
1F7
100
AcDbEntity
  8
GR2-1
  6
CONTINUOUS
100
AcDbLine
 10
114.652708
 20
172.186582
 30
0.0
 11
114.652708
 21
135.086582
 31
0.0
  0
LINE
  5
1F8
100
AcDbEntity
  8
GR2-1
  6
CONTINUOUS
100
AcDbLine
 10
115.652708
 20
134.086582
 30
0.0
 11
128.152708
 21
134.086582
 31
0.0
  0
ARC
  5
1F9
100
AcDbEntity
  8
GR2-1
  6
CONTINUOUS
100
AcDbCircle
 10
128.152708
 20
172.186582
 30
0.0
 40
1.0
100
AcDbArc
 50
0.0
 51
90.0
  0
ARC
  5
1FA
100
AcDbEntity
  8
GR2-1
  6
CONTINUOUS
100
AcDbCircle
 10
115.652708
 20
172.186582
 30
0.0
 40
1.0
100
AcDbArc
 50
90.0
 51
180.0
  0
ARC
  5
1FB
100
AcDbEntity
  8
GR2-1
  6
CONTINUOUS
100
AcDbCircle
 10
115.652708
 20
135.086582
 30
0.0
 40
1.0
100
AcDbArc
 50
180.0
 51
270.0
  0
ARC
  5
1FC
100
AcDbEntity
  8
GR2-1
  6
CONTINUOUS
100
AcDbCircle
 10
128.152708
 20
135.086582
 30
0.0
 40
1.0
100
AcDbArc
 50
270.0
 51
0.0
  0
CIRCLE
  5
1FD
100
AcDbEntity
  8
GR2-1
  6
CONTINUOUS
100
AcDbCircle
 10
122.952708
 20
155.286582
 30
0.0
 40
2.0
  0
CIRCLE
  5
1FE
100
AcDbEntity
  8
GR2-1
  6
CONTINUOUS
100
AcDbCircle
 10
122.952708
 20
145.286582
 30
0.0
 40
2.0
  0
LINE
  5
1FF
100
AcDbEntity
  8
GR2-1
  6
CONTINUOUS
100
AcDbLine
 10
116.152708
 20
171.686582
 30
0.0
 11
116.152708
 21
135.586582
 31
0.0
  0
LINE
  5
200
100
AcDbEntity
  8
GR2-1
  6
CONTINUOUS
100
AcDbLine
 10
116.152708
 20
135.586582
 30
0.0
 11
127.652708
 21
135.586582
 31
0.0
  0
LINE
  5
201
100
AcDbEntity
  8
GR2-1
  6
CONTINUOUS
100
AcDbLine
 10
127.652708
 20
171.686582
 30
0.0
 11
127.652708
 21
135.586582
 31
0.0
  0
LINE
  5
202
100
AcDbEntity
  8
GR2-1
  6
CONTINUOUS
100
AcDbLine
 10
127.652708
 20
171.686582
 30
0.0
 11
116.152708
 21
171.686582
 31
0.0
  0
LINE
  5
203
100
AcDbEntity
  8
GR2-1
  6
CONTINUOUS
100
AcDbLine
 10
116.402708
 20
171.436582
 30
0.0
 11
127.402708
 21
171.436582
 31
0.0
  0
LINE
  5
204
100
AcDbEntity
  8
GR2-1
  6
CONTINUOUS
100
AcDbLine
 10
127.402708
 20
171.436582
 30
0.0
 11
127.402708
 21
135.836582
 31
0.0
  0
LINE
  5
205
100
AcDbEntity
  8
GR2-1
  6
CONTINUOUS
100
AcDbLine
 10
127.402708
 20
135.836582
 30
0.0
 11
116.402708
 21
135.836582
 31
0.0
  0
LINE
  5
206
100
AcDbEntity
  8
GR2-1
  6
CONTINUOUS
100
AcDbLine
 10
116.402708
 20
135.836582
 30
0.0
 11
116.402708
 21
171.436582
 31
0.0
  0
LINE
  5
207
100
AcDbEntity
  8
GR2-1
  6
CONTINUOUS
100
AcDbLine
 10
116.402708
 20
167.936582
 30
0.0
 11
127.402708
 21
167.936582
 31
0.0
  0
LINE
  5
208
100
AcDbEntity
  8
GR2-1
  6
CONTINUOUS
100
AcDbLine
 10
116.402708
 20
163.936582
 30
0.0
 11
127.402708
 21
163.936582
 31
0.0
  0
CIRCLE
  5
209
100
AcDbEntity
  8
GR2-1
  6
CONTINUOUS
100
AcDbCircle
 10
122.952708
 20
145.286582
 30
0.0
 40
2.25
  0
CIRCLE
  5
20A
100
AcDbEntity
  8
GR2-1
  6
CONTINUOUS
100
AcDbCircle
 10
122.952708
 20
155.286582
 30
0.0
 40
2.25
  0
LINE
  5
20B
100
AcDbEntity
  8
GR2-1
  6
CONTINUOUS
100
AcDbLine
 10
126.402708
 20
174.686582
 30
0.0
 11
121.402708
 21
174.686582
 31
0.0
  0
LINE
  5
20C
100
AcDbEntity
  8
GR2-1
  6
CONTINUOUS
100
AcDbLine
 10
121.402708
 20
174.686582
 30
0.0
 11
121.402708
 21
173.186582
 31
0.0
  0
LINE
  5
20D
100
AcDbEntity
  8
GR2-1
  6
CONTINUOUS
100
AcDbLine
 10
126.402708
 20
174.686582
 30
0.0
 11
126.402708
 21
173.186582
 31
0.0
  0
LINE
  5
20E
100
AcDbEntity
  8
GR2-1
  6
CONTINUOUS
100
AcDbLine
 10
126.402708
 20
174.186582
 30
0.0
 11
121.402708
 21
174.186582
 31
0.0
  0
LINE
  5
20F
100
AcDbEntity
  8
GR2-1
  6
CONTINUOUS
100
AcDbLine
 10
126.402708
 20
132.586582
 30
0.0
 11
121.402708
 21
132.586582
 31
0.0
  0
LINE
  5
210
100
AcDbEntity
  8
GR2-1
  6
CONTINUOUS
100
AcDbLine
 10
121.402708
 20
132.586582
 30
0.0
 11
121.402708
 21
134.086582
 31
0.0
  0
LINE
  5
211
100
AcDbEntity
  8
GR2-1
  6
CONTINUOUS
100
AcDbLine
 10
126.402708
 20
132.586582
 30
0.0
 11
126.402708
 21
134.086582
 31
0.0
  0
LINE
  5
212
100
AcDbEntity
  8
GR2-1
  6
CONTINUOUS
100
AcDbLine
 10
126.402708
 20
133.086582
 30
0.0
 11
121.402708
 21
133.086582
 31
0.0
  0
LINE
  5
213
100
AcDbEntity
  8
GR2-1
  6
CONTINUOUS
100
AcDbLine
 10
111.152708
 20
173.186582
 30
0.0
 11
98.652708
 21
173.186582
 31
0.0
  0
LINE
  5
214
100
AcDbEntity
  8
GR2-1
  6
CONTINUOUS
100
AcDbLine
 10
112.152708
 20
172.186582
 30
0.0
 11
112.152708
 21
135.086582
 31
0.0
  0
LINE
  5
215
100
AcDbEntity
  8
GR2-1
  6
CONTINUOUS
100
AcDbLine
 10
97.652708
 20
172.186582
 30
0.0
 11
97.652708
 21
135.086582
 31
0.0
  0
LINE
  5
216
100
AcDbEntity
  8
GR2-1
  6
CONTINUOUS
100
AcDbLine
 10
98.652708
 20
134.086582
 30
0.0
 11
111.152708
 21
134.086582
 31
0.0
  0
ARC
  5
217
100
AcDbEntity
  8
GR2-1
  6
CONTINUOUS
100
AcDbCircle
 10
111.152708
 20
172.186582
 30
0.0
 40
1.0
100
AcDbArc
 50
0.0
 51
90.0
  0
ARC
  5
218
100
AcDbEntity
  8
GR2-1
  6
CONTINUOUS
100
AcDbCircle
 10
98.652708
 20
172.186582
 30
0.0
 40
1.0
100
AcDbArc
 50
90.0
 51
180.0
  0
ARC
  5
219
100
AcDbEntity
  8
GR2-1
  6
CONTINUOUS
100
AcDbCircle
 10
98.652708
 20
135.086582
 30
0.0
 40
1.0
100
AcDbArc
 50
180.0
 51
270.0
  0
ARC
  5
21A
100
AcDbEntity
  8
GR2-1
  6
CONTINUOUS
100
AcDbCircle
 10
111.152708
 20
135.086582
 30
0.0
 40
1.0
100
AcDbArc
 50
270.0
 51
0.0
  0
CIRCLE
  5
21B
100
AcDbEntity
  8
GR2-1
  6
CONTINUOUS
100
AcDbCircle
 10
105.952708
 20
155.286582
 30
0.0
 40
2.0
  0
CIRCLE
  5
21C
100
AcDbEntity
  8
GR2-1
  6
CONTINUOUS
100
AcDbCircle
 10
105.952708
 20
145.286582
 30
0.0
 40
2.0
  0
LINE
  5
21D
100
AcDbEntity
  8
GR2-1
  6
CONTINUOUS
100
AcDbLine
 10
99.152708
 20
171.686582
 30
0.0
 11
99.152708
 21
135.586582
 31
0.0
  0
LINE
  5
21E
100
AcDbEntity
  8
GR2-1
  6
CONTINUOUS
100
AcDbLine
 10
99.152708
 20
135.586582
 30
0.0
 11
110.652708
 21
135.586582
 31
0.0
  0
LINE
  5
21F
100
AcDbEntity
  8
GR2-1
  6
CONTINUOUS
100
AcDbLine
 10
110.652708
 20
171.686582
 30
0.0
 11
110.652708
 21
135.586582
 31
0.0
  0
LINE
  5
220
100
AcDbEntity
  8
GR2-1
  6
CONTINUOUS
100
AcDbLine
 10
110.652708
 20
171.686582
 30
0.0
 11
99.152708
 21
171.686582
 31
0.0
  0
LINE
  5
221
100
AcDbEntity
  8
GR2-1
  6
CONTINUOUS
100
AcDbLine
 10
99.402708
 20
171.436582
 30
0.0
 11
110.402708
 21
171.436582
 31
0.0
  0
LINE
  5
222
100
AcDbEntity
  8
GR2-1
  6
CONTINUOUS
100
AcDbLine
 10
110.402708
 20
171.436582
 30
0.0
 11
110.402708
 21
135.836582
 31
0.0
  0
LINE
  5
223
100
AcDbEntity
  8
GR2-1
  6
CONTINUOUS
100
AcDbLine
 10
110.402708
 20
135.836582
 30
0.0
 11
99.402708
 21
135.836582
 31
0.0
  0
LINE
  5
224
100
AcDbEntity
  8
GR2-1
  6
CONTINUOUS
100
AcDbLine
 10
99.402708
 20
135.836582
 30
0.0
 11
99.402708
 21
171.436582
 31
0.0
  0
LINE
  5
225
100
AcDbEntity
  8
GR2-1
  6
CONTINUOUS
100
AcDbLine
 10
99.402708
 20
167.936582
 30
0.0
 11
110.402708
 21
167.936582
 31
0.0
  0
LINE
  5
226
100
AcDbEntity
  8
GR2-1
  6
CONTINUOUS
100
AcDbLine
 10
99.402708
 20
163.936582
 30
0.0
 11
110.402708
 21
163.936582
 31
0.0
  0
CIRCLE
  5
227
100
AcDbEntity
  8
GR2-1
  6
CONTINUOUS
100
AcDbCircle
 10
105.952708
 20
145.286582
 30
0.0
 40
2.25
  0
CIRCLE
  5
228
100
AcDbEntity
  8
GR2-1
  6
CONTINUOUS
100
AcDbCircle
 10
105.952708
 20
155.286582
 30
0.0
 40
2.25
  0
LINE
  5
229
100
AcDbEntity
  8
GR2-1
  6
CONTINUOUS
100
AcDbLine
 10
109.402708
 20
174.686582
 30
0.0
 11
104.402708
 21
174.686582
 31
0.0
  0
LINE
  5
22A
100
AcDbEntity
  8
GR2-1
  6
CONTINUOUS
100
AcDbLine
 10
104.402708
 20
174.686582
 30
0.0
 11
104.402708
 21
173.186582
 31
0.0
  0
LINE
  5
22B
100
AcDbEntity
  8
GR2-1
  6
CONTINUOUS
100
AcDbLine
 10
109.402708
 20
174.686582
 30
0.0
 11
109.402708
 21
173.186582
 31
0.0
  0
LINE
  5
22C
100
AcDbEntity
  8
GR2-1
  6
CONTINUOUS
100
AcDbLine
 10
109.402708
 20
174.186582
 30
0.0
 11
104.402708
 21
174.186582
 31
0.0
  0
LINE
  5
22D
100
AcDbEntity
  8
GR2-1
  6
CONTINUOUS
100
AcDbLine
 10
109.402708
 20
132.586582
 30
0.0
 11
104.402708
 21
132.586582
 31
0.0
  0
LINE
  5
22E
100
AcDbEntity
  8
GR2-1
  6
CONTINUOUS
100
AcDbLine
 10
104.402708
 20
132.586582
 30
0.0
 11
104.402708
 21
134.086582
 31
0.0
  0
LINE
  5
22F
100
AcDbEntity
  8
GR2-1
  6
CONTINUOUS
100
AcDbLine
 10
109.402708
 20
132.586582
 30
0.0
 11
109.402708
 21
134.086582
 31
0.0
  0
LINE
  5
230
100
AcDbEntity
  8
GR2-1
  6
CONTINUOUS
100
AcDbLine
 10
109.402708
 20
133.086582
 30
0.0
 11
104.402708
 21
133.086582
 31
0.0
  0
LINE
  5
231
100
AcDbEntity
  8
GR2-1
  6
CONTINUOUS
100
AcDbLine
 10
95.152708
 20
172.186582
 30
0.0
 11
95.152708
 21
135.086582
 31
0.0
  0
LINE
  5
232
100
AcDbEntity
  8
GR2-1
  6
CONTINUOUS
100
AcDbLine
 10
80.652708
 20
172.186582
 30
0.0
 11
80.652708
 21
135.086582
 31
0.0
  0
LINE
  5
233
100
AcDbEntity
  8
GR2-1
  6
CONTINUOUS
100
AcDbLine
 10
81.652708
 20
134.086582
 30
0.0
 11
94.152708
 21
134.086582
 31
0.0
  0
ARC
  5
234
100
AcDbEntity
  8
GR2-1
  6
CONTINUOUS
100
AcDbCircle
 10
94.152708
 20
172.186582
 30
0.0
 40
1.0
100
AcDbArc
 50
0.0
 51
90.0
  0
ARC
  5
235
100
AcDbEntity
  8
GR2-1
  6
CONTINUOUS
100
AcDbCircle
 10
81.652708
 20
172.186582
 30
0.0
 40
1.0
100
AcDbArc
 50
90.0
 51
180.0
  0
ARC
  5
236
100
AcDbEntity
  8
GR2-1
  6
CONTINUOUS
100
AcDbCircle
 10
81.652708
 20
135.086582
 30
0.0
 40
1.0
100
AcDbArc
 50
180.0
 51
270.0
  0
ARC
  5
237
100
AcDbEntity
  8
GR2-1
  6
CONTINUOUS
100
AcDbCircle
 10
94.152708
 20
135.086582
 30
0.0
 40
1.0
100
AcDbArc
 50
270.0
 51
0.0
  0
CIRCLE
  5
238
100
AcDbEntity
  8
GR2-1
  6
CONTINUOUS
100
AcDbCircle
 10
88.952708
 20
155.286582
 30
0.0
 40
2.0
  0
CIRCLE
  5
239
100
AcDbEntity
  8
GR2-1
  6
CONTINUOUS
100
AcDbCircle
 10
88.952708
 20
145.286582
 30
0.0
 40
2.0
  0
LINE
  5
23A
100
AcDbEntity
  8
GR2-1
  6
CONTINUOUS
100
AcDbLine
 10
82.152708
 20
171.686582
 30
0.0
 11
82.152708
 21
135.586582
 31
0.0
  0
LINE
  5
23B
100
AcDbEntity
  8
GR2-1
  6
CONTINUOUS
100
AcDbLine
 10
82.152708
 20
135.586582
 30
0.0
 11
93.652708
 21
135.586582
 31
0.0
  0
LINE
  5
23C
100
AcDbEntity
  8
GR2-1
  6
CONTINUOUS
100
AcDbLine
 10
93.652708
 20
171.686582
 30
0.0
 11
93.652708
 21
135.586582
 31
0.0
  0
LINE
  5
23D
100
AcDbEntity
  8
GR2-1
  6
CONTINUOUS
100
AcDbLine
 10
93.652708
 20
171.686582
 30
0.0
 11
82.152708
 21
171.686582
 31
0.0
  0
LINE
  5
23E
100
AcDbEntity
  8
GR2-1
  6
CONTINUOUS
100
AcDbLine
 10
82.402708
 20
171.436582
 30
0.0
 11
93.402708
 21
171.436582
 31
0.0
  0
LINE
  5
23F
100
AcDbEntity
  8
GR2-1
  6
CONTINUOUS
100
AcDbLine
 10
93.402708
 20
171.436582
 30
0.0
 11
93.402708
 21
135.836582
 31
0.0
  0
LINE
  5
240
100
AcDbEntity
  8
GR2-1
  6
CONTINUOUS
100
AcDbLine
 10
93.402708
 20
135.836582
 30
0.0
 11
82.402708
 21
135.836582
 31
0.0
  0
LINE
  5
241
100
AcDbEntity
  8
GR2-1
  6
CONTINUOUS
100
AcDbLine
 10
82.402708
 20
135.836582
 30
0.0
 11
82.402708
 21
171.436582
 31
0.0
  0
LINE
  5
242
100
AcDbEntity
  8
GR2-1
  6
CONTINUOUS
100
AcDbLine
 10
82.402708
 20
167.936582
 30
0.0
 11
93.402708
 21
167.936582
 31
0.0
  0
LINE
  5
243
100
AcDbEntity
  8
GR2-1
  6
CONTINUOUS
100
AcDbLine
 10
82.402708
 20
163.936582
 30
0.0
 11
93.402708
 21
163.936582
 31
0.0
  0
CIRCLE
  5
244
100
AcDbEntity
  8
GR2-1
  6
CONTINUOUS
100
AcDbCircle
 10
88.952708
 20
145.286582
 30
0.0
 40
2.25
  0
CIRCLE
  5
245
100
AcDbEntity
  8
GR2-1
  6
CONTINUOUS
100
AcDbCircle
 10
88.952708
 20
155.286582
 30
0.0
 40
2.25
  0
LINE
  5
246
100
AcDbEntity
  8
GR2-1
  6
CONTINUOUS
100
AcDbLine
 10
92.402708
 20
174.686582
 30
0.0
 11
87.402708
 21
174.686582
 31
0.0
  0
LINE
  5
247
100
AcDbEntity
  8
GR2-1
  6
CONTINUOUS
100
AcDbLine
 10
87.402708
 20
174.686582
 30
0.0
 11
87.402708
 21
173.186582
 31
0.0
  0
LINE
  5
248
100
AcDbEntity
  8
GR2-1
  6
CONTINUOUS
100
AcDbLine
 10
92.402708
 20
174.686582
 30
0.0
 11
92.402708
 21
173.186582
 31
0.0
  0
LINE
  5
249
100
AcDbEntity
  8
GR2-1
  6
CONTINUOUS
100
AcDbLine
 10
92.402708
 20
174.186582
 30
0.0
 11
87.402708
 21
174.186582
 31
0.0
  0
LINE
  5
24A
100
AcDbEntity
  8
GR2-1
  6
CONTINUOUS
100
AcDbLine
 10
92.402708
 20
132.586582
 30
0.0
 11
87.402708
 21
132.586582
 31
0.0
  0
LINE
  5
24B
100
AcDbEntity
  8
GR2-1
  6
CONTINUOUS
100
AcDbLine
 10
87.402708
 20
132.586582
 30
0.0
 11
87.402708
 21
134.086582
 31
0.0
  0
LINE
  5
24C
100
AcDbEntity
  8
GR2-1
  6
CONTINUOUS
100
AcDbLine
 10
92.402708
 20
132.586582
 30
0.0
 11
92.402708
 21
134.086582
 31
0.0
  0
LINE
  5
24D
100
AcDbEntity
  8
GR2-1
  6
CONTINUOUS
100
AcDbLine
 10
92.402708
 20
133.086582
 30
0.0
 11
87.402708
 21
133.086582
 31
0.0
  0
LINE
  5
24E
100
AcDbEntity
  8
GR2-1
  6
CONTINUOUS
100
AcDbLine
 10
77.152708
 20
173.186582
 30
0.0
 11
64.652708
 21
173.186582
 31
0.0
  0
LINE
  5
24F
100
AcDbEntity
  8
GR2-1
  6
CONTINUOUS
100
AcDbLine
 10
78.152708
 20
172.186582
 30
0.0
 11
78.152708
 21
135.086582
 31
0.0
  0
LINE
  5
250
100
AcDbEntity
  8
GR2-1
  6
CONTINUOUS
100
AcDbLine
 10
63.652708
 20
172.186582
 30
0.0
 11
63.652708
 21
135.086582
 31
0.0
  0
LINE
  5
251
100
AcDbEntity
  8
GR2-1
  6
CONTINUOUS
100
AcDbLine
 10
64.652708
 20
134.086582
 30
0.0
 11
77.152708
 21
134.086582
 31
0.0
  0
ARC
  5
252
100
AcDbEntity
  8
GR2-1
  6
CONTINUOUS
100
AcDbCircle
 10
77.152708
 20
172.186582
 30
0.0
 40
1.0
100
AcDbArc
 50
0.0
 51
90.0
  0
ARC
  5
253
100
AcDbEntity
  8
GR2-1
  6
CONTINUOUS
100
AcDbCircle
 10
64.652708
 20
172.186582
 30
0.0
 40
1.0
100
AcDbArc
 50
90.0
 51
180.0
  0
ARC
  5
254
100
AcDbEntity
  8
GR2-1
  6
CONTINUOUS
100
AcDbCircle
 10
64.652708
 20
135.086582
 30
0.0
 40
1.0
100
AcDbArc
 50
180.0
 51
270.0
  0
ARC
  5
255
100
AcDbEntity
  8
GR2-1
  6
CONTINUOUS
100
AcDbCircle
 10
77.152708
 20
135.086582
 30
0.0
 40
1.0
100
AcDbArc
 50
270.0
 51
0.0
  0
CIRCLE
  5
256
100
AcDbEntity
  8
GR2-1
  6
CONTINUOUS
100
AcDbCircle
 10
71.952708
 20
155.286582
 30
0.0
 40
2.0
  0
CIRCLE
  5
257
100
AcDbEntity
  8
GR2-1
  6
CONTINUOUS
100
AcDbCircle
 10
71.952708
 20
145.286582
 30
0.0
 40
2.0
  0
LINE
  5
258
100
AcDbEntity
  8
GR2-1
  6
CONTINUOUS
100
AcDbLine
 10
65.152708
 20
171.686582
 30
0.0
 11
65.152708
 21
135.586582
 31
0.0
  0
LINE
  5
259
100
AcDbEntity
  8
GR2-1
  6
CONTINUOUS
100
AcDbLine
 10
65.152708
 20
135.586582
 30
0.0
 11
76.652708
 21
135.586582
 31
0.0
  0
LINE
  5
25A
100
AcDbEntity
  8
GR2-1
  6
CONTINUOUS
100
AcDbLine
 10
76.652708
 20
171.686582
 30
0.0
 11
76.652708
 21
135.586582
 31
0.0
  0
LINE
  5
25B
100
AcDbEntity
  8
GR2-1
  6
CONTINUOUS
100
AcDbLine
 10
76.652708
 20
171.686582
 30
0.0
 11
65.152708
 21
171.686582
 31
0.0
  0
LINE
  5
25C
100
AcDbEntity
  8
GR2-1
  6
CONTINUOUS
100
AcDbLine
 10
65.402708
 20
171.436582
 30
0.0
 11
76.402708
 21
171.436582
 31
0.0
  0
LINE
  5
25D
100
AcDbEntity
  8
GR2-1
  6
CONTINUOUS
100
AcDbLine
 10
76.402708
 20
171.436582
 30
0.0
 11
76.402708
 21
135.836582
 31
0.0
  0
LINE
  5
25E
100
AcDbEntity
  8
GR2-1
  6
CONTINUOUS
100
AcDbLine
 10
76.402708
 20
135.836582
 30
0.0
 11
65.402708
 21
135.836582
 31
0.0
  0
LINE
  5
25F
100
AcDbEntity
  8
GR2-1
  6
CONTINUOUS
100
AcDbLine
 10
65.402708
 20
135.836582
 30
0.0
 11
65.402708
 21
171.436582
 31
0.0
  0
LINE
  5
260
100
AcDbEntity
  8
GR2-1
  6
CONTINUOUS
100
AcDbLine
 10
65.402708
 20
167.936582
 30
0.0
 11
76.402708
 21
167.936582
 31
0.0
  0
LINE
  5
261
100
AcDbEntity
  8
GR2-1
  6
CONTINUOUS
100
AcDbLine
 10
65.402708
 20
163.936582
 30
0.0
 11
76.402708
 21
163.936582
 31
0.0
  0
CIRCLE
  5
262
100
AcDbEntity
  8
GR2-1
  6
CONTINUOUS
100
AcDbCircle
 10
71.952708
 20
145.286582
 30
0.0
 40
2.25
  0
CIRCLE
  5
263
100
AcDbEntity
  8
GR2-1
  6
CONTINUOUS
100
AcDbCircle
 10
71.952708
 20
155.286582
 30
0.0
 40
2.25
  0
LINE
  5
264
100
AcDbEntity
  8
GR2-1
  6
CONTINUOUS
100
AcDbLine
 10
75.402708
 20
174.686582
 30
0.0
 11
70.402708
 21
174.686582
 31
0.0
  0
LINE
  5
265
100
AcDbEntity
  8
GR2-1
  6
CONTINUOUS
100
AcDbLine
 10
70.402708
 20
174.686582
 30
0.0
 11
70.402708
 21
173.186582
 31
0.0
  0
LINE
  5
266
100
AcDbEntity
  8
GR2-1
  6
CONTINUOUS
100
AcDbLine
 10
75.402708
 20
174.686582
 30
0.0
 11
75.402708
 21
173.186582
 31
0.0
  0
LINE
  5
267
100
AcDbEntity
  8
GR2-1
  6
CONTINUOUS
100
AcDbLine
 10
75.402708
 20
174.186582
 30
0.0
 11
70.402708
 21
174.186582
 31
0.0
  0
LINE
  5
268
100
AcDbEntity
  8
GR2-1
  6
CONTINUOUS
100
AcDbLine
 10
75.402708
 20
132.586582
 30
0.0
 11
70.402708
 21
132.586582
 31
0.0
  0
LINE
  5
269
100
AcDbEntity
  8
GR2-1
  6
CONTINUOUS
100
AcDbLine
 10
70.402708
 20
132.586582
 30
0.0
 11
70.402708
 21
134.086582
 31
0.0
  0
LINE
  5
26A
100
AcDbEntity
  8
GR2-1
  6
CONTINUOUS
100
AcDbLine
 10
75.402708
 20
132.586582
 30
0.0
 11
75.402708
 21
134.086582
 31
0.0
  0
LINE
  5
26B
100
AcDbEntity
  8
GR2-1
  6
CONTINUOUS
100
AcDbLine
 10
75.402708
 20
133.086582
 30
0.0
 11
70.402708
 21
133.086582
 31
0.0
  0
LINE
  5
26C
100
AcDbEntity
  8
GR2_01
  6
CONTINUOUS
100
AcDbLine
 10
9.352708
 20
0.150922
 30
0.0
 11
141.352708
 21
0.150922
 31
0.0
  0
LINE
  5
26D
100
AcDbEntity
  8
GR2_01
  6
CONTINUOUS
100
AcDbLine
 10
141.352708
 20
11.206077
 30
0.0
 11
141.352708
 21
0.150922
 31
0.0
  0
LINE
  5
26E
100
AcDbEntity
  8
GR2_01
  6
CONTINUOUS
100
AcDbLine
 10
9.352708
 20
11.194849
 30
0.0
 11
9.352708
 21
0.150922
 31
0.0
  0
LINE
  5
26F
100
AcDbEntity
  8
GR2_01
  6
CONTINUOUS
100
AcDbLine
 10
9.852708
 20
11.650922
 30
0.0
 11
9.852708
 21
11.150922
 31
0.0
  0
LINE
  5
270
100
AcDbEntity
  8
GR2_01
  6
CONTINUOUS
100
AcDbLine
 10
140.852708
 20
11.594849
 30
0.0
 11
140.852708
 21
11.194849
 31
0.0
  0
LINE
  5
271
100
AcDbEntity
  8
GR2_01
  6
CONTINUOUS
100
AcDbLine
 10
34.952708
 20
17.850922
 30
0.0
 11
34.952708
 21
27.450922
 31
0.0
  0
LINE
  5
272
100
AcDbEntity
  8
GR2_01
  6
CONTINUOUS
100
AcDbLine
 10
26.352708
 20
17.850922
 30
0.0
 11
26.352708
 21
27.450922
 31
0.0
  0
LINE
  5
273
100
AcDbEntity
  8
GR2_01
  6
CONTINUOUS
100
AcDbLine
 10
26.352708
 20
27.450922
 30
0.0
 11
28.152708
 21
27.450922
 31
0.0
  0
LINE
  5
274
100
AcDbEntity
  8
GR2_01
  6
CONTINUOUS
100
AcDbLine
 10
28.152708
 20
36.850922
 30
0.0
 11
33.152708
 21
36.850922
 31
0.0
  0
LINE
  5
275
100
AcDbEntity
  8
GR2_01
  6
CONTINUOUS
100
AcDbLine
 10
33.152708
 20
27.450922
 30
0.0
 11
34.952708
 21
27.450922
 31
0.0
  0
LINE
  5
276
100
AcDbEntity
  8
GR2_01
  6
CONTINUOUS
100
AcDbLine
 10
28.152708
 20
33.050922
 30
0.0
 11
33.152708
 21
33.050922
 31
0.0
  0
LINE
  5
277
100
AcDbEntity
  8
GR2_01
  6
CONTINUOUS
100
AcDbLine
 10
26.352708
 20
23.550922
 30
0.0
 11
28.152708
 21
23.550922
 31
0.0
  0
LINE
  5
278
100
AcDbEntity
  8
GR2_01
  6
CONTINUOUS
100
AcDbLine
 10
33.152708
 20
23.550922
 30
0.0
 11
34.952708
 21
23.550922
 31
0.0
  0
LINE
  5
279
100
AcDbEntity
  8
GR2_01
  6
CONTINUOUS
100
AcDbLine
 10
33.152708
 20
17.850922
 30
0.0
 11
33.152708
 21
36.850922
 31
0.0
  0
LINE
  5
27A
100
AcDbEntity
  8
GR2_01
  6
CONTINUOUS
100
AcDbLine
 10
28.152708
 20
17.850922
 30
0.0
 11
28.152708
 21
36.850922
 31
0.0
  0
LINE
  5
27B
100
AcDbEntity
  8
GR2_01
  6
CONTINUOUS
100
AcDbLine
 10
22.952708
 20
17.850922
 30
0.0
 11
22.952708
 21
27.450922
 31
0.0
  0
LINE
  5
27C
100
AcDbEntity
  8
GR2_01
  6
CONTINUOUS
100
AcDbLine
 10
14.352708
 20
17.850922
 30
0.0
 11
14.352708
 21
27.450922
 31
0.0
  0
LINE
  5
27D
100
AcDbEntity
  8
GR2_01
  6
CONTINUOUS
100
AcDbLine
 10
14.352708
 20
27.450922
 30
0.0
 11
16.152708
 21
27.450922
 31
0.0
  0
LINE
  5
27E
100
AcDbEntity
  8
GR2_01
  6
CONTINUOUS
100
AcDbLine
 10
16.152708
 20
36.850922
 30
0.0
 11
21.152708
 21
36.850922
 31
0.0
  0
LINE
  5
27F
100
AcDbEntity
  8
GR2_01
  6
CONTINUOUS
100
AcDbLine
 10
21.152708
 20
27.450922
 30
0.0
 11
22.952708
 21
27.450922
 31
0.0
  0
LINE
  5
280
100
AcDbEntity
  8
GR2_01
  6
CONTINUOUS
100
AcDbLine
 10
16.152708
 20
33.050922
 30
0.0
 11
21.152708
 21
33.050922
 31
0.0
  0
LINE
  5
281
100
AcDbEntity
  8
GR2_01
  6
CONTINUOUS
100
AcDbLine
 10
14.352708
 20
23.550922
 30
0.0
 11
16.152708
 21
23.550922
 31
0.0
  0
LINE
  5
282
100
AcDbEntity
  8
GR2_01
  6
CONTINUOUS
100
AcDbLine
 10
21.152708
 20
23.550922
 30
0.0
 11
22.952708
 21
23.550922
 31
0.0
  0
LINE
  5
283
100
AcDbEntity
  8
GR2_01
  6
CONTINUOUS
100
AcDbLine
 10
21.152708
 20
17.850922
 30
0.0
 11
21.152708
 21
36.850922
 31
0.0
  0
LINE
  5
284
100
AcDbEntity
  8
GR2_01
  6
CONTINUOUS
100
AcDbLine
 10
16.152708
 20
17.850922
 30
0.0
 11
16.152708
 21
36.850922
 31
0.0
  0
LINE
  5
285
100
AcDbEntity
  8
GR2_01
  6
CONTINUOUS
100
AcDbLine
 10
27.652708
 20
30.450922
 30
0.0
 11
28.152708
 21
30.450922
 31
0.0
  0
LINE
  5
286
100
AcDbEntity
  8
GR2_01
  6
CONTINUOUS
100
AcDbLine
 10
27.652708
 20
30.450922
 30
0.0
 11
27.652708
 21
27.450922
 31
0.0
  0
LINE
  5
287
100
AcDbEntity
  8
GR2_01
  6
CONTINUOUS
100
AcDbLine
 10
33.652708
 20
30.450922
 30
0.0
 11
33.652708
 21
27.450922
 31
0.0
  0
LINE
  5
288
100
AcDbEntity
  8
GR2_01
  6
CONTINUOUS
100
AcDbLine
 10
33.152708
 20
30.450922
 30
0.0
 11
33.652708
 21
30.450922
 31
0.0
  0
ARC
  5
289
100
AcDbEntity
  8
GR2-1
  6
CONTINUOUS
100
AcDbCircle
 10
116.545456
 20
80.150922
 30
0.0
 40
1.0
100
AcDbArc
 50
90.0
 51
179.5
  0
LINE
  5
28A
100
AcDbEntity
  8
GR2-1
  6
CONTINUOUS
100
AcDbLine
 10
115.242247
 20
41.550922
 30
0.0
 11
115.545494
 21
80.159648
 31
0.0
  0
LINE
  5
28B
100
AcDbEntity
  8
GR2-1
  6
CONTINUOUS
100
AcDbLine
 10
128.259962
 20
81.150922
 30
0.0
 11
116.545456
 21
81.150922
 31
0.0
  0
LINE
  5
28C
100
AcDbEntity
  8
0
  6
CONTINUOUS
 62
     7
100
AcDbLine
 10
128.452708
 20
41.550922
 30
0.0
 11
128.452708
 21
79.950922
 31
0.0
  0
LINE
  5
28D
100
AcDbEntity
  8
0
  6
CONTINUOUS
 62
     7
100
AcDbLine
 10
128.452708
 20
79.950922
 30
0.0
 11
116.352708
 21
79.950922
 31
0.0
  0
LINE
  5
28E
100
AcDbEntity
  8
0
  6
CONTINUOUS
 62
     7
100
AcDbLine
 10
116.352708
 20
79.950922
 30
0.0
 11
116.352708
 21
41.550922
 31
0.0
  0
ARC
  5
28F
100
AcDbEntity
  8
GR2-1
  6
CONTINUOUS
100
AcDbCircle
 10
128.259962
 20
80.150922
 30
0.0
 40
1.0
100
AcDbArc
 50
0.5
 51
90.0
  0
LINE
  5
290
100
AcDbEntity
  8
GR2-1
  6
CONTINUOUS
100
AcDbLine
 10
129.563168
 20
41.550922
 30
0.0
 11
129.259924
 21
80.159648
 31
0.0
  0
LINE
  5
291
100
AcDbEntity
  8
GR2-1
  6
CONTINUOUS
100
AcDbLine
 10
121.402708
 20
68.150922
 30
0.0
 11
123.402708
 21
68.150922
 31
0.0
  0
LINE
  5
292
100
AcDbEntity
  8
GR2-1
  6
CONTINUOUS
100
AcDbLine
 10
121.402708
 20
78.150922
 30
0.0
 11
123.402708
 21
78.150922
 31
0.0
  0
LINE
  5
293
100
AcDbEntity
  8
GR2-1
  6
CONTINUOUS
100
AcDbLine
 10
120.902708
 20
68.650922
 30
0.0
 11
120.902708
 21
77.650922
 31
0.0
  0
LINE
  5
294
100
AcDbEntity
  8
GR2-1
  6
CONTINUOUS
100
AcDbLine
 10
123.902708
 20
68.650922
 30
0.0
 11
123.902708
 21
77.650922
 31
0.0
  0
ARC
  5
295
100
AcDbEntity
  8
GR2-1
  6
CONTINUOUS
100
AcDbCircle
 10
123.402708
 20
77.650922
 30
0.0
 40
0.5
100
AcDbArc
 50
0.0
 51
90.0
  0
ARC
  5
296
100
AcDbEntity
  8
GR2-1
  6
CONTINUOUS
100
AcDbCircle
 10
121.402708
 20
77.650922
 30
0.0
 40
0.5
100
AcDbArc
 50
90.0
 51
180.0
  0
ARC
  5
297
100
AcDbEntity
  8
GR2-1
  6
CONTINUOUS
100
AcDbCircle
 10
121.402708
 20
68.650922
 30
0.0
 40
0.5
100
AcDbArc
 50
180.0
 51
270.0
  0
ARC
  5
298
100
AcDbEntity
  8
GR2-1
  6
CONTINUOUS
100
AcDbCircle
 10
123.402708
 20
68.650922
 30
0.0
 40
0.5
100
AcDbArc
 50
270.0
 51
0.0
  0
LINE
  5
299
100
AcDbEntity
  8
GR2-1
  6
CONTINUOUS
100
AcDbLine
 10
125.752708
 20
78.150922
 30
0.0
 11
127.452708
 21
78.150922
 31
0.0
  0
LINE
  5
29A
100
AcDbEntity
  8
GR2-1
  6
CONTINUOUS
100
AcDbLine
 10
125.752708
 20
68.150922
 30
0.0
 11
127.452708
 21
68.150922
 31
0.0
  0
ARC
  5
29B
100
AcDbEntity
  8
GR2-1
  6
CONTINUOUS
100
AcDbCircle
 10
125.752708
 20
77.650922
 30
0.0
 40
0.5
100
AcDbArc
 50
90.0
 51
180.0
  0
ARC
  5
29C
100
AcDbEntity
  8
GR2-1
  6
CONTINUOUS
100
AcDbCircle
 10
125.752708
 20
68.650922
 30
0.0
 40
0.5
100
AcDbArc
 50
180.0
 51
270.0
  0
ARC
  5
29D
100
AcDbEntity
  8
GR2-1
  6
CONTINUOUS
100
AcDbCircle
 10
127.452708
 20
77.650922
 30
0.0
 40
0.5
100
AcDbArc
 50
0.0
 51
90.0
  0
ARC
  5
29E
100
AcDbEntity
  8
GR2-1
  6
CONTINUOUS
100
AcDbCircle
 10
127.452708
 20
68.650922
 30
0.0
 40
0.5
100
AcDbArc
 50
270.0
 51
0.0
  0
LINE
  5
29F
100
AcDbEntity
  8
GR2-1
  6
CONTINUOUS
100
AcDbLine
 10
127.952708
 20
77.650922
 30
0.0
 11
127.952708
 21
68.650922
 31
0.0
  0
LINE
  5
2A0
100
AcDbEntity
  8
GR2-1
  6
CONTINUOUS
100
AcDbLine
 10
125.252708
 20
77.650922
 30
0.0
 11
125.252708
 21
68.650922
 31
0.0
  0
LINE
  5
2A1
100
AcDbEntity
  8
GR2-1
  6
CONTINUOUS
100
AcDbLine
 10
121.902708
 20
49.150922
 30
0.0
 11
126.902708
 21
49.150922
 31
0.0
  0
LINE
  5
2A2
100
AcDbEntity
  8
GR2-1
  6
CONTINUOUS
100
AcDbLine
 10
126.902708
 20
46.150922
 30
0.0
 11
121.902708
 21
46.150922
 31
0.0
  0
LINE
  5
2A3
100
AcDbEntity
  8
GR2-1
  6
CONTINUOUS
100
AcDbLine
 10
126.902708
 20
54.650922
 30
0.0
 11
121.902708
 21
54.650922
 31
0.0
  0
LINE
  5
2A4
100
AcDbEntity
  8
GR2-1
  6
CONTINUOUS
100
AcDbLine
 10
126.902708
 20
44.650922
 30
0.0
 11
121.902708
 21
44.650922
 31
0.0
  0
LINE
  5
2A5
100
AcDbEntity
  8
GR2-1
  6
CONTINUOUS
100
AcDbLine
 10
121.902708
 20
41.550922
 30
0.0
 11
121.902708
 21
54.650922
 31
0.0
  0
LINE
  5
2A6
100
AcDbEntity
  8
GR2-1
  6
CONTINUOUS
100
AcDbLine
 10
120.902708
 20
52.650922
 30
0.0
 11
120.902708
 21
41.550922
 31
0.0
  0
ARC
  5
2A7
100
AcDbEntity
  8
GR2-1
  6
CONTINUOUS
100
AcDbCircle
 10
121.402708
 20
52.650922
 30
0.0
 40
0.5
100
AcDbArc
 50
0.0
 51
180.0
  0
LINE
  5
2A8
100
AcDbEntity
  8
GR2-1
  6
CONTINUOUS
100
AcDbLine
 10
126.902708
 20
41.550922
 30
0.0
 11
126.902708
 21
54.650922
 31
0.0
  0
LINE
  5
2A9
100
AcDbEntity
  8
GR2-1
  6
CONTINUOUS
100
AcDbLine
 10
127.902708
 20
52.650922
 30
0.0
 11
127.902708
 21
41.550922
 31
0.0
  0
ARC
  5
2AA
100
AcDbEntity
  8
GR2-1
  6
CONTINUOUS
100
AcDbCircle
 10
127.402708
 20
52.650922
 30
0.0
 40
0.5
100
AcDbArc
 50
0.0
 51
180.0
  0
ARC
  5
2AB
100
AcDbEntity
  8
GR2-1
  6
CONTINUOUS
100
AcDbCircle
 10
99.545456
 20
80.150922
 30
0.0
 40
1.0
100
AcDbArc
 50
90.0
 51
179.5
  0
LINE
  5
2AC
100
AcDbEntity
  8
GR2-1
  6
CONTINUOUS
100
AcDbLine
 10
98.242247
 20
41.550922
 30
0.0
 11
98.545494
 21
80.159648
 31
0.0
  0
LINE
  5
2AD
100
AcDbEntity
  8
GR2-1
  6
CONTINUOUS
100
AcDbLine
 10
111.259962
 20
81.150922
 30
0.0
 11
99.545456
 21
81.150922
 31
0.0
  0
LINE
  5
2AE
100
AcDbEntity
  8
0
  6
CONTINUOUS
 62
     7
100
AcDbLine
 10
111.452708
 20
41.550922
 30
0.0
 11
111.452708
 21
79.950922
 31
0.0
  0
LINE
  5
2AF
100
AcDbEntity
  8
0
  6
CONTINUOUS
 62
     7
100
AcDbLine
 10
111.452708
 20
79.950922
 30
0.0
 11
99.352708
 21
79.950922
 31
0.0
  0
LINE
  5
2B0
100
AcDbEntity
  8
0
  6
CONTINUOUS
 62
     7
100
AcDbLine
 10
99.352708
 20
79.950922
 30
0.0
 11
99.352708
 21
41.550922
 31
0.0
  0
ARC
  5
2B1
100
AcDbEntity
  8
GR2-1
  6
CONTINUOUS
100
AcDbCircle
 10
111.259962
 20
80.150922
 30
0.0
 40
1.0
100
AcDbArc
 50
0.5
 51
90.0
  0
LINE
  5
2B2
100
AcDbEntity
  8
GR2-1
  6
CONTINUOUS
100
AcDbLine
 10
112.563168
 20
41.550922
 30
0.0
 11
112.259924
 21
80.159648
 31
0.0
  0
LINE
  5
2B3
100
AcDbEntity
  8
GR2-1
  6
CONTINUOUS
100
AcDbLine
 10
104.402708
 20
68.150922
 30
0.0
 11
106.402708
 21
68.150922
 31
0.0
  0
LINE
  5
2B4
100
AcDbEntity
  8
GR2-1
  6
CONTINUOUS
100
AcDbLine
 10
104.402708
 20
78.150922
 30
0.0
 11
106.402708
 21
78.150922
 31
0.0
  0
LINE
  5
2B5
100
AcDbEntity
  8
GR2-1
  6
CONTINUOUS
100
AcDbLine
 10
103.902708
 20
68.650922
 30
0.0
 11
103.902708
 21
77.650922
 31
0.0
  0
LINE
  5
2B6
100
AcDbEntity
  8
GR2-1
  6
CONTINUOUS
100
AcDbLine
 10
106.902708
 20
68.650922
 30
0.0
 11
106.902708
 21
77.650922
 31
0.0
  0
ARC
  5
2B7
100
AcDbEntity
  8
GR2-1
  6
CONTINUOUS
100
AcDbCircle
 10
106.402708
 20
77.650922
 30
0.0
 40
0.5
100
AcDbArc
 50
0.0
 51
90.0
  0
ARC
  5
2B8
100
AcDbEntity
  8
GR2-1
  6
CONTINUOUS
100
AcDbCircle
 10
104.402708
 20
77.650922
 30
0.0
 40
0.5
100
AcDbArc
 50
90.0
 51
180.0
  0
ARC
  5
2B9
100
AcDbEntity
  8
GR2-1
  6
CONTINUOUS
100
AcDbCircle
 10
104.402708
 20
68.650922
 30
0.0
 40
0.5
100
AcDbArc
 50
180.0
 51
270.0
  0
ARC
  5
2BA
100
AcDbEntity
  8
GR2-1
  6
CONTINUOUS
100
AcDbCircle
 10
106.402708
 20
68.650922
 30
0.0
 40
0.5
100
AcDbArc
 50
270.0
 51
0.0
  0
LINE
  5
2BB
100
AcDbEntity
  8
GR2-1
  6
CONTINUOUS
100
AcDbLine
 10
108.752708
 20
78.150922
 30
0.0
 11
110.452708
 21
78.150922
 31
0.0
  0
LINE
  5
2BC
100
AcDbEntity
  8
GR2-1
  6
CONTINUOUS
100
AcDbLine
 10
108.752708
 20
68.150922
 30
0.0
 11
110.452708
 21
68.150922
 31
0.0
  0
ARC
  5
2BD
100
AcDbEntity
  8
GR2-1
  6
CONTINUOUS
100
AcDbCircle
 10
108.752708
 20
77.650922
 30
0.0
 40
0.5
100
AcDbArc
 50
90.0
 51
180.0
  0
ARC
  5
2BE
100
AcDbEntity
  8
GR2-1
  6
CONTINUOUS
100
AcDbCircle
 10
108.752708
 20
68.650922
 30
0.0
 40
0.5
100
AcDbArc
 50
180.0
 51
270.0
  0
ARC
  5
2BF
100
AcDbEntity
  8
GR2-1
  6
CONTINUOUS
100
AcDbCircle
 10
110.452708
 20
77.650922
 30
0.0
 40
0.5
100
AcDbArc
 50
0.0
 51
90.0
  0
ARC
  5
2C0
100
AcDbEntity
  8
GR2-1
  6
CONTINUOUS
100
AcDbCircle
 10
110.452708
 20
68.650922
 30
0.0
 40
0.5
100
AcDbArc
 50
270.0
 51
0.0
  0
LINE
  5
2C1
100
AcDbEntity
  8
GR2-1
  6
CONTINUOUS
100
AcDbLine
 10
110.952708
 20
77.650922
 30
0.0
 11
110.952708
 21
68.650922
 31
0.0
  0
LINE
  5
2C2
100
AcDbEntity
  8
GR2-1
  6
CONTINUOUS
100
AcDbLine
 10
108.252708
 20
77.650922
 30
0.0
 11
108.252708
 21
68.650922
 31
0.0
  0
LINE
  5
2C3
100
AcDbEntity
  8
GR2-1
  6
CONTINUOUS
100
AcDbLine
 10
104.902708
 20
49.150922
 30
0.0
 11
109.902708
 21
49.150922
 31
0.0
  0
LINE
  5
2C4
100
AcDbEntity
  8
GR2-1
  6
CONTINUOUS
100
AcDbLine
 10
109.902708
 20
46.150922
 30
0.0
 11
104.902708
 21
46.150922
 31
0.0
  0
LINE
  5
2C5
100
AcDbEntity
  8
GR2-1
  6
CONTINUOUS
100
AcDbLine
 10
109.902708
 20
54.650922
 30
0.0
 11
104.902708
 21
54.650922
 31
0.0
  0
LINE
  5
2C6
100
AcDbEntity
  8
GR2-1
  6
CONTINUOUS
100
AcDbLine
 10
109.902708
 20
44.650922
 30
0.0
 11
104.902708
 21
44.650922
 31
0.0
  0
LINE
  5
2C7
100
AcDbEntity
  8
GR2-1
  6
CONTINUOUS
100
AcDbLine
 10
104.902708
 20
41.550922
 30
0.0
 11
104.902708
 21
54.650922
 31
0.0
  0
LINE
  5
2C8
100
AcDbEntity
  8
GR2-1
  6
CONTINUOUS
100
AcDbLine
 10
103.902708
 20
52.650922
 30
0.0
 11
103.902708
 21
41.550922
 31
0.0
  0
ARC
  5
2C9
100
AcDbEntity
  8
GR2-1
  6
CONTINUOUS
100
AcDbCircle
 10
104.402708
 20
52.650922
 30
0.0
 40
0.5
100
AcDbArc
 50
0.0
 51
180.0
  0
LINE
  5
2CA
100
AcDbEntity
  8
GR2-1
  6
CONTINUOUS
100
AcDbLine
 10
109.902708
 20
41.550922
 30
0.0
 11
109.902708
 21
54.650922
 31
0.0
  0
LINE
  5
2CB
100
AcDbEntity
  8
GR2-1
  6
CONTINUOUS
100
AcDbLine
 10
110.902708
 20
52.650922
 30
0.0
 11
110.902708
 21
41.550922
 31
0.0
  0
ARC
  5
2CC
100
AcDbEntity
  8
GR2-1
  6
CONTINUOUS
100
AcDbCircle
 10
110.402708
 20
52.650922
 30
0.0
 40
0.5
100
AcDbArc
 50
0.0
 51
180.0
  0
ARC
  5
2CD
100
AcDbEntity
  8
GR2-1
  6
CONTINUOUS
100
AcDbCircle
 10
82.545456
 20
80.150922
 30
0.0
 40
1.0
100
AcDbArc
 50
90.0
 51
179.5
  0
LINE
  5
2CE
100
AcDbEntity
  8
GR2-1
  6
CONTINUOUS
100
AcDbLine
 10
81.242247
 20
41.550922
 30
0.0
 11
81.545494
 21
80.159648
 31
0.0
  0
LINE
  5
2CF
100
AcDbEntity
  8
GR2-1
  6
CONTINUOUS
100
AcDbLine
 10
94.259962
 20
81.150922
 30
0.0
 11
82.545456
 21
81.150922
 31
0.0
  0
LINE
  5
2D0
100
AcDbEntity
  8
0
  6
CONTINUOUS
 62
     7
100
AcDbLine
 10
94.452708
 20
41.550922
 30
0.0
 11
94.452708
 21
79.950922
 31
0.0
  0
LINE
  5
2D1
100
AcDbEntity
  8
0
  6
CONTINUOUS
 62
     7
100
AcDbLine
 10
94.452708
 20
79.950922
 30
0.0
 11
82.352708
 21
79.950922
 31
0.0
  0
LINE
  5
2D2
100
AcDbEntity
  8
0
  6
CONTINUOUS
 62
     7
100
AcDbLine
 10
82.352708
 20
79.950922
 30
0.0
 11
82.352708
 21
41.550922
 31
0.0
  0
ARC
  5
2D3
100
AcDbEntity
  8
GR2-1
  6
CONTINUOUS
100
AcDbCircle
 10
94.259962
 20
80.150922
 30
0.0
 40
1.0
100
AcDbArc
 50
0.5
 51
90.0
  0
LINE
  5
2D4
100
AcDbEntity
  8
GR2-1
  6
CONTINUOUS
100
AcDbLine
 10
95.563168
 20
41.550922
 30
0.0
 11
95.259924
 21
80.159648
 31
0.0
  0
LINE
  5
2D5
100
AcDbEntity
  8
GR2-1
  6
CONTINUOUS
100
AcDbLine
 10
87.402708
 20
68.150922
 30
0.0
 11
89.402708
 21
68.150922
 31
0.0
  0
LINE
  5
2D6
100
AcDbEntity
  8
GR2-1
  6
CONTINUOUS
100
AcDbLine
 10
87.402708
 20
78.150922
 30
0.0
 11
89.402708
 21
78.150922
 31
0.0
  0
LINE
  5
2D7
100
AcDbEntity
  8
GR2-1
  6
CONTINUOUS
100
AcDbLine
 10
86.902708
 20
68.650922
 30
0.0
 11
86.902708
 21
77.650922
 31
0.0
  0
LINE
  5
2D8
100
AcDbEntity
  8
GR2-1
  6
CONTINUOUS
100
AcDbLine
 10
89.902708
 20
68.650922
 30
0.0
 11
89.902708
 21
77.650922
 31
0.0
  0
ARC
  5
2D9
100
AcDbEntity
  8
GR2-1
  6
CONTINUOUS
100
AcDbCircle
 10
89.402708
 20
77.650922
 30
0.0
 40
0.5
100
AcDbArc
 50
0.0
 51
90.0
  0
ARC
  5
2DA
100
AcDbEntity
  8
GR2-1
  6
CONTINUOUS
100
AcDbCircle
 10
87.402708
 20
77.650922
 30
0.0
 40
0.5
100
AcDbArc
 50
90.0
 51
180.0
  0
ARC
  5
2DB
100
AcDbEntity
  8
GR2-1
  6
CONTINUOUS
100
AcDbCircle
 10
87.402708
 20
68.650922
 30
0.0
 40
0.5
100
AcDbArc
 50
180.0
 51
270.0
  0
ARC
  5
2DC
100
AcDbEntity
  8
GR2-1
  6
CONTINUOUS
100
AcDbCircle
 10
89.402708
 20
68.650922
 30
0.0
 40
0.5
100
AcDbArc
 50
270.0
 51
0.0
  0
LINE
  5
2DD
100
AcDbEntity
  8
GR2-1
  6
CONTINUOUS
100
AcDbLine
 10
91.752708
 20
78.150922
 30
0.0
 11
93.452708
 21
78.150922
 31
0.0
  0
LINE
  5
2DE
100
AcDbEntity
  8
GR2-1
  6
CONTINUOUS
100
AcDbLine
 10
91.752708
 20
68.150922
 30
0.0
 11
93.452708
 21
68.150922
 31
0.0
  0
ARC
  5
2DF
100
AcDbEntity
  8
GR2-1
  6
CONTINUOUS
100
AcDbCircle
 10
91.752708
 20
77.650922
 30
0.0
 40
0.5
100
AcDbArc
 50
90.0
 51
180.0
  0
ARC
  5
2E0
100
AcDbEntity
  8
GR2-1
  6
CONTINUOUS
100
AcDbCircle
 10
91.752708
 20
68.650922
 30
0.0
 40
0.5
100
AcDbArc
 50
180.0
 51
270.0
  0
ARC
  5
2E1
100
AcDbEntity
  8
GR2-1
  6
CONTINUOUS
100
AcDbCircle
 10
93.452708
 20
77.650922
 30
0.0
 40
0.5
100
AcDbArc
 50
0.0
 51
90.0
  0
ARC
  5
2E2
100
AcDbEntity
  8
GR2-1
  6
CONTINUOUS
100
AcDbCircle
 10
93.452708
 20
68.650922
 30
0.0
 40
0.5
100
AcDbArc
 50
270.0
 51
0.0
  0
LINE
  5
2E3
100
AcDbEntity
  8
GR2-1
  6
CONTINUOUS
100
AcDbLine
 10
93.952708
 20
77.650922
 30
0.0
 11
93.952708
 21
68.650922
 31
0.0
  0
LINE
  5
2E4
100
AcDbEntity
  8
GR2-1
  6
CONTINUOUS
100
AcDbLine
 10
91.252708
 20
77.650922
 30
0.0
 11
91.252708
 21
68.650922
 31
0.0
  0
LINE
  5
2E5
100
AcDbEntity
  8
GR2-1
  6
CONTINUOUS
100
AcDbLine
 10
87.902708
 20
49.150922
 30
0.0
 11
92.902708
 21
49.150922
 31
0.0
  0
LINE
  5
2E6
100
AcDbEntity
  8
GR2-1
  6
CONTINUOUS
100
AcDbLine
 10
92.902708
 20
46.150922
 30
0.0
 11
87.902708
 21
46.150922
 31
0.0
  0
LINE
  5
2E7
100
AcDbEntity
  8
GR2-1
  6
CONTINUOUS
100
AcDbLine
 10
92.902708
 20
54.650922
 30
0.0
 11
87.902708
 21
54.650922
 31
0.0
  0
LINE
  5
2E8
100
AcDbEntity
  8
GR2-1
  6
CONTINUOUS
100
AcDbLine
 10
92.902708
 20
44.650922
 30
0.0
 11
87.902708
 21
44.650922
 31
0.0
  0
LINE
  5
2E9
100
AcDbEntity
  8
GR2-1
  6
CONTINUOUS
100
AcDbLine
 10
87.902708
 20
41.550922
 30
0.0
 11
87.902708
 21
54.650922
 31
0.0
  0
LINE
  5
2EA
100
AcDbEntity
  8
GR2-1
  6
CONTINUOUS
100
AcDbLine
 10
86.902708
 20
52.650922
 30
0.0
 11
86.902708
 21
41.550922
 31
0.0
  0
ARC
  5
2EB
100
AcDbEntity
  8
GR2-1
  6
CONTINUOUS
100
AcDbCircle
 10
87.402708
 20
52.650922
 30
0.0
 40
0.5
100
AcDbArc
 50
0.0
 51
180.0
  0
LINE
  5
2EC
100
AcDbEntity
  8
GR2-1
  6
CONTINUOUS
100
AcDbLine
 10
92.902708
 20
41.550922
 30
0.0
 11
92.902708
 21
54.650922
 31
0.0
  0
LINE
  5
2ED
100
AcDbEntity
  8
GR2-1
  6
CONTINUOUS
100
AcDbLine
 10
93.902708
 20
52.650922
 30
0.0
 11
93.902708
 21
41.550922
 31
0.0
  0
ARC
  5
2EE
100
AcDbEntity
  8
GR2-1
  6
CONTINUOUS
100
AcDbCircle
 10
93.402708
 20
52.650922
 30
0.0
 40
0.5
100
AcDbArc
 50
0.0
 51
180.0
  0
ARC
  5
2EF
100
AcDbEntity
  8
GR2-1
  6
CONTINUOUS
100
AcDbCircle
 10
65.545456
 20
80.150922
 30
0.0
 40
1.0
100
AcDbArc
 50
90.0
 51
179.5
  0
LINE
  5
2F0
100
AcDbEntity
  8
GR2-1
  6
CONTINUOUS
100
AcDbLine
 10
64.242247
 20
41.550922
 30
0.0
 11
64.545494
 21
80.159648
 31
0.0
  0
LINE
  5
2F1
100
AcDbEntity
  8
GR2-1
  6
CONTINUOUS
100
AcDbLine
 10
77.259962
 20
81.150922
 30
0.0
 11
65.545456
 21
81.150922
 31
0.0
  0
LINE
  5
2F2
100
AcDbEntity
  8
0
  6
CONTINUOUS
 62
     7
100
AcDbLine
 10
77.452708
 20
41.550922
 30
0.0
 11
77.452708
 21
79.950922
 31
0.0
  0
LINE
  5
2F3
100
AcDbEntity
  8
0
  6
CONTINUOUS
 62
     7
100
AcDbLine
 10
77.452708
 20
79.950922
 30
0.0
 11
65.352708
 21
79.950922
 31
0.0
  0
LINE
  5
2F4
100
AcDbEntity
  8
0
  6
CONTINUOUS
 62
     7
100
AcDbLine
 10
65.352708
 20
79.950922
 30
0.0
 11
65.352708
 21
41.550922
 31
0.0
  0
ARC
  5
2F5
100
AcDbEntity
  8
GR2-1
  6
CONTINUOUS
100
AcDbCircle
 10
77.259962
 20
80.150922
 30
0.0
 40
1.0
100
AcDbArc
 50
0.5
 51
90.0
  0
LINE
  5
2F6
100
AcDbEntity
  8
GR2-1
  6
CONTINUOUS
100
AcDbLine
 10
78.563168
 20
41.550922
 30
0.0
 11
78.259924
 21
80.159648
 31
0.0
  0
LINE
  5
2F7
100
AcDbEntity
  8
GR2-1
  6
CONTINUOUS
100
AcDbLine
 10
70.402708
 20
68.150922
 30
0.0
 11
72.402708
 21
68.150922
 31
0.0
  0
LINE
  5
2F8
100
AcDbEntity
  8
GR2-1
  6
CONTINUOUS
100
AcDbLine
 10
70.402708
 20
78.150922
 30
0.0
 11
72.402708
 21
78.150922
 31
0.0
  0
LINE
  5
2F9
100
AcDbEntity
  8
GR2-1
  6
CONTINUOUS
100
AcDbLine
 10
69.902708
 20
68.650922
 30
0.0
 11
69.902708
 21
77.650922
 31
0.0
  0
LINE
  5
2FA
100
AcDbEntity
  8
GR2-1
  6
CONTINUOUS
100
AcDbLine
 10
72.902708
 20
68.650922
 30
0.0
 11
72.902708
 21
77.650922
 31
0.0
  0
ARC
  5
2FB
100
AcDbEntity
  8
GR2-1
  6
CONTINUOUS
100
AcDbCircle
 10
72.402708
 20
77.650922
 30
0.0
 40
0.5
100
AcDbArc
 50
0.0
 51
90.0
  0
ARC
  5
2FC
100
AcDbEntity
  8
GR2-1
  6
CONTINUOUS
100
AcDbCircle
 10
70.402708
 20
77.650922
 30
0.0
 40
0.5
100
AcDbArc
 50
90.0
 51
180.0
  0
ARC
  5
2FD
100
AcDbEntity
  8
GR2-1
  6
CONTINUOUS
100
AcDbCircle
 10
70.402708
 20
68.650922
 30
0.0
 40
0.5
100
AcDbArc
 50
180.0
 51
270.0
  0
ARC
  5
2FE
100
AcDbEntity
  8
GR2-1
  6
CONTINUOUS
100
AcDbCircle
 10
72.402708
 20
68.650922
 30
0.0
 40
0.5
100
AcDbArc
 50
270.0
 51
0.0
  0
LINE
  5
2FF
100
AcDbEntity
  8
GR2-1
  6
CONTINUOUS
100
AcDbLine
 10
74.752708
 20
78.150922
 30
0.0
 11
76.452708
 21
78.150922
 31
0.0
  0
LINE
  5
300
100
AcDbEntity
  8
GR2-1
  6
CONTINUOUS
100
AcDbLine
 10
74.752708
 20
68.150922
 30
0.0
 11
76.452708
 21
68.150922
 31
0.0
  0
ARC
  5
301
100
AcDbEntity
  8
GR2-1
  6
CONTINUOUS
100
AcDbCircle
 10
74.752708
 20
77.650922
 30
0.0
 40
0.5
100
AcDbArc
 50
90.0
 51
180.0
  0
ARC
  5
302
100
AcDbEntity
  8
GR2-1
  6
CONTINUOUS
100
AcDbCircle
 10
74.752708
 20
68.650922
 30
0.0
 40
0.5
100
AcDbArc
 50
180.0
 51
270.0
  0
ARC
  5
303
100
AcDbEntity
  8
GR2-1
  6
CONTINUOUS
100
AcDbCircle
 10
76.452708
 20
77.650922
 30
0.0
 40
0.5
100
AcDbArc
 50
0.0
 51
90.0
  0
ARC
  5
304
100
AcDbEntity
  8
GR2-1
  6
CONTINUOUS
100
AcDbCircle
 10
76.452708
 20
68.650922
 30
0.0
 40
0.5
100
AcDbArc
 50
270.0
 51
0.0
  0
LINE
  5
305
100
AcDbEntity
  8
GR2-1
  6
CONTINUOUS
100
AcDbLine
 10
76.952708
 20
77.650922
 30
0.0
 11
76.952708
 21
68.650922
 31
0.0
  0
LINE
  5
306
100
AcDbEntity
  8
GR2-1
  6
CONTINUOUS
100
AcDbLine
 10
74.252708
 20
77.650922
 30
0.0
 11
74.252708
 21
68.650922
 31
0.0
  0
LINE
  5
307
100
AcDbEntity
  8
GR2-1
  6
CONTINUOUS
100
AcDbLine
 10
70.902708
 20
49.150922
 30
0.0
 11
75.902708
 21
49.150922
 31
0.0
  0
LINE
  5
308
100
AcDbEntity
  8
GR2-1
  6
CONTINUOUS
100
AcDbLine
 10
75.902708
 20
46.150922
 30
0.0
 11
70.902708
 21
46.150922
 31
0.0
  0
LINE
  5
309
100
AcDbEntity
  8
GR2-1
  6
CONTINUOUS
100
AcDbLine
 10
75.902708
 20
54.650922
 30
0.0
 11
70.902708
 21
54.650922
 31
0.0
  0
LINE
  5
30A
100
AcDbEntity
  8
GR2-1
  6
CONTINUOUS
100
AcDbLine
 10
75.902708
 20
44.650922
 30
0.0
 11
70.902708
 21
44.650922
 31
0.0
  0
LINE
  5
30B
100
AcDbEntity
  8
GR2-1
  6
CONTINUOUS
100
AcDbLine
 10
70.902708
 20
41.550922
 30
0.0
 11
70.902708
 21
54.650922
 31
0.0
  0
LINE
  5
30C
100
AcDbEntity
  8
GR2-1
  6
CONTINUOUS
100
AcDbLine
 10
69.902708
 20
52.650922
 30
0.0
 11
69.902708
 21
41.550922
 31
0.0
  0
ARC
  5
30D
100
AcDbEntity
  8
GR2-1
  6
CONTINUOUS
100
AcDbCircle
 10
70.402708
 20
52.650922
 30
0.0
 40
0.5
100
AcDbArc
 50
0.0
 51
180.0
  0
LINE
  5
30E
100
AcDbEntity
  8
GR2-1
  6
CONTINUOUS
100
AcDbLine
 10
75.902708
 20
41.550922
 30
0.0
 11
75.902708
 21
54.650922
 31
0.0
  0
LINE
  5
30F
100
AcDbEntity
  8
GR2-1
  6
CONTINUOUS
100
AcDbLine
 10
76.902708
 20
52.650922
 30
0.0
 11
76.902708
 21
41.550922
 31
0.0
  0
ARC
  5
310
100
AcDbEntity
  8
GR2-1
  6
CONTINUOUS
100
AcDbCircle
 10
76.402708
 20
52.650922
 30
0.0
 40
0.5
100
AcDbArc
 50
0.0
 51
180.0
  0
LINE
  5
311
100
AcDbEntity
  8
0
  6
CONTINUOUS
 62
     7
100
AcDbLine
 10
56.847708
 20
39.800922
 30
0.0
 11
132.357708
 21
39.800922
 31
0.0
  0
LINE
  5
312
100
AcDbEntity
  8
0
  6
CONTINUOUS
 62
     7
100
AcDbLine
 10
56.847708
 20
39.800922
 30
0.0
 11
56.847708
 21
13.376667
 31
0.0
  0
LINE
  5
313
100
AcDbEntity
  8
0
  6
CONTINUOUS
 62
     7
100
AcDbLine
 10
132.357708
 20
39.800922
 30
0.0
 11
132.357708
 21
38.925932
 31
0.0
  0
LINE
  5
314
100
AcDbEntity
  8
0
  6
CONTINUOUS
 62
     7
100
AcDbLine
 10
56.847708
 20
25.400922
 30
0.0
 11
132.357708
 21
25.400922
 31
0.0
  0
LINE
  5
315
100
AcDbEntity
  8
0
  6
CONTINUOUS
 62
     7
100
AcDbLine
 10
56.847708
 20
27.844097
 30
0.0
 11
132.357708
 21
27.844097
 31
0.0
  0
LINE
  5
316
100
AcDbEntity
  8
0
  6
CONTINUOUS
 62
     7
100
AcDbLine
 10
120.477708
 20
37.000922
 30
0.0
 11
125.877708
 21
37.000922
 31
0.0
  0
LINE
  5
317
100
AcDbEntity
  8
0
  6
CONTINUOUS
 62
     7
100
AcDbLine
 10
126.377708
 20
36.500922
 30
0.0
 11
126.377708
 21
28.900922
 31
0.0
  0
LINE
  5
318
100
AcDbEntity
  8
0
  6
CONTINUOUS
 62
     7
100
AcDbLine
 10
119.977708
 20
36.500922
 30
0.0
 11
119.977708
 21
28.900922
 31
0.0
  0
LINE
  5
319
100
AcDbEntity
  8
0
  6
CONTINUOUS
 62
     7
100
AcDbLine
 10
120.477708
 20
28.400922
 30
0.0
 11
125.877708
 21
28.400922
 31
0.0
  0
ARC
  5
31A
100
AcDbEntity
  8
0
  6
CONTINUOUS
 62
     7
100
AcDbCircle
 10
125.877708
 20
36.500922
 30
0.0
 40
0.5
100
AcDbArc
 50
0.0
 51
90.0
  0
ARC
  5
31B
100
AcDbEntity
  8
0
  6
CONTINUOUS
 62
     7
100
AcDbCircle
 10
120.477708
 20
36.500922
 30
0.0
 40
0.5
100
AcDbArc
 50
90.0
 51
180.0
  0
ARC
  5
31C
100
AcDbEntity
  8
0
  6
CONTINUOUS
 62
     7
100
AcDbCircle
 10
120.477708
 20
28.900922
 30
0.0
 40
0.5
100
AcDbArc
 50
180.0
 51
270.0
  0
ARC
  5
31D
100
AcDbEntity
  8
0
  6
CONTINUOUS
 62
     7
100
AcDbCircle
 10
125.877708
 20
28.900922
 30
0.0
 40
0.5
100
AcDbArc
 50
270.0
 51
0.0
  0
LINE
  5
31E
100
AcDbEntity
  8
GR2_01
  6
CONTINUOUS
100
AcDbLine
 10
126.377708
 20
31.100922
 30
0.0
 11
119.977708
 21
31.100922
 31
0.0
  0
LINE
  5
31F
100
AcDbEntity
  8
GR2_01
  6
CONTINUOUS
100
AcDbLine
 10
126.377708
 20
31.400922
 30
0.0
 11
119.977708
 21
31.400922
 31
0.0
  0
LINE
  5
320
100
AcDbEntity
  8
GR2_01
  6
CONTINUOUS
100
AcDbLine
 10
120.277708
 20
32.500922
 30
0.0
 11
126.077708
 21
32.500922
 31
0.0
  0
LINE
  5
321
100
AcDbEntity
  8
GR2_01
  6
CONTINUOUS
100
AcDbLine
 10
120.077708
 20
32.300922
 30
0.0
 11
120.077708
 21
31.400922
 31
0.0
  0
LINE
  5
322
100
AcDbEntity
  8
GR2_01
  6
CONTINUOUS
100
AcDbLine
 10
120.776684
 20
31.700922
 30
0.0
 11
122.577708
 21
31.700922
 31
0.0
  0
LINE
  5
323
100
AcDbEntity
  8
GR2_01
  6
CONTINUOUS
100
AcDbLine
 10
120.776684
 20
31.700922
 30
0.0
 11
120.603479
 21
31.400922
 31
0.0
  0
ARC
  5
324
100
AcDbEntity
  8
GR2_01
  6
CONTINUOUS
100
AcDbCircle
 10
120.277708
 20
32.300922
 30
0.0
 40
0.2
100
AcDbArc
 50
90.0
 51
180.0
  0
LINE
  5
325
100
AcDbEntity
  8
GR2_01
  6
CONTINUOUS
100
AcDbLine
 10
123.777708
 20
31.400922
 30
0.0
 11
123.777708
 21
31.700922
 31
0.0
  0
LINE
  5
326
100
AcDbEntity
  8
GR2_01
  6
CONTINUOUS
100
AcDbLine
 10
122.577708
 20
31.400922
 30
0.0
 11
122.577708
 21
31.700922
 31
0.0
  0
LINE
  5
327
100
AcDbEntity
  8
GR2_01
  6
CONTINUOUS
100
AcDbLine
 10
123.777708
 20
31.700922
 30
0.0
 11
125.604718
 21
31.700922
 31
0.0
  0
LINE
  5
328
100
AcDbEntity
  8
GR2_01
  6
CONTINUOUS
100
AcDbLine
 10
126.277708
 20
32.300922
 30
0.0
 11
126.277708
 21
31.400922
 31
0.0
  0
LINE
  5
329
100
AcDbEntity
  8
GR2_01
  6
CONTINUOUS
100
AcDbLine
 10
125.578731
 20
31.700922
 30
0.0
 11
125.751937
 21
31.400922
 31
0.0
  0
ARC
  5
32A
100
AcDbEntity
  8
GR2_01
  6
CONTINUOUS
100
AcDbCircle
 10
126.077708
 20
32.300922
 30
0.0
 40
0.2
100
AcDbArc
 50
0.0
 51
90.0
  0
LINE
  5
32B
100
AcDbEntity
  8
GR2_01
  6
CONTINUOUS
100
AcDbLine
 10
121.927708
 20
34.500922
 30
0.0
 11
124.427708
 21
34.500922
 31
0.0
  0
LINE
  5
32C
100
AcDbEntity
  8
GR2_01
  6
CONTINUOUS
100
AcDbLine
 10
125.927708
 20
33.000922
 30
0.0
 11
125.927708
 21
32.500922
 31
0.0
  0
LINE
  5
32D
100
AcDbEntity
  8
GR2_01
  6
CONTINUOUS
100
AcDbLine
 10
120.427708
 20
33.000922
 30
0.0
 11
120.427708
 21
32.500922
 31
0.0
  0
ARC
  5
32E
100
AcDbEntity
  8
GR2_01
  6
CONTINUOUS
100
AcDbCircle
 10
124.427708
 20
33.000922
 30
0.0
 40
1.5
100
AcDbArc
 50
0.0
 51
90.0
  0
ARC
  5
32F
100
AcDbEntity
  8
GR2_01
  6
CONTINUOUS
100
AcDbCircle
 10
121.927708
 20
33.000922
 30
0.0
 40
1.5
100
AcDbArc
 50
90.0
 51
180.0
  0
LINE
  5
330
100
AcDbEntity
  8
GR2_01
  6
CONTINUOUS
100
AcDbLine
 10
123.177708
 20
34.500922
 30
0.0
 11
121.041637
 21
33.928563
 31
0.0
  0
LINE
  5
331
100
AcDbEntity
  8
GR2_01
  6
CONTINUOUS
100
AcDbLine
 10
123.177708
 20
34.500922
 30
0.0
 11
125.369204
 21
33.913712
 31
0.0
  0
LINE
  5
332
100
AcDbEntity
  8
0
  6
CONTINUOUS
 62
     7
100
AcDbLine
 10
112.857708
 20
37.000922
 30
0.0
 11
118.257708
 21
37.000922
 31
0.0
  0
LINE
  5
333
100
AcDbEntity
  8
0
  6
CONTINUOUS
 62
     7
100
AcDbLine
 10
118.757708
 20
36.500922
 30
0.0
 11
118.757708
 21
28.900922
 31
0.0
  0
LINE
  5
334
100
AcDbEntity
  8
0
  6
CONTINUOUS
 62
     7
100
AcDbLine
 10
112.357708
 20
36.500922
 30
0.0
 11
112.357708
 21
28.900922
 31
0.0
  0
LINE
  5
335
100
AcDbEntity
  8
0
  6
CONTINUOUS
 62
     7
100
AcDbLine
 10
112.857708
 20
28.400922
 30
0.0
 11
118.257708
 21
28.400922
 31
0.0
  0
ARC
  5
336
100
AcDbEntity
  8
0
  6
CONTINUOUS
 62
     7
100
AcDbCircle
 10
118.257708
 20
36.500922
 30
0.0
 40
0.5
100
AcDbArc
 50
0.0
 51
90.0
  0
ARC
  5
337
100
AcDbEntity
  8
0
  6
CONTINUOUS
 62
     7
100
AcDbCircle
 10
112.857708
 20
36.500922
 30
0.0
 40
0.5
100
AcDbArc
 50
90.0
 51
180.0
  0
ARC
  5
338
100
AcDbEntity
  8
0
  6
CONTINUOUS
 62
     7
100
AcDbCircle
 10
112.857708
 20
28.900922
 30
0.0
 40
0.5
100
AcDbArc
 50
180.0
 51
270.0
  0
ARC
  5
339
100
AcDbEntity
  8
0
  6
CONTINUOUS
 62
     7
100
AcDbCircle
 10
118.257708
 20
28.900922
 30
0.0
 40
0.5
100
AcDbArc
 50
270.0
 51
0.0
  0
LINE
  5
33A
100
AcDbEntity
  8
GR2_01
  6
CONTINUOUS
100
AcDbLine
 10
118.757708
 20
31.100922
 30
0.0
 11
112.357708
 21
31.100922
 31
0.0
  0
LINE
  5
33B
100
AcDbEntity
  8
GR2_01
  6
CONTINUOUS
100
AcDbLine
 10
118.757708
 20
31.400922
 30
0.0
 11
112.357708
 21
31.400922
 31
0.0
  0
LINE
  5
33C
100
AcDbEntity
  8
GR2_01
  6
CONTINUOUS
100
AcDbLine
 10
112.657708
 20
32.500922
 30
0.0
 11
118.457708
 21
32.500922
 31
0.0
  0
LINE
  5
33D
100
AcDbEntity
  8
GR2_01
  6
CONTINUOUS
100
AcDbLine
 10
112.457708
 20
32.300922
 30
0.0
 11
112.457708
 21
31.400922
 31
0.0
  0
LINE
  5
33E
100
AcDbEntity
  8
GR2_01
  6
CONTINUOUS
100
AcDbLine
 10
113.156684
 20
31.700922
 30
0.0
 11
114.957708
 21
31.700922
 31
0.0
  0
LINE
  5
33F
100
AcDbEntity
  8
GR2_01
  6
CONTINUOUS
100
AcDbLine
 10
113.156684
 20
31.700922
 30
0.0
 11
112.983479
 21
31.400922
 31
0.0
  0
ARC
  5
340
100
AcDbEntity
  8
GR2_01
  6
CONTINUOUS
100
AcDbCircle
 10
112.657708
 20
32.300922
 30
0.0
 40
0.2
100
AcDbArc
 50
90.0
 51
180.0
  0
LINE
  5
341
100
AcDbEntity
  8
GR2_01
  6
CONTINUOUS
100
AcDbLine
 10
116.157708
 20
31.400922
 30
0.0
 11
116.157708
 21
31.700922
 31
0.0
  0
LINE
  5
342
100
AcDbEntity
  8
GR2_01
  6
CONTINUOUS
100
AcDbLine
 10
114.957708
 20
31.400922
 30
0.0
 11
114.957708
 21
31.700922
 31
0.0
  0
LINE
  5
343
100
AcDbEntity
  8
GR2_01
  6
CONTINUOUS
100
AcDbLine
 10
116.157708
 20
31.700922
 30
0.0
 11
117.984718
 21
31.700922
 31
0.0
  0
LINE
  5
344
100
AcDbEntity
  8
GR2_01
  6
CONTINUOUS
100
AcDbLine
 10
118.657708
 20
32.300922
 30
0.0
 11
118.657708
 21
31.400922
 31
0.0
  0
LINE
  5
345
100
AcDbEntity
  8
GR2_01
  6
CONTINUOUS
100
AcDbLine
 10
117.958731
 20
31.700922
 30
0.0
 11
118.131937
 21
31.400922
 31
0.0
  0
ARC
  5
346
100
AcDbEntity
  8
GR2_01
  6
CONTINUOUS
100
AcDbCircle
 10
118.457708
 20
32.300922
 30
0.0
 40
0.2
100
AcDbArc
 50
0.0
 51
90.0
  0
LINE
  5
347
100
AcDbEntity
  8
GR2_01
  6
CONTINUOUS
100
AcDbLine
 10
114.307708
 20
34.500922
 30
0.0
 11
116.807708
 21
34.500922
 31
0.0
  0
LINE
  5
348
100
AcDbEntity
  8
GR2_01
  6
CONTINUOUS
100
AcDbLine
 10
118.307708
 20
33.000922
 30
0.0
 11
118.307708
 21
32.500922
 31
0.0
  0
LINE
  5
349
100
AcDbEntity
  8
GR2_01
  6
CONTINUOUS
100
AcDbLine
 10
112.807708
 20
33.000922
 30
0.0
 11
112.807708
 21
32.500922
 31
0.0
  0
ARC
  5
34A
100
AcDbEntity
  8
GR2_01
  6
CONTINUOUS
100
AcDbCircle
 10
116.807708
 20
33.000922
 30
0.0
 40
1.5
100
AcDbArc
 50
0.0
 51
90.0
  0
ARC
  5
34B
100
AcDbEntity
  8
GR2_01
  6
CONTINUOUS
100
AcDbCircle
 10
114.307708
 20
33.000922
 30
0.0
 40
1.5
100
AcDbArc
 50
90.0
 51
180.0
  0
LINE
  5
34C
100
AcDbEntity
  8
GR2_01
  6
CONTINUOUS
100
AcDbLine
 10
115.557708
 20
34.500922
 30
0.0
 11
113.421637
 21
33.928563
 31
0.0
  0
LINE
  5
34D
100
AcDbEntity
  8
GR2_01
  6
CONTINUOUS
100
AcDbLine
 10
115.557708
 20
34.500922
 30
0.0
 11
117.749204
 21
33.913712
 31
0.0
  0
LINE
  5
34E
100
AcDbEntity
  8
0
  6
CONTINUOUS
 62
     7
100
AcDbLine
 10
105.237708
 20
37.000922
 30
0.0
 11
110.637708
 21
37.000922
 31
0.0
  0
LINE
  5
34F
100
AcDbEntity
  8
0
  6
CONTINUOUS
 62
     7
100
AcDbLine
 10
111.137708
 20
36.500922
 30
0.0
 11
111.137708
 21
28.900922
 31
0.0
  0
LINE
  5
350
100
AcDbEntity
  8
0
  6
CONTINUOUS
 62
     7
100
AcDbLine
 10
104.737708
 20
36.500922
 30
0.0
 11
104.737708
 21
28.900922
 31
0.0
  0
LINE
  5
351
100
AcDbEntity
  8
0
  6
CONTINUOUS
 62
     7
100
AcDbLine
 10
105.237708
 20
28.400922
 30
0.0
 11
110.637708
 21
28.400922
 31
0.0
  0
ARC
  5
352
100
AcDbEntity
  8
0
  6
CONTINUOUS
 62
     7
100
AcDbCircle
 10
110.637708
 20
36.500922
 30
0.0
 40
0.5
100
AcDbArc
 50
0.0
 51
90.0
  0
ARC
  5
353
100
AcDbEntity
  8
0
  6
CONTINUOUS
 62
     7
100
AcDbCircle
 10
105.237708
 20
36.500922
 30
0.0
 40
0.5
100
AcDbArc
 50
90.0
 51
180.0
  0
ARC
  5
354
100
AcDbEntity
  8
0
  6
CONTINUOUS
 62
     7
100
AcDbCircle
 10
105.237708
 20
28.900922
 30
0.0
 40
0.5
100
AcDbArc
 50
180.0
 51
270.0
  0
ARC
  5
355
100
AcDbEntity
  8
0
  6
CONTINUOUS
 62
     7
100
AcDbCircle
 10
110.637708
 20
28.900922
 30
0.0
 40
0.5
100
AcDbArc
 50
270.0
 51
0.0
  0
LINE
  5
356
100
AcDbEntity
  8
GR2_01
  6
CONTINUOUS
100
AcDbLine
 10
111.137708
 20
31.100922
 30
0.0
 11
104.737708
 21
31.100922
 31
0.0
  0
LINE
  5
357
100
AcDbEntity
  8
GR2_01
  6
CONTINUOUS
100
AcDbLine
 10
111.137708
 20
31.400922
 30
0.0
 11
104.737708
 21
31.400922
 31
0.0
  0
LINE
  5
358
100
AcDbEntity
  8
GR2_01
  6
CONTINUOUS
100
AcDbLine
 10
105.037708
 20
32.500922
 30
0.0
 11
110.837708
 21
32.500922
 31
0.0
  0
LINE
  5
359
100
AcDbEntity
  8
GR2_01
  6
CONTINUOUS
100
AcDbLine
 10
104.837708
 20
32.300922
 30
0.0
 11
104.837708
 21
31.400922
 31
0.0
  0
LINE
  5
35A
100
AcDbEntity
  8
GR2_01
  6
CONTINUOUS
100
AcDbLine
 10
105.536684
 20
31.700922
 30
0.0
 11
107.337708
 21
31.700922
 31
0.0
  0
LINE
  5
35B
100
AcDbEntity
  8
GR2_01
  6
CONTINUOUS
100
AcDbLine
 10
105.536684
 20
31.700922
 30
0.0
 11
105.363479
 21
31.400922
 31
0.0
  0
ARC
  5
35C
100
AcDbEntity
  8
GR2_01
  6
CONTINUOUS
100
AcDbCircle
 10
105.037708
 20
32.300922
 30
0.0
 40
0.2
100
AcDbArc
 50
90.0
 51
180.0
  0
LINE
  5
35D
100
AcDbEntity
  8
GR2_01
  6
CONTINUOUS
100
AcDbLine
 10
108.537708
 20
31.400922
 30
0.0
 11
108.537708
 21
31.700922
 31
0.0
  0
LINE
  5
35E
100
AcDbEntity
  8
GR2_01
  6
CONTINUOUS
100
AcDbLine
 10
107.337708
 20
31.400922
 30
0.0
 11
107.337708
 21
31.700922
 31
0.0
  0
LINE
  5
35F
100
AcDbEntity
  8
GR2_01
  6
CONTINUOUS
100
AcDbLine
 10
108.537708
 20
31.700922
 30
0.0
 11
110.364718
 21
31.700922
 31
0.0
  0
LINE
  5
360
100
AcDbEntity
  8
GR2_01
  6
CONTINUOUS
100
AcDbLine
 10
111.037708
 20
32.300922
 30
0.0
 11
111.037708
 21
31.400922
 31
0.0
  0
LINE
  5
361
100
AcDbEntity
  8
GR2_01
  6
CONTINUOUS
100
AcDbLine
 10
110.338731
 20
31.700922
 30
0.0
 11
110.511937
 21
31.400922
 31
0.0
  0
ARC
  5
362
100
AcDbEntity
  8
GR2_01
  6
CONTINUOUS
100
AcDbCircle
 10
110.837708
 20
32.300922
 30
0.0
 40
0.2
100
AcDbArc
 50
0.0
 51
90.0
  0
LINE
  5
363
100
AcDbEntity
  8
GR2_01
  6
CONTINUOUS
100
AcDbLine
 10
106.687708
 20
34.500922
 30
0.0
 11
109.187708
 21
34.500922
 31
0.0
  0
LINE
  5
364
100
AcDbEntity
  8
GR2_01
  6
CONTINUOUS
100
AcDbLine
 10
110.687708
 20
33.000922
 30
0.0
 11
110.687708
 21
32.500922
 31
0.0
  0
LINE
  5
365
100
AcDbEntity
  8
GR2_01
  6
CONTINUOUS
100
AcDbLine
 10
105.187708
 20
33.000922
 30
0.0
 11
105.187708
 21
32.500922
 31
0.0
  0
ARC
  5
366
100
AcDbEntity
  8
GR2_01
  6
CONTINUOUS
100
AcDbCircle
 10
109.187708
 20
33.000922
 30
0.0
 40
1.5
100
AcDbArc
 50
0.0
 51
90.0
  0
ARC
  5
367
100
AcDbEntity
  8
GR2_01
  6
CONTINUOUS
100
AcDbCircle
 10
106.687708
 20
33.000922
 30
0.0
 40
1.5
100
AcDbArc
 50
90.0
 51
180.0
  0
LINE
  5
368
100
AcDbEntity
  8
GR2_01
  6
CONTINUOUS
100
AcDbLine
 10
107.937708
 20
34.500922
 30
0.0
 11
105.801637
 21
33.928563
 31
0.0
  0
LINE
  5
369
100
AcDbEntity
  8
GR2_01
  6
CONTINUOUS
100
AcDbLine
 10
107.937708
 20
34.500922
 30
0.0
 11
110.129204
 21
33.913712
 31
0.0
  0
LINE
  5
36A
100
AcDbEntity
  8
0
  6
CONTINUOUS
 62
     7
100
AcDbLine
 10
97.617708
 20
37.000922
 30
0.0
 11
103.017708
 21
37.000922
 31
0.0
  0
LINE
  5
36B
100
AcDbEntity
  8
0
  6
CONTINUOUS
 62
     7
100
AcDbLine
 10
103.517708
 20
36.500922
 30
0.0
 11
103.517708
 21
28.900922
 31
0.0
  0
LINE
  5
36C
100
AcDbEntity
  8
0
  6
CONTINUOUS
 62
     7
100
AcDbLine
 10
97.117708
 20
36.500922
 30
0.0
 11
97.117708
 21
28.900922
 31
0.0
  0
LINE
  5
36D
100
AcDbEntity
  8
0
  6
CONTINUOUS
 62
     7
100
AcDbLine
 10
97.617708
 20
28.400922
 30
0.0
 11
103.017708
 21
28.400922
 31
0.0
  0
ARC
  5
36E
100
AcDbEntity
  8
0
  6
CONTINUOUS
 62
     7
100
AcDbCircle
 10
103.017708
 20
36.500922
 30
0.0
 40
0.5
100
AcDbArc
 50
0.0
 51
90.0
  0
ARC
  5
36F
100
AcDbEntity
  8
0
  6
CONTINUOUS
 62
     7
100
AcDbCircle
 10
97.617708
 20
36.500922
 30
0.0
 40
0.5
100
AcDbArc
 50
90.0
 51
180.0
  0
ARC
  5
370
100
AcDbEntity
  8
0
  6
CONTINUOUS
 62
     7
100
AcDbCircle
 10
97.617708
 20
28.900922
 30
0.0
 40
0.5
100
AcDbArc
 50
180.0
 51
270.0
  0
ARC
  5
371
100
AcDbEntity
  8
0
  6
CONTINUOUS
 62
     7
100
AcDbCircle
 10
103.017708
 20
28.900922
 30
0.0
 40
0.5
100
AcDbArc
 50
270.0
 51
0.0
  0
LINE
  5
372
100
AcDbEntity
  8
GR2_01
  6
CONTINUOUS
100
AcDbLine
 10
103.517708
 20
31.100922
 30
0.0
 11
97.117708
 21
31.100922
 31
0.0
  0
LINE
  5
373
100
AcDbEntity
  8
GR2_01
  6
CONTINUOUS
100
AcDbLine
 10
103.517708
 20
31.400922
 30
0.0
 11
97.117708
 21
31.400922
 31
0.0
  0
LINE
  5
374
100
AcDbEntity
  8
GR2_01
  6
CONTINUOUS
100
AcDbLine
 10
97.417708
 20
32.500922
 30
0.0
 11
103.217708
 21
32.500922
 31
0.0
  0
LINE
  5
375
100
AcDbEntity
  8
GR2_01
  6
CONTINUOUS
100
AcDbLine
 10
97.217708
 20
32.300922
 30
0.0
 11
97.217708
 21
31.400922
 31
0.0
  0
LINE
  5
376
100
AcDbEntity
  8
GR2_01
  6
CONTINUOUS
100
AcDbLine
 10
97.916684
 20
31.700922
 30
0.0
 11
99.717708
 21
31.700922
 31
0.0
  0
LINE
  5
377
100
AcDbEntity
  8
GR2_01
  6
CONTINUOUS
100
AcDbLine
 10
97.916684
 20
31.700922
 30
0.0
 11
97.743479
 21
31.400922
 31
0.0
  0
ARC
  5
378
100
AcDbEntity
  8
GR2_01
  6
CONTINUOUS
100
AcDbCircle
 10
97.417708
 20
32.300922
 30
0.0
 40
0.2
100
AcDbArc
 50
90.0
 51
180.0
  0
LINE
  5
379
100
AcDbEntity
  8
GR2_01
  6
CONTINUOUS
100
AcDbLine
 10
100.917708
 20
31.400922
 30
0.0
 11
100.917708
 21
31.700922
 31
0.0
  0
LINE
  5
37A
100
AcDbEntity
  8
GR2_01
  6
CONTINUOUS
100
AcDbLine
 10
99.717708
 20
31.400922
 30
0.0
 11
99.717708
 21
31.700922
 31
0.0
  0
LINE
  5
37B
100
AcDbEntity
  8
GR2_01
  6
CONTINUOUS
100
AcDbLine
 10
100.917708
 20
31.700922
 30
0.0
 11
102.744718
 21
31.700922
 31
0.0
  0
LINE
  5
37C
100
AcDbEntity
  8
GR2_01
  6
CONTINUOUS
100
AcDbLine
 10
103.417708
 20
32.300922
 30
0.0
 11
103.417708
 21
31.400922
 31
0.0
  0
LINE
  5
37D
100
AcDbEntity
  8
GR2_01
  6
CONTINUOUS
100
AcDbLine
 10
102.718731
 20
31.700922
 30
0.0
 11
102.891937
 21
31.400922
 31
0.0
  0
ARC
  5
37E
100
AcDbEntity
  8
GR2_01
  6
CONTINUOUS
100
AcDbCircle
 10
103.217708
 20
32.300922
 30
0.0
 40
0.2
100
AcDbArc
 50
0.0
 51
90.0
  0
LINE
  5
37F
100
AcDbEntity
  8
GR2_01
  6
CONTINUOUS
100
AcDbLine
 10
99.067708
 20
34.500922
 30
0.0
 11
101.567708
 21
34.500922
 31
0.0
  0
LINE
  5
380
100
AcDbEntity
  8
GR2_01
  6
CONTINUOUS
100
AcDbLine
 10
103.067708
 20
33.000922
 30
0.0
 11
103.067708
 21
32.500922
 31
0.0
  0
LINE
  5
381
100
AcDbEntity
  8
GR2_01
  6
CONTINUOUS
100
AcDbLine
 10
97.567708
 20
33.000922
 30
0.0
 11
97.567708
 21
32.500922
 31
0.0
  0
ARC
  5
382
100
AcDbEntity
  8
GR2_01
  6
CONTINUOUS
100
AcDbCircle
 10
101.567708
 20
33.000922
 30
0.0
 40
1.5
100
AcDbArc
 50
0.0
 51
90.0
  0
ARC
  5
383
100
AcDbEntity
  8
GR2_01
  6
CONTINUOUS
100
AcDbCircle
 10
99.067708
 20
33.000922
 30
0.0
 40
1.5
100
AcDbArc
 50
90.0
 51
180.0
  0
LINE
  5
384
100
AcDbEntity
  8
GR2_01
  6
CONTINUOUS
100
AcDbLine
 10
100.317708
 20
34.500922
 30
0.0
 11
98.181637
 21
33.928563
 31
0.0
  0
LINE
  5
385
100
AcDbEntity
  8
GR2_01
  6
CONTINUOUS
100
AcDbLine
 10
100.317708
 20
34.500922
 30
0.0
 11
102.509204
 21
33.913712
 31
0.0
  0
LINE
  5
386
100
AcDbEntity
  8
0
  6
CONTINUOUS
 62
     7
100
AcDbLine
 10
89.997708
 20
37.000922
 30
0.0
 11
95.397708
 21
37.000922
 31
0.0
  0
LINE
  5
387
100
AcDbEntity
  8
0
  6
CONTINUOUS
 62
     7
100
AcDbLine
 10
95.897708
 20
36.500922
 30
0.0
 11
95.897708
 21
28.900922
 31
0.0
  0
LINE
  5
388
100
AcDbEntity
  8
0
  6
CONTINUOUS
 62
     7
100
AcDbLine
 10
89.497708
 20
36.500922
 30
0.0
 11
89.497708
 21
28.900922
 31
0.0
  0
LINE
  5
389
100
AcDbEntity
  8
0
  6
CONTINUOUS
 62
     7
100
AcDbLine
 10
89.997708
 20
28.400922
 30
0.0
 11
95.397708
 21
28.400922
 31
0.0
  0
ARC
  5
38A
100
AcDbEntity
  8
0
  6
CONTINUOUS
 62
     7
100
AcDbCircle
 10
95.397708
 20
36.500922
 30
0.0
 40
0.5
100
AcDbArc
 50
0.0
 51
90.0
  0
ARC
  5
38B
100
AcDbEntity
  8
0
  6
CONTINUOUS
 62
     7
100
AcDbCircle
 10
89.997708
 20
36.500922
 30
0.0
 40
0.5
100
AcDbArc
 50
90.0
 51
180.0
  0
ARC
  5
38C
100
AcDbEntity
  8
0
  6
CONTINUOUS
 62
     7
100
AcDbCircle
 10
89.997708
 20
28.900922
 30
0.0
 40
0.5
100
AcDbArc
 50
180.0
 51
270.0
  0
ARC
  5
38D
100
AcDbEntity
  8
0
  6
CONTINUOUS
 62
     7
100
AcDbCircle
 10
95.397708
 20
28.900922
 30
0.0
 40
0.5
100
AcDbArc
 50
270.0
 51
0.0
  0
LINE
  5
38E
100
AcDbEntity
  8
GR2_01
  6
CONTINUOUS
100
AcDbLine
 10
95.897708
 20
31.100922
 30
0.0
 11
89.497708
 21
31.100922
 31
0.0
  0
LINE
  5
38F
100
AcDbEntity
  8
GR2_01
  6
CONTINUOUS
100
AcDbLine
 10
95.897708
 20
31.400922
 30
0.0
 11
89.497708
 21
31.400922
 31
0.0
  0
LINE
  5
390
100
AcDbEntity
  8
GR2_01
  6
CONTINUOUS
100
AcDbLine
 10
89.797708
 20
32.500922
 30
0.0
 11
95.597708
 21
32.500922
 31
0.0
  0
LINE
  5
391
100
AcDbEntity
  8
GR2_01
  6
CONTINUOUS
100
AcDbLine
 10
89.597708
 20
32.300922
 30
0.0
 11
89.597708
 21
31.400922
 31
0.0
  0
LINE
  5
392
100
AcDbEntity
  8
GR2_01
  6
CONTINUOUS
100
AcDbLine
 10
90.296684
 20
31.700922
 30
0.0
 11
92.097708
 21
31.700922
 31
0.0
  0
LINE
  5
393
100
AcDbEntity
  8
GR2_01
  6
CONTINUOUS
100
AcDbLine
 10
90.296684
 20
31.700922
 30
0.0
 11
90.123479
 21
31.400922
 31
0.0
  0
ARC
  5
394
100
AcDbEntity
  8
GR2_01
  6
CONTINUOUS
100
AcDbCircle
 10
89.797708
 20
32.300922
 30
0.0
 40
0.2
100
AcDbArc
 50
90.0
 51
180.0
  0
LINE
  5
395
100
AcDbEntity
  8
GR2_01
  6
CONTINUOUS
100
AcDbLine
 10
93.297708
 20
31.400922
 30
0.0
 11
93.297708
 21
31.700922
 31
0.0
  0
LINE
  5
396
100
AcDbEntity
  8
GR2_01
  6
CONTINUOUS
100
AcDbLine
 10
92.097708
 20
31.400922
 30
0.0
 11
92.097708
 21
31.700922
 31
0.0
  0
LINE
  5
397
100
AcDbEntity
  8
GR2_01
  6
CONTINUOUS
100
AcDbLine
 10
93.297708
 20
31.700922
 30
0.0
 11
95.124718
 21
31.700922
 31
0.0
  0
LINE
  5
398
100
AcDbEntity
  8
GR2_01
  6
CONTINUOUS
100
AcDbLine
 10
95.797708
 20
32.300922
 30
0.0
 11
95.797708
 21
31.400922
 31
0.0
  0
LINE
  5
399
100
AcDbEntity
  8
GR2_01
  6
CONTINUOUS
100
AcDbLine
 10
95.098731
 20
31.700922
 30
0.0
 11
95.271937
 21
31.400922
 31
0.0
  0
ARC
  5
39A
100
AcDbEntity
  8
GR2_01
  6
CONTINUOUS
100
AcDbCircle
 10
95.597708
 20
32.300922
 30
0.0
 40
0.2
100
AcDbArc
 50
0.0
 51
90.0
  0
LINE
  5
39B
100
AcDbEntity
  8
GR2_01
  6
CONTINUOUS
100
AcDbLine
 10
91.447708
 20
34.500922
 30
0.0
 11
93.947708
 21
34.500922
 31
0.0
  0
LINE
  5
39C
100
AcDbEntity
  8
GR2_01
  6
CONTINUOUS
100
AcDbLine
 10
95.447708
 20
33.000922
 30
0.0
 11
95.447708
 21
32.500922
 31
0.0
  0
LINE
  5
39D
100
AcDbEntity
  8
GR2_01
  6
CONTINUOUS
100
AcDbLine
 10
89.947708
 20
33.000922
 30
0.0
 11
89.947708
 21
32.500922
 31
0.0
  0
ARC
  5
39E
100
AcDbEntity
  8
GR2_01
  6
CONTINUOUS
100
AcDbCircle
 10
93.947708
 20
33.000922
 30
0.0
 40
1.5
100
AcDbArc
 50
0.0
 51
90.0
  0
ARC
  5
39F
100
AcDbEntity
  8
GR2_01
  6
CONTINUOUS
100
AcDbCircle
 10
91.447708
 20
33.000922
 30
0.0
 40
1.5
100
AcDbArc
 50
90.0
 51
180.0
  0
LINE
  5
3A0
100
AcDbEntity
  8
GR2_01
  6
CONTINUOUS
100
AcDbLine
 10
92.697708
 20
34.500922
 30
0.0
 11
90.561637
 21
33.928563
 31
0.0
  0
LINE
  5
3A1
100
AcDbEntity
  8
GR2_01
  6
CONTINUOUS
100
AcDbLine
 10
92.697708
 20
34.500922
 30
0.0
 11
94.889204
 21
33.913712
 31
0.0
  0
LINE
  5
3A2
100
AcDbEntity
  8
0
  6
CONTINUOUS
 62
     7
100
AcDbLine
 10
82.377708
 20
37.000922
 30
0.0
 11
87.777708
 21
37.000922
 31
0.0
  0
LINE
  5
3A3
100
AcDbEntity
  8
0
  6
CONTINUOUS
 62
     7
100
AcDbLine
 10
88.277708
 20
36.500922
 30
0.0
 11
88.277708
 21
28.900922
 31
0.0
  0
LINE
  5
3A4
100
AcDbEntity
  8
0
  6
CONTINUOUS
 62
     7
100
AcDbLine
 10
81.877708
 20
36.500922
 30
0.0
 11
81.877708
 21
28.900922
 31
0.0
  0
LINE
  5
3A5
100
AcDbEntity
  8
0
  6
CONTINUOUS
 62
     7
100
AcDbLine
 10
82.377708
 20
28.400922
 30
0.0
 11
87.777708
 21
28.400922
 31
0.0
  0
ARC
  5
3A6
100
AcDbEntity
  8
0
  6
CONTINUOUS
 62
     7
100
AcDbCircle
 10
87.777708
 20
36.500922
 30
0.0
 40
0.5
100
AcDbArc
 50
0.0
 51
90.0
  0
ARC
  5
3A7
100
AcDbEntity
  8
0
  6
CONTINUOUS
 62
     7
100
AcDbCircle
 10
82.377708
 20
36.500922
 30
0.0
 40
0.5
100
AcDbArc
 50
90.0
 51
180.0
  0
ARC
  5
3A8
100
AcDbEntity
  8
0
  6
CONTINUOUS
 62
     7
100
AcDbCircle
 10
82.377708
 20
28.900922
 30
0.0
 40
0.5
100
AcDbArc
 50
180.0
 51
270.0
  0
ARC
  5
3A9
100
AcDbEntity
  8
0
  6
CONTINUOUS
 62
     7
100
AcDbCircle
 10
87.777708
 20
28.900922
 30
0.0
 40
0.5
100
AcDbArc
 50
270.0
 51
0.0
  0
LINE
  5
3AA
100
AcDbEntity
  8
GR2_01
  6
CONTINUOUS
100
AcDbLine
 10
88.277708
 20
31.100922
 30
0.0
 11
81.877708
 21
31.100922
 31
0.0
  0
LINE
  5
3AB
100
AcDbEntity
  8
GR2_01
  6
CONTINUOUS
100
AcDbLine
 10
88.277708
 20
31.400922
 30
0.0
 11
81.877708
 21
31.400922
 31
0.0
  0
LINE
  5
3AC
100
AcDbEntity
  8
GR2_01
  6
CONTINUOUS
100
AcDbLine
 10
82.177708
 20
32.500922
 30
0.0
 11
87.977708
 21
32.500922
 31
0.0
  0
LINE
  5
3AD
100
AcDbEntity
  8
GR2_01
  6
CONTINUOUS
100
AcDbLine
 10
81.977708
 20
32.300922
 30
0.0
 11
81.977708
 21
31.400922
 31
0.0
  0
LINE
  5
3AE
100
AcDbEntity
  8
GR2_01
  6
CONTINUOUS
100
AcDbLine
 10
82.676684
 20
31.700922
 30
0.0
 11
84.477708
 21
31.700922
 31
0.0
  0
LINE
  5
3AF
100
AcDbEntity
  8
GR2_01
  6
CONTINUOUS
100
AcDbLine
 10
82.676684
 20
31.700922
 30
0.0
 11
82.503479
 21
31.400922
 31
0.0
  0
ARC
  5
3B0
100
AcDbEntity
  8
GR2_01
  6
CONTINUOUS
100
AcDbCircle
 10
82.177708
 20
32.300922
 30
0.0
 40
0.2
100
AcDbArc
 50
90.0
 51
180.0
  0
LINE
  5
3B1
100
AcDbEntity
  8
GR2_01
  6
CONTINUOUS
100
AcDbLine
 10
85.677708
 20
31.400922
 30
0.0
 11
85.677708
 21
31.700922
 31
0.0
  0
LINE
  5
3B2
100
AcDbEntity
  8
GR2_01
  6
CONTINUOUS
100
AcDbLine
 10
84.477708
 20
31.400922
 30
0.0
 11
84.477708
 21
31.700922
 31
0.0
  0
LINE
  5
3B3
100
AcDbEntity
  8
GR2_01
  6
CONTINUOUS
100
AcDbLine
 10
85.677708
 20
31.700922
 30
0.0
 11
87.504718
 21
31.700922
 31
0.0
  0
LINE
  5
3B4
100
AcDbEntity
  8
GR2_01
  6
CONTINUOUS
100
AcDbLine
 10
88.177708
 20
32.300922
 30
0.0
 11
88.177708
 21
31.400922
 31
0.0
  0
LINE
  5
3B5
100
AcDbEntity
  8
GR2_01
  6
CONTINUOUS
100
AcDbLine
 10
87.478731
 20
31.700922
 30
0.0
 11
87.651937
 21
31.400922
 31
0.0
  0
ARC
  5
3B6
100
AcDbEntity
  8
GR2_01
  6
CONTINUOUS
100
AcDbCircle
 10
87.977708
 20
32.300922
 30
0.0
 40
0.2
100
AcDbArc
 50
0.0
 51
90.0
  0
LINE
  5
3B7
100
AcDbEntity
  8
GR2_01
  6
CONTINUOUS
100
AcDbLine
 10
83.827708
 20
34.500922
 30
0.0
 11
86.327708
 21
34.500922
 31
0.0
  0
LINE
  5
3B8
100
AcDbEntity
  8
GR2_01
  6
CONTINUOUS
100
AcDbLine
 10
87.827708
 20
33.000922
 30
0.0
 11
87.827708
 21
32.500922
 31
0.0
  0
LINE
  5
3B9
100
AcDbEntity
  8
GR2_01
  6
CONTINUOUS
100
AcDbLine
 10
82.327708
 20
33.000922
 30
0.0
 11
82.327708
 21
32.500922
 31
0.0
  0
ARC
  5
3BA
100
AcDbEntity
  8
GR2_01
  6
CONTINUOUS
100
AcDbCircle
 10
86.327708
 20
33.000922
 30
0.0
 40
1.5
100
AcDbArc
 50
0.0
 51
90.0
  0
ARC
  5
3BB
100
AcDbEntity
  8
GR2_01
  6
CONTINUOUS
100
AcDbCircle
 10
83.827708
 20
33.000922
 30
0.0
 40
1.5
100
AcDbArc
 50
90.0
 51
180.0
  0
LINE
  5
3BC
100
AcDbEntity
  8
GR2_01
  6
CONTINUOUS
100
AcDbLine
 10
85.077708
 20
34.500922
 30
0.0
 11
82.941637
 21
33.928563
 31
0.0
  0
LINE
  5
3BD
100
AcDbEntity
  8
GR2_01
  6
CONTINUOUS
100
AcDbLine
 10
85.077708
 20
34.500922
 30
0.0
 11
87.269204
 21
33.913712
 31
0.0
  0
LINE
  5
3BE
100
AcDbEntity
  8
0
  6
CONTINUOUS
 62
     7
100
AcDbLine
 10
74.757708
 20
37.000922
 30
0.0
 11
80.157708
 21
37.000922
 31
0.0
  0
LINE
  5
3BF
100
AcDbEntity
  8
0
  6
CONTINUOUS
 62
     7
100
AcDbLine
 10
80.657708
 20
36.500922
 30
0.0
 11
80.657708
 21
28.900922
 31
0.0
  0
LINE
  5
3C0
100
AcDbEntity
  8
0
  6
CONTINUOUS
 62
     7
100
AcDbLine
 10
74.257708
 20
36.500922
 30
0.0
 11
74.257708
 21
28.900922
 31
0.0
  0
LINE
  5
3C1
100
AcDbEntity
  8
0
  6
CONTINUOUS
 62
     7
100
AcDbLine
 10
74.757708
 20
28.400922
 30
0.0
 11
80.157708
 21
28.400922
 31
0.0
  0
ARC
  5
3C2
100
AcDbEntity
  8
0
  6
CONTINUOUS
 62
     7
100
AcDbCircle
 10
80.157708
 20
36.500922
 30
0.0
 40
0.5
100
AcDbArc
 50
0.0
 51
90.0
  0
ARC
  5
3C3
100
AcDbEntity
  8
0
  6
CONTINUOUS
 62
     7
100
AcDbCircle
 10
74.757708
 20
36.500922
 30
0.0
 40
0.5
100
AcDbArc
 50
90.0
 51
180.0
  0
ARC
  5
3C4
100
AcDbEntity
  8
0
  6
CONTINUOUS
 62
     7
100
AcDbCircle
 10
74.757708
 20
28.900922
 30
0.0
 40
0.5
100
AcDbArc
 50
180.0
 51
270.0
  0
ARC
  5
3C5
100
AcDbEntity
  8
0
  6
CONTINUOUS
 62
     7
100
AcDbCircle
 10
80.157708
 20
28.900922
 30
0.0
 40
0.5
100
AcDbArc
 50
270.0
 51
0.0
  0
LINE
  5
3C6
100
AcDbEntity
  8
GR2_01
  6
CONTINUOUS
100
AcDbLine
 10
80.657708
 20
31.100922
 30
0.0
 11
74.257708
 21
31.100922
 31
0.0
  0
LINE
  5
3C7
100
AcDbEntity
  8
GR2_01
  6
CONTINUOUS
100
AcDbLine
 10
80.657708
 20
31.400922
 30
0.0
 11
74.257708
 21
31.400922
 31
0.0
  0
LINE
  5
3C8
100
AcDbEntity
  8
GR2_01
  6
CONTINUOUS
100
AcDbLine
 10
74.557708
 20
32.500922
 30
0.0
 11
80.357708
 21
32.500922
 31
0.0
  0
LINE
  5
3C9
100
AcDbEntity
  8
GR2_01
  6
CONTINUOUS
100
AcDbLine
 10
74.357708
 20
32.300922
 30
0.0
 11
74.357708
 21
31.400922
 31
0.0
  0
LINE
  5
3CA
100
AcDbEntity
  8
GR2_01
  6
CONTINUOUS
100
AcDbLine
 10
75.056684
 20
31.700922
 30
0.0
 11
76.857708
 21
31.700922
 31
0.0
  0
LINE
  5
3CB
100
AcDbEntity
  8
GR2_01
  6
CONTINUOUS
100
AcDbLine
 10
75.056684
 20
31.700922
 30
0.0
 11
74.883479
 21
31.400922
 31
0.0
  0
ARC
  5
3CC
100
AcDbEntity
  8
GR2_01
  6
CONTINUOUS
100
AcDbCircle
 10
74.557708
 20
32.300922
 30
0.0
 40
0.2
100
AcDbArc
 50
90.0
 51
180.0
  0
LINE
  5
3CD
100
AcDbEntity
  8
GR2_01
  6
CONTINUOUS
100
AcDbLine
 10
78.057708
 20
31.400922
 30
0.0
 11
78.057708
 21
31.700922
 31
0.0
  0
LINE
  5
3CE
100
AcDbEntity
  8
GR2_01
  6
CONTINUOUS
100
AcDbLine
 10
76.857708
 20
31.400922
 30
0.0
 11
76.857708
 21
31.700922
 31
0.0
  0
LINE
  5
3CF
100
AcDbEntity
  8
GR2_01
  6
CONTINUOUS
100
AcDbLine
 10
78.057708
 20
31.700922
 30
0.0
 11
79.884718
 21
31.700922
 31
0.0
  0
LINE
  5
3D0
100
AcDbEntity
  8
GR2_01
  6
CONTINUOUS
100
AcDbLine
 10
80.557708
 20
32.300922
 30
0.0
 11
80.557708
 21
31.400922
 31
0.0
  0
LINE
  5
3D1
100
AcDbEntity
  8
GR2_01
  6
CONTINUOUS
100
AcDbLine
 10
79.858731
 20
31.700922
 30
0.0
 11
80.031937
 21
31.400922
 31
0.0
  0
ARC
  5
3D2
100
AcDbEntity
  8
GR2_01
  6
CONTINUOUS
100
AcDbCircle
 10
80.357708
 20
32.300922
 30
0.0
 40
0.2
100
AcDbArc
 50
0.0
 51
90.0
  0
LINE
  5
3D3
100
AcDbEntity
  8
GR2_01
  6
CONTINUOUS
100
AcDbLine
 10
76.207708
 20
34.500922
 30
0.0
 11
78.707708
 21
34.500922
 31
0.0
  0
LINE
  5
3D4
100
AcDbEntity
  8
GR2_01
  6
CONTINUOUS
100
AcDbLine
 10
80.207708
 20
33.000922
 30
0.0
 11
80.207708
 21
32.500922
 31
0.0
  0
LINE
  5
3D5
100
AcDbEntity
  8
GR2_01
  6
CONTINUOUS
100
AcDbLine
 10
74.707708
 20
33.000922
 30
0.0
 11
74.707708
 21
32.500922
 31
0.0
  0
ARC
  5
3D6
100
AcDbEntity
  8
GR2_01
  6
CONTINUOUS
100
AcDbCircle
 10
78.707708
 20
33.000922
 30
0.0
 40
1.5
100
AcDbArc
 50
0.0
 51
90.0
  0
ARC
  5
3D7
100
AcDbEntity
  8
GR2_01
  6
CONTINUOUS
100
AcDbCircle
 10
76.207708
 20
33.000922
 30
0.0
 40
1.5
100
AcDbArc
 50
90.0
 51
180.0
  0
LINE
  5
3D8
100
AcDbEntity
  8
GR2_01
  6
CONTINUOUS
100
AcDbLine
 10
77.457708
 20
34.500922
 30
0.0
 11
75.321637
 21
33.928563
 31
0.0
  0
LINE
  5
3D9
100
AcDbEntity
  8
GR2_01
  6
CONTINUOUS
100
AcDbLine
 10
77.457708
 20
34.500922
 30
0.0
 11
79.649204
 21
33.913712
 31
0.0
  0
LINE
  5
3DA
100
AcDbEntity
  8
0
  6
CONTINUOUS
 62
     7
100
AcDbLine
 10
67.137708
 20
37.000922
 30
0.0
 11
72.537708
 21
37.000922
 31
0.0
  0
LINE
  5
3DB
100
AcDbEntity
  8
0
  6
CONTINUOUS
 62
     7
100
AcDbLine
 10
73.037708
 20
36.500922
 30
0.0
 11
73.037708
 21
28.900922
 31
0.0
  0
LINE
  5
3DC
100
AcDbEntity
  8
0
  6
CONTINUOUS
 62
     7
100
AcDbLine
 10
66.637708
 20
36.500922
 30
0.0
 11
66.637708
 21
28.900922
 31
0.0
  0
LINE
  5
3DD
100
AcDbEntity
  8
0
  6
CONTINUOUS
 62
     7
100
AcDbLine
 10
67.137708
 20
28.400922
 30
0.0
 11
72.537708
 21
28.400922
 31
0.0
  0
ARC
  5
3DE
100
AcDbEntity
  8
0
  6
CONTINUOUS
 62
     7
100
AcDbCircle
 10
72.537708
 20
36.500922
 30
0.0
 40
0.5
100
AcDbArc
 50
0.0
 51
90.0
  0
ARC
  5
3DF
100
AcDbEntity
  8
0
  6
CONTINUOUS
 62
     7
100
AcDbCircle
 10
67.137708
 20
36.500922
 30
0.0
 40
0.5
100
AcDbArc
 50
90.0
 51
180.0
  0
ARC
  5
3E0
100
AcDbEntity
  8
0
  6
CONTINUOUS
 62
     7
100
AcDbCircle
 10
67.137708
 20
28.900922
 30
0.0
 40
0.5
100
AcDbArc
 50
180.0
 51
270.0
  0
ARC
  5
3E1
100
AcDbEntity
  8
0
  6
CONTINUOUS
 62
     7
100
AcDbCircle
 10
72.537708
 20
28.900922
 30
0.0
 40
0.5
100
AcDbArc
 50
270.0
 51
0.0
  0
LINE
  5
3E2
100
AcDbEntity
  8
GR2_01
  6
CONTINUOUS
100
AcDbLine
 10
73.037708
 20
31.100922
 30
0.0
 11
66.637708
 21
31.100922
 31
0.0
  0
LINE
  5
3E3
100
AcDbEntity
  8
GR2_01
  6
CONTINUOUS
100
AcDbLine
 10
73.037708
 20
31.400922
 30
0.0
 11
66.637708
 21
31.400922
 31
0.0
  0
LINE
  5
3E4
100
AcDbEntity
  8
GR2_01
  6
CONTINUOUS
100
AcDbLine
 10
66.937708
 20
32.500922
 30
0.0
 11
72.737708
 21
32.500922
 31
0.0
  0
LINE
  5
3E5
100
AcDbEntity
  8
GR2_01
  6
CONTINUOUS
100
AcDbLine
 10
66.737708
 20
32.300922
 30
0.0
 11
66.737708
 21
31.400922
 31
0.0
  0
LINE
  5
3E6
100
AcDbEntity
  8
GR2_01
  6
CONTINUOUS
100
AcDbLine
 10
67.436684
 20
31.700922
 30
0.0
 11
69.237708
 21
31.700922
 31
0.0
  0
LINE
  5
3E7
100
AcDbEntity
  8
GR2_01
  6
CONTINUOUS
100
AcDbLine
 10
67.436684
 20
31.700922
 30
0.0
 11
67.263479
 21
31.400922
 31
0.0
  0
ARC
  5
3E8
100
AcDbEntity
  8
GR2_01
  6
CONTINUOUS
100
AcDbCircle
 10
66.937708
 20
32.300922
 30
0.0
 40
0.2
100
AcDbArc
 50
90.0
 51
180.0
  0
LINE
  5
3E9
100
AcDbEntity
  8
GR2_01
  6
CONTINUOUS
100
AcDbLine
 10
70.437708
 20
31.400922
 30
0.0
 11
70.437708
 21
31.700922
 31
0.0
  0
LINE
  5
3EA
100
AcDbEntity
  8
GR2_01
  6
CONTINUOUS
100
AcDbLine
 10
69.237708
 20
31.400922
 30
0.0
 11
69.237708
 21
31.700922
 31
0.0
  0
LINE
  5
3EB
100
AcDbEntity
  8
GR2_01
  6
CONTINUOUS
100
AcDbLine
 10
70.437708
 20
31.700922
 30
0.0
 11
72.264718
 21
31.700922
 31
0.0
  0
LINE
  5
3EC
100
AcDbEntity
  8
GR2_01
  6
CONTINUOUS
100
AcDbLine
 10
72.937708
 20
32.300922
 30
0.0
 11
72.937708
 21
31.400922
 31
0.0
  0
LINE
  5
3ED
100
AcDbEntity
  8
GR2_01
  6
CONTINUOUS
100
AcDbLine
 10
72.238731
 20
31.700922
 30
0.0
 11
72.411937
 21
31.400922
 31
0.0
  0
ARC
  5
3EE
100
AcDbEntity
  8
GR2_01
  6
CONTINUOUS
100
AcDbCircle
 10
72.737708
 20
32.300922
 30
0.0
 40
0.2
100
AcDbArc
 50
0.0
 51
90.0
  0
LINE
  5
3EF
100
AcDbEntity
  8
GR2_01
  6
CONTINUOUS
100
AcDbLine
 10
68.587708
 20
34.500922
 30
0.0
 11
71.087708
 21
34.500922
 31
0.0
  0
LINE
  5
3F0
100
AcDbEntity
  8
GR2_01
  6
CONTINUOUS
100
AcDbLine
 10
72.587708
 20
33.000922
 30
0.0
 11
72.587708
 21
32.500922
 31
0.0
  0
LINE
  5
3F1
100
AcDbEntity
  8
GR2_01
  6
CONTINUOUS
100
AcDbLine
 10
67.087708
 20
33.000922
 30
0.0
 11
67.087708
 21
32.500922
 31
0.0
  0
ARC
  5
3F2
100
AcDbEntity
  8
GR2_01
  6
CONTINUOUS
100
AcDbCircle
 10
71.087708
 20
33.000922
 30
0.0
 40
1.5
100
AcDbArc
 50
0.0
 51
90.0
  0
ARC
  5
3F3
100
AcDbEntity
  8
GR2_01
  6
CONTINUOUS
100
AcDbCircle
 10
68.587708
 20
33.000922
 30
0.0
 40
1.5
100
AcDbArc
 50
90.0
 51
180.0
  0
LINE
  5
3F4
100
AcDbEntity
  8
GR2_01
  6
CONTINUOUS
100
AcDbLine
 10
69.837708
 20
34.500922
 30
0.0
 11
67.701637
 21
33.928563
 31
0.0
  0
LINE
  5
3F5
100
AcDbEntity
  8
GR2_01
  6
CONTINUOUS
100
AcDbLine
 10
69.837708
 20
34.500922
 30
0.0
 11
72.029204
 21
33.913712
 31
0.0
  0
LINE
  5
3F6
100
AcDbEntity
  8
0
  6
CONTINUOUS
 62
     7
100
AcDbLine
 10
59.517708
 20
37.000922
 30
0.0
 11
64.917708
 21
37.000922
 31
0.0
  0
LINE
  5
3F7
100
AcDbEntity
  8
0
  6
CONTINUOUS
 62
     7
100
AcDbLine
 10
65.417708
 20
36.500922
 30
0.0
 11
65.417708
 21
28.900922
 31
0.0
  0
LINE
  5
3F8
100
AcDbEntity
  8
0
  6
CONTINUOUS
 62
     7
100
AcDbLine
 10
59.017708
 20
36.500922
 30
0.0
 11
59.017708
 21
28.900922
 31
0.0
  0
LINE
  5
3F9
100
AcDbEntity
  8
0
  6
CONTINUOUS
 62
     7
100
AcDbLine
 10
59.517708
 20
28.400922
 30
0.0
 11
64.917708
 21
28.400922
 31
0.0
  0
ARC
  5
3FA
100
AcDbEntity
  8
0
  6
CONTINUOUS
 62
     7
100
AcDbCircle
 10
64.917708
 20
36.500922
 30
0.0
 40
0.5
100
AcDbArc
 50
0.0
 51
90.0
  0
ARC
  5
3FB
100
AcDbEntity
  8
0
  6
CONTINUOUS
 62
     7
100
AcDbCircle
 10
59.517708
 20
36.500922
 30
0.0
 40
0.5
100
AcDbArc
 50
90.0
 51
180.0
  0
ARC
  5
3FC
100
AcDbEntity
  8
0
  6
CONTINUOUS
 62
     7
100
AcDbCircle
 10
59.517708
 20
28.900922
 30
0.0
 40
0.5
100
AcDbArc
 50
180.0
 51
270.0
  0
ARC
  5
3FD
100
AcDbEntity
  8
0
  6
CONTINUOUS
 62
     7
100
AcDbCircle
 10
64.917708
 20
28.900922
 30
0.0
 40
0.5
100
AcDbArc
 50
270.0
 51
0.0
  0
LINE
  5
3FE
100
AcDbEntity
  8
GR2_01
  6
CONTINUOUS
100
AcDbLine
 10
65.417708
 20
31.100922
 30
0.0
 11
59.017708
 21
31.100922
 31
0.0
  0
LINE
  5
3FF
100
AcDbEntity
  8
GR2_01
  6
CONTINUOUS
100
AcDbLine
 10
65.417708
 20
31.400922
 30
0.0
 11
59.017708
 21
31.400922
 31
0.0
  0
LINE
  5
400
100
AcDbEntity
  8
GR2_01
  6
CONTINUOUS
100
AcDbLine
 10
59.317708
 20
32.500922
 30
0.0
 11
65.117708
 21
32.500922
 31
0.0
  0
LINE
  5
401
100
AcDbEntity
  8
GR2_01
  6
CONTINUOUS
100
AcDbLine
 10
59.117708
 20
32.300922
 30
0.0
 11
59.117708
 21
31.400922
 31
0.0
  0
LINE
  5
402
100
AcDbEntity
  8
GR2_01
  6
CONTINUOUS
100
AcDbLine
 10
59.816684
 20
31.700922
 30
0.0
 11
61.617708
 21
31.700922
 31
0.0
  0
LINE
  5
403
100
AcDbEntity
  8
GR2_01
  6
CONTINUOUS
100
AcDbLine
 10
59.816684
 20
31.700922
 30
0.0
 11
59.643479
 21
31.400922
 31
0.0
  0
ARC
  5
404
100
AcDbEntity
  8
GR2_01
  6
CONTINUOUS
100
AcDbCircle
 10
59.317708
 20
32.300922
 30
0.0
 40
0.2
100
AcDbArc
 50
90.0
 51
180.0
  0
LINE
  5
405
100
AcDbEntity
  8
GR2_01
  6
CONTINUOUS
100
AcDbLine
 10
62.817708
 20
31.400922
 30
0.0
 11
62.817708
 21
31.700922
 31
0.0
  0
LINE
  5
406
100
AcDbEntity
  8
GR2_01
  6
CONTINUOUS
100
AcDbLine
 10
61.617708
 20
31.400922
 30
0.0
 11
61.617708
 21
31.700922
 31
0.0
  0
LINE
  5
407
100
AcDbEntity
  8
GR2_01
  6
CONTINUOUS
100
AcDbLine
 10
62.817708
 20
31.700922
 30
0.0
 11
64.644718
 21
31.700922
 31
0.0
  0
LINE
  5
408
100
AcDbEntity
  8
GR2_01
  6
CONTINUOUS
100
AcDbLine
 10
65.317708
 20
32.300922
 30
0.0
 11
65.317708
 21
31.400922
 31
0.0
  0
LINE
  5
409
100
AcDbEntity
  8
GR2_01
  6
CONTINUOUS
100
AcDbLine
 10
64.618731
 20
31.700922
 30
0.0
 11
64.791937
 21
31.400922
 31
0.0
  0
ARC
  5
40A
100
AcDbEntity
  8
GR2_01
  6
CONTINUOUS
100
AcDbCircle
 10
65.117708
 20
32.300922
 30
0.0
 40
0.2
100
AcDbArc
 50
0.0
 51
90.0
  0
LINE
  5
40B
100
AcDbEntity
  8
GR2_01
  6
CONTINUOUS
100
AcDbLine
 10
60.967708
 20
34.500922
 30
0.0
 11
63.467708
 21
34.500922
 31
0.0
  0
LINE
  5
40C
100
AcDbEntity
  8
GR2_01
  6
CONTINUOUS
100
AcDbLine
 10
64.967708
 20
33.000922
 30
0.0
 11
64.967708
 21
32.500922
 31
0.0
  0
LINE
  5
40D
100
AcDbEntity
  8
GR2_01
  6
CONTINUOUS
100
AcDbLine
 10
59.467708
 20
33.000922
 30
0.0
 11
59.467708
 21
32.500922
 31
0.0
  0
ARC
  5
40E
100
AcDbEntity
  8
GR2_01
  6
CONTINUOUS
100
AcDbCircle
 10
63.467708
 20
33.000922
 30
0.0
 40
1.5
100
AcDbArc
 50
0.0
 51
90.0
  0
ARC
  5
40F
100
AcDbEntity
  8
GR2_01
  6
CONTINUOUS
100
AcDbCircle
 10
60.967708
 20
33.000922
 30
0.0
 40
1.5
100
AcDbArc
 50
90.0
 51
180.0
  0
LINE
  5
410
100
AcDbEntity
  8
GR2_01
  6
CONTINUOUS
100
AcDbLine
 10
62.217708
 20
34.500922
 30
0.0
 11
60.081637
 21
33.928563
 31
0.0
  0
LINE
  5
411
100
AcDbEntity
  8
GR2_01
  6
CONTINUOUS
100
AcDbLine
 10
62.217708
 20
34.500922
 30
0.0
 11
64.409204
 21
33.913712
 31
0.0
  0
LINE
  5
412
100
AcDbEntity
  8
0
  6
CONTINUOUS
 62
     7
100
AcDbLine
 10
130.187708
 20
18.900922
 30
0.0
 11
123.787708
 21
18.900922
 31
0.0
  0
LINE
  5
413
100
AcDbEntity
  8
0
  6
CONTINUOUS
 62
     7
100
AcDbLine
 10
130.187708
 20
17.400922
 30
0.0
 11
123.787708
 21
17.400922
 31
0.0
  0
LINE
  5
414
100
AcDbEntity
  8
0
  6
CONTINUOUS
 62
     7
100
AcDbLine
 10
130.187708
 20
16.400922
 30
0.0
 11
123.787708
 21
16.400922
 31
0.0
  0
LINE
  5
415
100
AcDbEntity
  8
0
  6
CONTINUOUS
 62
     7
100
AcDbLine
 10
130.187708
 20
25.400922
 30
0.0
 11
130.187708
 21
16.400922
 31
0.0
  0
LINE
  5
416
100
AcDbEntity
  8
0
  6
CONTINUOUS
 62
     7
100
AcDbLine
 10
123.787708
 20
25.400922
 30
0.0
 11
123.787708
 21
16.400922
 31
0.0
  0
LINE
  5
417
100
AcDbEntity
  8
GR2_01
  6
CONTINUOUS
100
AcDbLine
 10
130.187708
 20
19.200922
 30
0.0
 11
123.787708
 21
19.200922
 31
0.0
  0
LINE
  5
418
100
AcDbEntity
  8
GR2_01
  6
CONTINUOUS
100
AcDbLine
 10
124.087708
 20
20.300922
 30
0.0
 11
129.887708
 21
20.300922
 31
0.0
  0
LINE
  5
419
100
AcDbEntity
  8
GR2_01
  6
CONTINUOUS
100
AcDbLine
 10
123.887708
 20
20.100922
 30
0.0
 11
123.887708
 21
19.200922
 31
0.0
  0
LINE
  5
41A
100
AcDbEntity
  8
GR2_01
  6
CONTINUOUS
100
AcDbLine
 10
124.586684
 20
19.500922
 30
0.0
 11
126.387708
 21
19.500922
 31
0.0
  0
LINE
  5
41B
100
AcDbEntity
  8
GR2_01
  6
CONTINUOUS
100
AcDbLine
 10
124.586684
 20
19.500922
 30
0.0
 11
124.413479
 21
19.200922
 31
0.0
  0
ARC
  5
41C
100
AcDbEntity
  8
GR2_01
  6
CONTINUOUS
100
AcDbCircle
 10
124.087708
 20
20.100922
 30
0.0
 40
0.2
100
AcDbArc
 50
90.0
 51
180.0
  0
LINE
  5
41D
100
AcDbEntity
  8
GR2_01
  6
CONTINUOUS
100
AcDbLine
 10
127.587708
 20
19.200922
 30
0.0
 11
127.587708
 21
19.500922
 31
0.0
  0
LINE
  5
41E
100
AcDbEntity
  8
GR2_01
  6
CONTINUOUS
100
AcDbLine
 10
126.387708
 20
19.200922
 30
0.0
 11
126.387708
 21
19.500922
 31
0.0
  0
LINE
  5
41F
100
AcDbEntity
  8
GR2_01
  6
CONTINUOUS
100
AcDbLine
 10
127.587708
 20
19.500922
 30
0.0
 11
129.414718
 21
19.500922
 31
0.0
  0
LINE
  5
420
100
AcDbEntity
  8
GR2_01
  6
CONTINUOUS
100
AcDbLine
 10
130.087708
 20
20.100922
 30
0.0
 11
130.087708
 21
19.200922
 31
0.0
  0
LINE
  5
421
100
AcDbEntity
  8
GR2_01
  6
CONTINUOUS
100
AcDbLine
 10
129.388731
 20
19.500922
 30
0.0
 11
129.561937
 21
19.200922
 31
0.0
  0
ARC
  5
422
100
AcDbEntity
  8
GR2_01
  6
CONTINUOUS
100
AcDbCircle
 10
129.887708
 20
20.100922
 30
0.0
 40
0.2
100
AcDbArc
 50
0.0
 51
90.0
  0
LINE
  5
423
100
AcDbEntity
  8
GR2_01
  6
CONTINUOUS
100
AcDbLine
 10
125.737708
 20
22.300922
 30
0.0
 11
128.237708
 21
22.300922
 31
0.0
  0
LINE
  5
424
100
AcDbEntity
  8
GR2_01
  6
CONTINUOUS
100
AcDbLine
 10
129.737708
 20
20.800922
 30
0.0
 11
129.737708
 21
20.300922
 31
0.0
  0
LINE
  5
425
100
AcDbEntity
  8
GR2_01
  6
CONTINUOUS
100
AcDbLine
 10
124.237708
 20
20.800922
 30
0.0
 11
124.237708
 21
20.300922
 31
0.0
  0
ARC
  5
426
100
AcDbEntity
  8
GR2_01
  6
CONTINUOUS
100
AcDbCircle
 10
128.237708
 20
20.800922
 30
0.0
 40
1.5
100
AcDbArc
 50
0.0
 51
90.0
  0
ARC
  5
427
100
AcDbEntity
  8
GR2_01
  6
CONTINUOUS
100
AcDbCircle
 10
125.737708
 20
20.800922
 30
0.0
 40
1.5
100
AcDbArc
 50
90.0
 51
180.0
  0
LINE
  5
428
100
AcDbEntity
  8
GR2_01
  6
CONTINUOUS
100
AcDbLine
 10
126.987708
 20
22.300922
 30
0.0
 11
124.851637
 21
21.728563
 31
0.0
  0
LINE
  5
429
100
AcDbEntity
  8
GR2_01
  6
CONTINUOUS
100
AcDbLine
 10
126.987708
 20
22.300922
 30
0.0
 11
129.179204
 21
21.713712
 31
0.0
  0
LINE
  5
42A
100
AcDbEntity
  8
0
  6
CONTINUOUS
 62
     7
100
AcDbLine
 10
122.567708
 20
18.900922
 30
0.0
 11
116.167708
 21
18.900922
 31
0.0
  0
LINE
  5
42B
100
AcDbEntity
  8
0
  6
CONTINUOUS
 62
     7
100
AcDbLine
 10
122.567708
 20
17.400922
 30
0.0
 11
116.167708
 21
17.400922
 31
0.0
  0
LINE
  5
42C
100
AcDbEntity
  8
0
  6
CONTINUOUS
 62
     7
100
AcDbLine
 10
122.567708
 20
16.400922
 30
0.0
 11
116.167708
 21
16.400922
 31
0.0
  0
LINE
  5
42D
100
AcDbEntity
  8
0
  6
CONTINUOUS
 62
     7
100
AcDbLine
 10
122.567708
 20
25.400922
 30
0.0
 11
122.567708
 21
16.400922
 31
0.0
  0
LINE
  5
42E
100
AcDbEntity
  8
0
  6
CONTINUOUS
 62
     7
100
AcDbLine
 10
116.167708
 20
25.400922
 30
0.0
 11
116.167708
 21
16.400922
 31
0.0
  0
LINE
  5
42F
100
AcDbEntity
  8
GR2_01
  6
CONTINUOUS
100
AcDbLine
 10
122.567708
 20
19.200922
 30
0.0
 11
116.167708
 21
19.200922
 31
0.0
  0
LINE
  5
430
100
AcDbEntity
  8
GR2_01
  6
CONTINUOUS
100
AcDbLine
 10
116.467708
 20
20.300922
 30
0.0
 11
122.267708
 21
20.300922
 31
0.0
  0
LINE
  5
431
100
AcDbEntity
  8
GR2_01
  6
CONTINUOUS
100
AcDbLine
 10
116.267708
 20
20.100922
 30
0.0
 11
116.267708
 21
19.200922
 31
0.0
  0
LINE
  5
432
100
AcDbEntity
  8
GR2_01
  6
CONTINUOUS
100
AcDbLine
 10
116.966684
 20
19.500922
 30
0.0
 11
118.767708
 21
19.500922
 31
0.0
  0
LINE
  5
433
100
AcDbEntity
  8
GR2_01
  6
CONTINUOUS
100
AcDbLine
 10
116.966684
 20
19.500922
 30
0.0
 11
116.793479
 21
19.200922
 31
0.0
  0
ARC
  5
434
100
AcDbEntity
  8
GR2_01
  6
CONTINUOUS
100
AcDbCircle
 10
116.467708
 20
20.100922
 30
0.0
 40
0.2
100
AcDbArc
 50
90.0
 51
180.0
  0
LINE
  5
435
100
AcDbEntity
  8
GR2_01
  6
CONTINUOUS
100
AcDbLine
 10
119.967708
 20
19.200922
 30
0.0
 11
119.967708
 21
19.500922
 31
0.0
  0
LINE
  5
436
100
AcDbEntity
  8
GR2_01
  6
CONTINUOUS
100
AcDbLine
 10
118.767708
 20
19.200922
 30
0.0
 11
118.767708
 21
19.500922
 31
0.0
  0
LINE
  5
437
100
AcDbEntity
  8
GR2_01
  6
CONTINUOUS
100
AcDbLine
 10
119.967708
 20
19.500922
 30
0.0
 11
121.794718
 21
19.500922
 31
0.0
  0
LINE
  5
438
100
AcDbEntity
  8
GR2_01
  6
CONTINUOUS
100
AcDbLine
 10
122.467708
 20
20.100922
 30
0.0
 11
122.467708
 21
19.200922
 31
0.0
  0
LINE
  5
439
100
AcDbEntity
  8
GR2_01
  6
CONTINUOUS
100
AcDbLine
 10
121.768731
 20
19.500922
 30
0.0
 11
121.941937
 21
19.200922
 31
0.0
  0
ARC
  5
43A
100
AcDbEntity
  8
GR2_01
  6
CONTINUOUS
100
AcDbCircle
 10
122.267708
 20
20.100922
 30
0.0
 40
0.2
100
AcDbArc
 50
0.0
 51
90.0
  0
LINE
  5
43B
100
AcDbEntity
  8
GR2_01
  6
CONTINUOUS
100
AcDbLine
 10
118.117708
 20
22.300922
 30
0.0
 11
120.617708
 21
22.300922
 31
0.0
  0
LINE
  5
43C
100
AcDbEntity
  8
GR2_01
  6
CONTINUOUS
100
AcDbLine
 10
122.117708
 20
20.800922
 30
0.0
 11
122.117708
 21
20.300922
 31
0.0
  0
LINE
  5
43D
100
AcDbEntity
  8
GR2_01
  6
CONTINUOUS
100
AcDbLine
 10
116.617708
 20
20.800922
 30
0.0
 11
116.617708
 21
20.300922
 31
0.0
  0
ARC
  5
43E
100
AcDbEntity
  8
GR2_01
  6
CONTINUOUS
100
AcDbCircle
 10
120.617708
 20
20.800922
 30
0.0
 40
1.5
100
AcDbArc
 50
0.0
 51
90.0
  0
ARC
  5
43F
100
AcDbEntity
  8
GR2_01
  6
CONTINUOUS
100
AcDbCircle
 10
118.117708
 20
20.800922
 30
0.0
 40
1.5
100
AcDbArc
 50
90.0
 51
180.0
  0
LINE
  5
440
100
AcDbEntity
  8
GR2_01
  6
CONTINUOUS
100
AcDbLine
 10
119.367708
 20
22.300922
 30
0.0
 11
117.231637
 21
21.728563
 31
0.0
  0
LINE
  5
441
100
AcDbEntity
  8
GR2_01
  6
CONTINUOUS
100
AcDbLine
 10
119.367708
 20
22.300922
 30
0.0
 11
121.559204
 21
21.713712
 31
0.0
  0
LINE
  5
442
100
AcDbEntity
  8
0
  6
CONTINUOUS
 62
     7
100
AcDbLine
 10
114.947708
 20
18.900922
 30
0.0
 11
108.547708
 21
18.900922
 31
0.0
  0
LINE
  5
443
100
AcDbEntity
  8
0
  6
CONTINUOUS
 62
     7
100
AcDbLine
 10
114.947708
 20
17.400922
 30
0.0
 11
108.547708
 21
17.400922
 31
0.0
  0
LINE
  5
444
100
AcDbEntity
  8
0
  6
CONTINUOUS
 62
     7
100
AcDbLine
 10
114.947708
 20
16.400922
 30
0.0
 11
108.547708
 21
16.400922
 31
0.0
  0
LINE
  5
445
100
AcDbEntity
  8
0
  6
CONTINUOUS
 62
     7
100
AcDbLine
 10
114.947708
 20
25.400922
 30
0.0
 11
114.947708
 21
16.400922
 31
0.0
  0
LINE
  5
446
100
AcDbEntity
  8
0
  6
CONTINUOUS
 62
     7
100
AcDbLine
 10
108.547708
 20
25.400922
 30
0.0
 11
108.547708
 21
16.400922
 31
0.0
  0
LINE
  5
447
100
AcDbEntity
  8
GR2_01
  6
CONTINUOUS
100
AcDbLine
 10
114.947708
 20
19.200922
 30
0.0
 11
108.547708
 21
19.200922
 31
0.0
  0
LINE
  5
448
100
AcDbEntity
  8
GR2_01
  6
CONTINUOUS
100
AcDbLine
 10
108.847708
 20
20.300922
 30
0.0
 11
114.647708
 21
20.300922
 31
0.0
  0
LINE
  5
449
100
AcDbEntity
  8
GR2_01
  6
CONTINUOUS
100
AcDbLine
 10
108.647708
 20
20.100922
 30
0.0
 11
108.647708
 21
19.200922
 31
0.0
  0
LINE
  5
44A
100
AcDbEntity
  8
GR2_01
  6
CONTINUOUS
100
AcDbLine
 10
109.346684
 20
19.500922
 30
0.0
 11
111.147708
 21
19.500922
 31
0.0
  0
LINE
  5
44B
100
AcDbEntity
  8
GR2_01
  6
CONTINUOUS
100
AcDbLine
 10
109.346684
 20
19.500922
 30
0.0
 11
109.173479
 21
19.200922
 31
0.0
  0
ARC
  5
44C
100
AcDbEntity
  8
GR2_01
  6
CONTINUOUS
100
AcDbCircle
 10
108.847708
 20
20.100922
 30
0.0
 40
0.2
100
AcDbArc
 50
90.0
 51
180.0
  0
LINE
  5
44D
100
AcDbEntity
  8
GR2_01
  6
CONTINUOUS
100
AcDbLine
 10
112.347708
 20
19.200922
 30
0.0
 11
112.347708
 21
19.500922
 31
0.0
  0
LINE
  5
44E
100
AcDbEntity
  8
GR2_01
  6
CONTINUOUS
100
AcDbLine
 10
111.147708
 20
19.200922
 30
0.0
 11
111.147708
 21
19.500922
 31
0.0
  0
LINE
  5
44F
100
AcDbEntity
  8
GR2_01
  6
CONTINUOUS
100
AcDbLine
 10
112.347708
 20
19.500922
 30
0.0
 11
114.174718
 21
19.500922
 31
0.0
  0
LINE
  5
450
100
AcDbEntity
  8
GR2_01
  6
CONTINUOUS
100
AcDbLine
 10
114.847708
 20
20.100922
 30
0.0
 11
114.847708
 21
19.200922
 31
0.0
  0
LINE
  5
451
100
AcDbEntity
  8
GR2_01
  6
CONTINUOUS
100
AcDbLine
 10
114.148731
 20
19.500922
 30
0.0
 11
114.321937
 21
19.200922
 31
0.0
  0
ARC
  5
452
100
AcDbEntity
  8
GR2_01
  6
CONTINUOUS
100
AcDbCircle
 10
114.647708
 20
20.100922
 30
0.0
 40
0.2
100
AcDbArc
 50
0.0
 51
90.0
  0
LINE
  5
453
100
AcDbEntity
  8
GR2_01
  6
CONTINUOUS
100
AcDbLine
 10
110.497708
 20
22.300922
 30
0.0
 11
112.997708
 21
22.300922
 31
0.0
  0
LINE
  5
454
100
AcDbEntity
  8
GR2_01
  6
CONTINUOUS
100
AcDbLine
 10
114.497708
 20
20.800922
 30
0.0
 11
114.497708
 21
20.300922
 31
0.0
  0
LINE
  5
455
100
AcDbEntity
  8
GR2_01
  6
CONTINUOUS
100
AcDbLine
 10
108.997708
 20
20.800922
 30
0.0
 11
108.997708
 21
20.300922
 31
0.0
  0
ARC
  5
456
100
AcDbEntity
  8
GR2_01
  6
CONTINUOUS
100
AcDbCircle
 10
112.997708
 20
20.800922
 30
0.0
 40
1.5
100
AcDbArc
 50
0.0
 51
90.0
  0
ARC
  5
457
100
AcDbEntity
  8
GR2_01
  6
CONTINUOUS
100
AcDbCircle
 10
110.497708
 20
20.800922
 30
0.0
 40
1.5
100
AcDbArc
 50
90.0
 51
180.0
  0
LINE
  5
458
100
AcDbEntity
  8
GR2_01
  6
CONTINUOUS
100
AcDbLine
 10
111.747708
 20
22.300922
 30
0.0
 11
109.611637
 21
21.728563
 31
0.0
  0
LINE
  5
459
100
AcDbEntity
  8
GR2_01
  6
CONTINUOUS
100
AcDbLine
 10
111.747708
 20
22.300922
 30
0.0
 11
113.939204
 21
21.713712
 31
0.0
  0
LINE
  5
45A
100
AcDbEntity
  8
0
  6
CONTINUOUS
 62
     7
100
AcDbLine
 10
107.327708
 20
18.900922
 30
0.0
 11
100.927708
 21
18.900922
 31
0.0
  0
LINE
  5
45B
100
AcDbEntity
  8
0
  6
CONTINUOUS
 62
     7
100
AcDbLine
 10
107.327708
 20
17.400922
 30
0.0
 11
100.927708
 21
17.400922
 31
0.0
  0
LINE
  5
45C
100
AcDbEntity
  8
0
  6
CONTINUOUS
 62
     7
100
AcDbLine
 10
107.327708
 20
16.400922
 30
0.0
 11
100.927708
 21
16.400922
 31
0.0
  0
LINE
  5
45D
100
AcDbEntity
  8
0
  6
CONTINUOUS
 62
     7
100
AcDbLine
 10
107.327708
 20
25.400922
 30
0.0
 11
107.327708
 21
16.400922
 31
0.0
  0
LINE
  5
45E
100
AcDbEntity
  8
0
  6
CONTINUOUS
 62
     7
100
AcDbLine
 10
100.927708
 20
25.400922
 30
0.0
 11
100.927708
 21
16.400922
 31
0.0
  0
LINE
  5
45F
100
AcDbEntity
  8
GR2_01
  6
CONTINUOUS
100
AcDbLine
 10
107.327708
 20
19.200922
 30
0.0
 11
100.927708
 21
19.200922
 31
0.0
  0
LINE
  5
460
100
AcDbEntity
  8
GR2_01
  6
CONTINUOUS
100
AcDbLine
 10
101.227708
 20
20.300922
 30
0.0
 11
107.027708
 21
20.300922
 31
0.0
  0
LINE
  5
461
100
AcDbEntity
  8
GR2_01
  6
CONTINUOUS
100
AcDbLine
 10
101.027708
 20
20.100922
 30
0.0
 11
101.027708
 21
19.200922
 31
0.0
  0
LINE
  5
462
100
AcDbEntity
  8
GR2_01
  6
CONTINUOUS
100
AcDbLine
 10
101.726684
 20
19.500922
 30
0.0
 11
103.527708
 21
19.500922
 31
0.0
  0
LINE
  5
463
100
AcDbEntity
  8
GR2_01
  6
CONTINUOUS
100
AcDbLine
 10
101.726684
 20
19.500922
 30
0.0
 11
101.553479
 21
19.200922
 31
0.0
  0
ARC
  5
464
100
AcDbEntity
  8
GR2_01
  6
CONTINUOUS
100
AcDbCircle
 10
101.227708
 20
20.100922
 30
0.0
 40
0.2
100
AcDbArc
 50
90.0
 51
180.0
  0
LINE
  5
465
100
AcDbEntity
  8
GR2_01
  6
CONTINUOUS
100
AcDbLine
 10
104.727708
 20
19.200922
 30
0.0
 11
104.727708
 21
19.500922
 31
0.0
  0
LINE
  5
466
100
AcDbEntity
  8
GR2_01
  6
CONTINUOUS
100
AcDbLine
 10
103.527708
 20
19.200922
 30
0.0
 11
103.527708
 21
19.500922
 31
0.0
  0
LINE
  5
467
100
AcDbEntity
  8
GR2_01
  6
CONTINUOUS
100
AcDbLine
 10
104.727708
 20
19.500922
 30
0.0
 11
106.554718
 21
19.500922
 31
0.0
  0
LINE
  5
468
100
AcDbEntity
  8
GR2_01
  6
CONTINUOUS
100
AcDbLine
 10
107.227708
 20
20.100922
 30
0.0
 11
107.227708
 21
19.200922
 31
0.0
  0
LINE
  5
469
100
AcDbEntity
  8
GR2_01
  6
CONTINUOUS
100
AcDbLine
 10
106.528731
 20
19.500922
 30
0.0
 11
106.701937
 21
19.200922
 31
0.0
  0
ARC
  5
46A
100
AcDbEntity
  8
GR2_01
  6
CONTINUOUS
100
AcDbCircle
 10
107.027708
 20
20.100922
 30
0.0
 40
0.2
100
AcDbArc
 50
0.0
 51
90.0
  0
LINE
  5
46B
100
AcDbEntity
  8
GR2_01
  6
CONTINUOUS
100
AcDbLine
 10
102.877708
 20
22.300922
 30
0.0
 11
105.377708
 21
22.300922
 31
0.0
  0
LINE
  5
46C
100
AcDbEntity
  8
GR2_01
  6
CONTINUOUS
100
AcDbLine
 10
106.877708
 20
20.800922
 30
0.0
 11
106.877708
 21
20.300922
 31
0.0
  0
LINE
  5
46D
100
AcDbEntity
  8
GR2_01
  6
CONTINUOUS
100
AcDbLine
 10
101.377708
 20
20.800922
 30
0.0
 11
101.377708
 21
20.300922
 31
0.0
  0
ARC
  5
46E
100
AcDbEntity
  8
GR2_01
  6
CONTINUOUS
100
AcDbCircle
 10
105.377708
 20
20.800922
 30
0.0
 40
1.5
100
AcDbArc
 50
0.0
 51
90.0
  0
ARC
  5
46F
100
AcDbEntity
  8
GR2_01
  6
CONTINUOUS
100
AcDbCircle
 10
102.877708
 20
20.800922
 30
0.0
 40
1.5
100
AcDbArc
 50
90.0
 51
180.0
  0
LINE
  5
470
100
AcDbEntity
  8
GR2_01
  6
CONTINUOUS
100
AcDbLine
 10
104.127708
 20
22.300922
 30
0.0
 11
101.991637
 21
21.728563
 31
0.0
  0
LINE
  5
471
100
AcDbEntity
  8
GR2_01
  6
CONTINUOUS
100
AcDbLine
 10
104.127708
 20
22.300922
 30
0.0
 11
106.319204
 21
21.713712
 31
0.0
  0
LINE
  5
472
100
AcDbEntity
  8
0
  6
CONTINUOUS
 62
     7
100
AcDbLine
 10
99.707708
 20
18.900922
 30
0.0
 11
93.307708
 21
18.900922
 31
0.0
  0
LINE
  5
473
100
AcDbEntity
  8
0
  6
CONTINUOUS
 62
     7
100
AcDbLine
 10
99.707708
 20
17.400922
 30
0.0
 11
93.307708
 21
17.400922
 31
0.0
  0
LINE
  5
474
100
AcDbEntity
  8
0
  6
CONTINUOUS
 62
     7
100
AcDbLine
 10
99.707708
 20
16.400922
 30
0.0
 11
93.307708
 21
16.400922
 31
0.0
  0
LINE
  5
475
100
AcDbEntity
  8
0
  6
CONTINUOUS
 62
     7
100
AcDbLine
 10
99.707708
 20
25.400922
 30
0.0
 11
99.707708
 21
16.400922
 31
0.0
  0
LINE
  5
476
100
AcDbEntity
  8
0
  6
CONTINUOUS
 62
     7
100
AcDbLine
 10
93.307708
 20
25.400922
 30
0.0
 11
93.307708
 21
16.400922
 31
0.0
  0
LINE
  5
477
100
AcDbEntity
  8
GR2_01
  6
CONTINUOUS
100
AcDbLine
 10
99.707708
 20
19.200922
 30
0.0
 11
93.307708
 21
19.200922
 31
0.0
  0
LINE
  5
478
100
AcDbEntity
  8
GR2_01
  6
CONTINUOUS
100
AcDbLine
 10
93.607708
 20
20.300922
 30
0.0
 11
99.407708
 21
20.300922
 31
0.0
  0
LINE
  5
479
100
AcDbEntity
  8
GR2_01
  6
CONTINUOUS
100
AcDbLine
 10
93.407708
 20
20.100922
 30
0.0
 11
93.407708
 21
19.200922
 31
0.0
  0
LINE
  5
47A
100
AcDbEntity
  8
GR2_01
  6
CONTINUOUS
100
AcDbLine
 10
94.106684
 20
19.500922
 30
0.0
 11
95.907708
 21
19.500922
 31
0.0
  0
LINE
  5
47B
100
AcDbEntity
  8
GR2_01
  6
CONTINUOUS
100
AcDbLine
 10
94.106684
 20
19.500922
 30
0.0
 11
93.933479
 21
19.200922
 31
0.0
  0
ARC
  5
47C
100
AcDbEntity
  8
GR2_01
  6
CONTINUOUS
100
AcDbCircle
 10
93.607708
 20
20.100922
 30
0.0
 40
0.2
100
AcDbArc
 50
90.0
 51
180.0
  0
LINE
  5
47D
100
AcDbEntity
  8
GR2_01
  6
CONTINUOUS
100
AcDbLine
 10
97.107708
 20
19.200922
 30
0.0
 11
97.107708
 21
19.500922
 31
0.0
  0
LINE
  5
47E
100
AcDbEntity
  8
GR2_01
  6
CONTINUOUS
100
AcDbLine
 10
95.907708
 20
19.200922
 30
0.0
 11
95.907708
 21
19.500922
 31
0.0
  0
LINE
  5
47F
100
AcDbEntity
  8
GR2_01
  6
CONTINUOUS
100
AcDbLine
 10
97.107708
 20
19.500922
 30
0.0
 11
98.934718
 21
19.500922
 31
0.0
  0
LINE
  5
480
100
AcDbEntity
  8
GR2_01
  6
CONTINUOUS
100
AcDbLine
 10
99.607708
 20
20.100922
 30
0.0
 11
99.607708
 21
19.200922
 31
0.0
  0
LINE
  5
481
100
AcDbEntity
  8
GR2_01
  6
CONTINUOUS
100
AcDbLine
 10
98.908731
 20
19.500922
 30
0.0
 11
99.081937
 21
19.200922
 31
0.0
  0
ARC
  5
482
100
AcDbEntity
  8
GR2_01
  6
CONTINUOUS
100
AcDbCircle
 10
99.407708
 20
20.100922
 30
0.0
 40
0.2
100
AcDbArc
 50
0.0
 51
90.0
  0
LINE
  5
483
100
AcDbEntity
  8
GR2_01
  6
CONTINUOUS
100
AcDbLine
 10
95.257708
 20
22.300922
 30
0.0
 11
97.757708
 21
22.300922
 31
0.0
  0
LINE
  5
484
100
AcDbEntity
  8
GR2_01
  6
CONTINUOUS
100
AcDbLine
 10
99.257708
 20
20.800922
 30
0.0
 11
99.257708
 21
20.300922
 31
0.0
  0
LINE
  5
485
100
AcDbEntity
  8
GR2_01
  6
CONTINUOUS
100
AcDbLine
 10
93.757708
 20
20.800922
 30
0.0
 11
93.757708
 21
20.300922
 31
0.0
  0
ARC
  5
486
100
AcDbEntity
  8
GR2_01
  6
CONTINUOUS
100
AcDbCircle
 10
97.757708
 20
20.800922
 30
0.0
 40
1.5
100
AcDbArc
 50
0.0
 51
90.0
  0
ARC
  5
487
100
AcDbEntity
  8
GR2_01
  6
CONTINUOUS
100
AcDbCircle
 10
95.257708
 20
20.800922
 30
0.0
 40
1.5
100
AcDbArc
 50
90.0
 51
180.0
  0
LINE
  5
488
100
AcDbEntity
  8
GR2_01
  6
CONTINUOUS
100
AcDbLine
 10
96.507708
 20
22.300922
 30
0.0
 11
94.371637
 21
21.728563
 31
0.0
  0
LINE
  5
489
100
AcDbEntity
  8
GR2_01
  6
CONTINUOUS
100
AcDbLine
 10
96.507708
 20
22.300922
 30
0.0
 11
98.699204
 21
21.713712
 31
0.0
  0
LINE
  5
48A
100
AcDbEntity
  8
0
  6
CONTINUOUS
 62
     7
100
AcDbLine
 10
92.087708
 20
18.900922
 30
0.0
 11
85.687708
 21
18.900922
 31
0.0
  0
LINE
  5
48B
100
AcDbEntity
  8
0
  6
CONTINUOUS
 62
     7
100
AcDbLine
 10
92.087708
 20
17.400922
 30
0.0
 11
85.687708
 21
17.400922
 31
0.0
  0
LINE
  5
48C
100
AcDbEntity
  8
0
  6
CONTINUOUS
 62
     7
100
AcDbLine
 10
92.087708
 20
16.400922
 30
0.0
 11
85.687708
 21
16.400922
 31
0.0
  0
LINE
  5
48D
100
AcDbEntity
  8
0
  6
CONTINUOUS
 62
     7
100
AcDbLine
 10
92.087708
 20
25.400922
 30
0.0
 11
92.087708
 21
16.400922
 31
0.0
  0
LINE
  5
48E
100
AcDbEntity
  8
0
  6
CONTINUOUS
 62
     7
100
AcDbLine
 10
85.687708
 20
25.400922
 30
0.0
 11
85.687708
 21
16.400922
 31
0.0
  0
LINE
  5
48F
100
AcDbEntity
  8
GR2_01
  6
CONTINUOUS
100
AcDbLine
 10
92.087708
 20
19.200922
 30
0.0
 11
85.687708
 21
19.200922
 31
0.0
  0
LINE
  5
490
100
AcDbEntity
  8
GR2_01
  6
CONTINUOUS
100
AcDbLine
 10
85.987708
 20
20.300922
 30
0.0
 11
91.787708
 21
20.300922
 31
0.0
  0
LINE
  5
491
100
AcDbEntity
  8
GR2_01
  6
CONTINUOUS
100
AcDbLine
 10
85.787708
 20
20.100922
 30
0.0
 11
85.787708
 21
19.200922
 31
0.0
  0
LINE
  5
492
100
AcDbEntity
  8
GR2_01
  6
CONTINUOUS
100
AcDbLine
 10
86.486684
 20
19.500922
 30
0.0
 11
88.287708
 21
19.500922
 31
0.0
  0
LINE
  5
493
100
AcDbEntity
  8
GR2_01
  6
CONTINUOUS
100
AcDbLine
 10
86.486684
 20
19.500922
 30
0.0
 11
86.313479
 21
19.200922
 31
0.0
  0
ARC
  5
494
100
AcDbEntity
  8
GR2_01
  6
CONTINUOUS
100
AcDbCircle
 10
85.987708
 20
20.100922
 30
0.0
 40
0.2
100
AcDbArc
 50
90.0
 51
180.0
  0
LINE
  5
495
100
AcDbEntity
  8
GR2_01
  6
CONTINUOUS
100
AcDbLine
 10
89.487708
 20
19.200922
 30
0.0
 11
89.487708
 21
19.500922
 31
0.0
  0
LINE
  5
496
100
AcDbEntity
  8
GR2_01
  6
CONTINUOUS
100
AcDbLine
 10
88.287708
 20
19.200922
 30
0.0
 11
88.287708
 21
19.500922
 31
0.0
  0
LINE
  5
497
100
AcDbEntity
  8
GR2_01
  6
CONTINUOUS
100
AcDbLine
 10
89.487708
 20
19.500922
 30
0.0
 11
91.314718
 21
19.500922
 31
0.0
  0
LINE
  5
498
100
AcDbEntity
  8
GR2_01
  6
CONTINUOUS
100
AcDbLine
 10
91.987708
 20
20.100922
 30
0.0
 11
91.987708
 21
19.200922
 31
0.0
  0
LINE
  5
499
100
AcDbEntity
  8
GR2_01
  6
CONTINUOUS
100
AcDbLine
 10
91.288731
 20
19.500922
 30
0.0
 11
91.461937
 21
19.200922
 31
0.0
  0
ARC
  5
49A
100
AcDbEntity
  8
GR2_01
  6
CONTINUOUS
100
AcDbCircle
 10
91.787708
 20
20.100922
 30
0.0
 40
0.2
100
AcDbArc
 50
0.0
 51
90.0
  0
LINE
  5
49B
100
AcDbEntity
  8
GR2_01
  6
CONTINUOUS
100
AcDbLine
 10
87.637708
 20
22.300922
 30
0.0
 11
90.137708
 21
22.300922
 31
0.0
  0
LINE
  5
49C
100
AcDbEntity
  8
GR2_01
  6
CONTINUOUS
100
AcDbLine
 10
91.637708
 20
20.800922
 30
0.0
 11
91.637708
 21
20.300922
 31
0.0
  0
LINE
  5
49D
100
AcDbEntity
  8
GR2_01
  6
CONTINUOUS
100
AcDbLine
 10
86.137708
 20
20.800922
 30
0.0
 11
86.137708
 21
20.300922
 31
0.0
  0
ARC
  5
49E
100
AcDbEntity
  8
GR2_01
  6
CONTINUOUS
100
AcDbCircle
 10
90.137708
 20
20.800922
 30
0.0
 40
1.5
100
AcDbArc
 50
0.0
 51
90.0
  0
ARC
  5
49F
100
AcDbEntity
  8
GR2_01
  6
CONTINUOUS
100
AcDbCircle
 10
87.637708
 20
20.800922
 30
0.0
 40
1.5
100
AcDbArc
 50
90.0
 51
180.0
  0
LINE
  5
4A0
100
AcDbEntity
  8
GR2_01
  6
CONTINUOUS
100
AcDbLine
 10
88.887708
 20
22.300922
 30
0.0
 11
86.751637
 21
21.728563
 31
0.0
  0
LINE
  5
4A1
100
AcDbEntity
  8
GR2_01
  6
CONTINUOUS
100
AcDbLine
 10
88.887708
 20
22.300922
 30
0.0
 11
91.079204
 21
21.713712
 31
0.0
  0
LINE
  5
4A2
100
AcDbEntity
  8
0
  6
CONTINUOUS
 62
     7
100
AcDbLine
 10
84.467708
 20
18.900922
 30
0.0
 11
78.067708
 21
18.900922
 31
0.0
  0
LINE
  5
4A3
100
AcDbEntity
  8
0
  6
CONTINUOUS
 62
     7
100
AcDbLine
 10
84.467708
 20
17.400922
 30
0.0
 11
78.067708
 21
17.400922
 31
0.0
  0
LINE
  5
4A4
100
AcDbEntity
  8
0
  6
CONTINUOUS
 62
     7
100
AcDbLine
 10
84.467708
 20
16.400922
 30
0.0
 11
78.067708
 21
16.400922
 31
0.0
  0
LINE
  5
4A5
100
AcDbEntity
  8
0
  6
CONTINUOUS
 62
     7
100
AcDbLine
 10
84.467708
 20
25.400922
 30
0.0
 11
84.467708
 21
16.400922
 31
0.0
  0
LINE
  5
4A6
100
AcDbEntity
  8
0
  6
CONTINUOUS
 62
     7
100
AcDbLine
 10
78.067708
 20
25.400922
 30
0.0
 11
78.067708
 21
16.400922
 31
0.0
  0
LINE
  5
4A7
100
AcDbEntity
  8
GR2_01
  6
CONTINUOUS
100
AcDbLine
 10
84.467708
 20
19.200922
 30
0.0
 11
78.067708
 21
19.200922
 31
0.0
  0
LINE
  5
4A8
100
AcDbEntity
  8
GR2_01
  6
CONTINUOUS
100
AcDbLine
 10
78.367708
 20
20.300922
 30
0.0
 11
84.167708
 21
20.300922
 31
0.0
  0
LINE
  5
4A9
100
AcDbEntity
  8
GR2_01
  6
CONTINUOUS
100
AcDbLine
 10
78.167708
 20
20.100922
 30
0.0
 11
78.167708
 21
19.200922
 31
0.0
  0
LINE
  5
4AA
100
AcDbEntity
  8
GR2_01
  6
CONTINUOUS
100
AcDbLine
 10
78.866684
 20
19.500922
 30
0.0
 11
80.667708
 21
19.500922
 31
0.0
  0
LINE
  5
4AB
100
AcDbEntity
  8
GR2_01
  6
CONTINUOUS
100
AcDbLine
 10
78.866684
 20
19.500922
 30
0.0
 11
78.693479
 21
19.200922
 31
0.0
  0
ARC
  5
4AC
100
AcDbEntity
  8
GR2_01
  6
CONTINUOUS
100
AcDbCircle
 10
78.367708
 20
20.100922
 30
0.0
 40
0.2
100
AcDbArc
 50
90.0
 51
180.0
  0
LINE
  5
4AD
100
AcDbEntity
  8
GR2_01
  6
CONTINUOUS
100
AcDbLine
 10
81.867708
 20
19.200922
 30
0.0
 11
81.867708
 21
19.500922
 31
0.0
  0
LINE
  5
4AE
100
AcDbEntity
  8
GR2_01
  6
CONTINUOUS
100
AcDbLine
 10
80.667708
 20
19.200922
 30
0.0
 11
80.667708
 21
19.500922
 31
0.0
  0
LINE
  5
4AF
100
AcDbEntity
  8
GR2_01
  6
CONTINUOUS
100
AcDbLine
 10
81.867708
 20
19.500922
 30
0.0
 11
83.694718
 21
19.500922
 31
0.0
  0
LINE
  5
4B0
100
AcDbEntity
  8
GR2_01
  6
CONTINUOUS
100
AcDbLine
 10
84.367708
 20
20.100922
 30
0.0
 11
84.367708
 21
19.200922
 31
0.0
  0
LINE
  5
4B1
100
AcDbEntity
  8
GR2_01
  6
CONTINUOUS
100
AcDbLine
 10
83.668731
 20
19.500922
 30
0.0
 11
83.841937
 21
19.200922
 31
0.0
  0
ARC
  5
4B2
100
AcDbEntity
  8
GR2_01
  6
CONTINUOUS
100
AcDbCircle
 10
84.167708
 20
20.100922
 30
0.0
 40
0.2
100
AcDbArc
 50
0.0
 51
90.0
  0
LINE
  5
4B3
100
AcDbEntity
  8
GR2_01
  6
CONTINUOUS
100
AcDbLine
 10
80.017708
 20
22.300922
 30
0.0
 11
82.517708
 21
22.300922
 31
0.0
  0
LINE
  5
4B4
100
AcDbEntity
  8
GR2_01
  6
CONTINUOUS
100
AcDbLine
 10
84.017708
 20
20.800922
 30
0.0
 11
84.017708
 21
20.300922
 31
0.0
  0
LINE
  5
4B5
100
AcDbEntity
  8
GR2_01
  6
CONTINUOUS
100
AcDbLine
 10
78.517708
 20
20.800922
 30
0.0
 11
78.517708
 21
20.300922
 31
0.0
  0
ARC
  5
4B6
100
AcDbEntity
  8
GR2_01
  6
CONTINUOUS
100
AcDbCircle
 10
82.517708
 20
20.800922
 30
0.0
 40
1.5
100
AcDbArc
 50
0.0
 51
90.0
  0
ARC
  5
4B7
100
AcDbEntity
  8
GR2_01
  6
CONTINUOUS
100
AcDbCircle
 10
80.017708
 20
20.800922
 30
0.0
 40
1.5
100
AcDbArc
 50
90.0
 51
180.0
  0
LINE
  5
4B8
100
AcDbEntity
  8
GR2_01
  6
CONTINUOUS
100
AcDbLine
 10
81.267708
 20
22.300922
 30
0.0
 11
79.131637
 21
21.728563
 31
0.0
  0
LINE
  5
4B9
100
AcDbEntity
  8
GR2_01
  6
CONTINUOUS
100
AcDbLine
 10
81.267708
 20
22.300922
 30
0.0
 11
83.459204
 21
21.713712
 31
0.0
  0
LINE
  5
4BA
100
AcDbEntity
  8
0
  6
CONTINUOUS
 62
     7
100
AcDbLine
 10
76.847708
 20
18.900922
 30
0.0
 11
70.447708
 21
18.900922
 31
0.0
  0
LINE
  5
4BB
100
AcDbEntity
  8
0
  6
CONTINUOUS
 62
     7
100
AcDbLine
 10
76.847708
 20
17.400922
 30
0.0
 11
70.447708
 21
17.400922
 31
0.0
  0
LINE
  5
4BC
100
AcDbEntity
  8
0
  6
CONTINUOUS
 62
     7
100
AcDbLine
 10
76.847708
 20
16.400922
 30
0.0
 11
70.447708
 21
16.400922
 31
0.0
  0
LINE
  5
4BD
100
AcDbEntity
  8
0
  6
CONTINUOUS
 62
     7
100
AcDbLine
 10
76.847708
 20
25.400922
 30
0.0
 11
76.847708
 21
16.400922
 31
0.0
  0
LINE
  5
4BE
100
AcDbEntity
  8
0
  6
CONTINUOUS
 62
     7
100
AcDbLine
 10
70.447708
 20
25.400922
 30
0.0
 11
70.447708
 21
16.400922
 31
0.0
  0
LINE
  5
4BF
100
AcDbEntity
  8
GR2_01
  6
CONTINUOUS
100
AcDbLine
 10
76.847708
 20
19.200922
 30
0.0
 11
70.447708
 21
19.200922
 31
0.0
  0
LINE
  5
4C0
100
AcDbEntity
  8
GR2_01
  6
CONTINUOUS
100
AcDbLine
 10
70.747708
 20
20.300922
 30
0.0
 11
76.547708
 21
20.300922
 31
0.0
  0
LINE
  5
4C1
100
AcDbEntity
  8
GR2_01
  6
CONTINUOUS
100
AcDbLine
 10
70.547708
 20
20.100922
 30
0.0
 11
70.547708
 21
19.200922
 31
0.0
  0
LINE
  5
4C2
100
AcDbEntity
  8
GR2_01
  6
CONTINUOUS
100
AcDbLine
 10
71.246684
 20
19.500922
 30
0.0
 11
73.047708
 21
19.500922
 31
0.0
  0
LINE
  5
4C3
100
AcDbEntity
  8
GR2_01
  6
CONTINUOUS
100
AcDbLine
 10
71.246684
 20
19.500922
 30
0.0
 11
71.073479
 21
19.200922
 31
0.0
  0
ARC
  5
4C4
100
AcDbEntity
  8
GR2_01
  6
CONTINUOUS
100
AcDbCircle
 10
70.747708
 20
20.100922
 30
0.0
 40
0.2
100
AcDbArc
 50
90.0
 51
180.0
  0
LINE
  5
4C5
100
AcDbEntity
  8
GR2_01
  6
CONTINUOUS
100
AcDbLine
 10
74.247708
 20
19.200922
 30
0.0
 11
74.247708
 21
19.500922
 31
0.0
  0
LINE
  5
4C6
100
AcDbEntity
  8
GR2_01
  6
CONTINUOUS
100
AcDbLine
 10
73.047708
 20
19.200922
 30
0.0
 11
73.047708
 21
19.500922
 31
0.0
  0
LINE
  5
4C7
100
AcDbEntity
  8
GR2_01
  6
CONTINUOUS
100
AcDbLine
 10
74.247708
 20
19.500922
 30
0.0
 11
76.074718
 21
19.500922
 31
0.0
  0
LINE
  5
4C8
100
AcDbEntity
  8
GR2_01
  6
CONTINUOUS
100
AcDbLine
 10
76.747708
 20
20.100922
 30
0.0
 11
76.747708
 21
19.200922
 31
0.0
  0
LINE
  5
4C9
100
AcDbEntity
  8
GR2_01
  6
CONTINUOUS
100
AcDbLine
 10
76.048731
 20
19.500922
 30
0.0
 11
76.221937
 21
19.200922
 31
0.0
  0
ARC
  5
4CA
100
AcDbEntity
  8
GR2_01
  6
CONTINUOUS
100
AcDbCircle
 10
76.547708
 20
20.100922
 30
0.0
 40
0.2
100
AcDbArc
 50
0.0
 51
90.0
  0
LINE
  5
4CB
100
AcDbEntity
  8
GR2_01
  6
CONTINUOUS
100
AcDbLine
 10
72.397708
 20
22.300922
 30
0.0
 11
74.897708
 21
22.300922
 31
0.0
  0
LINE
  5
4CC
100
AcDbEntity
  8
GR2_01
  6
CONTINUOUS
100
AcDbLine
 10
76.397708
 20
20.800922
 30
0.0
 11
76.397708
 21
20.300922
 31
0.0
  0
LINE
  5
4CD
100
AcDbEntity
  8
GR2_01
  6
CONTINUOUS
100
AcDbLine
 10
70.897708
 20
20.800922
 30
0.0
 11
70.897708
 21
20.300922
 31
0.0
  0
ARC
  5
4CE
100
AcDbEntity
  8
GR2_01
  6
CONTINUOUS
100
AcDbCircle
 10
74.897708
 20
20.800922
 30
0.0
 40
1.5
100
AcDbArc
 50
0.0
 51
90.0
  0
ARC
  5
4CF
100
AcDbEntity
  8
GR2_01
  6
CONTINUOUS
100
AcDbCircle
 10
72.397708
 20
20.800922
 30
0.0
 40
1.5
100
AcDbArc
 50
90.0
 51
180.0
  0
LINE
  5
4D0
100
AcDbEntity
  8
GR2_01
  6
CONTINUOUS
100
AcDbLine
 10
73.647708
 20
22.300922
 30
0.0
 11
71.511637
 21
21.728563
 31
0.0
  0
LINE
  5
4D1
100
AcDbEntity
  8
GR2_01
  6
CONTINUOUS
100
AcDbLine
 10
73.647708
 20
22.300922
 30
0.0
 11
75.839204
 21
21.713712
 31
0.0
  0
LINE
  5
4D2
100
AcDbEntity
  8
0
  6
CONTINUOUS
 62
     7
100
AcDbLine
 10
69.227708
 20
18.900922
 30
0.0
 11
62.827708
 21
18.900922
 31
0.0
  0
LINE
  5
4D3
100
AcDbEntity
  8
0
  6
CONTINUOUS
 62
     7
100
AcDbLine
 10
69.227708
 20
17.400922
 30
0.0
 11
62.827708
 21
17.400922
 31
0.0
  0
LINE
  5
4D4
100
AcDbEntity
  8
0
  6
CONTINUOUS
 62
     7
100
AcDbLine
 10
69.227708
 20
16.400922
 30
0.0
 11
62.827708
 21
16.400922
 31
0.0
  0
LINE
  5
4D5
100
AcDbEntity
  8
0
  6
CONTINUOUS
 62
     7
100
AcDbLine
 10
69.227708
 20
25.400922
 30
0.0
 11
69.227708
 21
16.400922
 31
0.0
  0
LINE
  5
4D6
100
AcDbEntity
  8
0
  6
CONTINUOUS
 62
     7
100
AcDbLine
 10
62.827708
 20
25.400922
 30
0.0
 11
62.827708
 21
16.400922
 31
0.0
  0
LINE
  5
4D7
100
AcDbEntity
  8
GR2_01
  6
CONTINUOUS
100
AcDbLine
 10
69.227708
 20
19.200922
 30
0.0
 11
62.827708
 21
19.200922
 31
0.0
  0
LINE
  5
4D8
100
AcDbEntity
  8
GR2_01
  6
CONTINUOUS
100
AcDbLine
 10
63.127708
 20
20.300922
 30
0.0
 11
68.927708
 21
20.300922
 31
0.0
  0
LINE
  5
4D9
100
AcDbEntity
  8
GR2_01
  6
CONTINUOUS
100
AcDbLine
 10
62.927708
 20
20.100922
 30
0.0
 11
62.927708
 21
19.200922
 31
0.0
  0
LINE
  5
4DA
100
AcDbEntity
  8
GR2_01
  6
CONTINUOUS
100
AcDbLine
 10
63.626684
 20
19.500922
 30
0.0
 11
65.427708
 21
19.500922
 31
0.0
  0
LINE
  5
4DB
100
AcDbEntity
  8
GR2_01
  6
CONTINUOUS
100
AcDbLine
 10
63.626684
 20
19.500922
 30
0.0
 11
63.453479
 21
19.200922
 31
0.0
  0
ARC
  5
4DC
100
AcDbEntity
  8
GR2_01
  6
CONTINUOUS
100
AcDbCircle
 10
63.127708
 20
20.100922
 30
0.0
 40
0.2
100
AcDbArc
 50
90.0
 51
180.0
  0
LINE
  5
4DD
100
AcDbEntity
  8
GR2_01
  6
CONTINUOUS
100
AcDbLine
 10
66.627708
 20
19.200922
 30
0.0
 11
66.627708
 21
19.500922
 31
0.0
  0
LINE
  5
4DE
100
AcDbEntity
  8
GR2_01
  6
CONTINUOUS
100
AcDbLine
 10
65.427708
 20
19.200922
 30
0.0
 11
65.427708
 21
19.500922
 31
0.0
  0
LINE
  5
4DF
100
AcDbEntity
  8
GR2_01
  6
CONTINUOUS
100
AcDbLine
 10
66.627708
 20
19.500922
 30
0.0
 11
68.454718
 21
19.500922
 31
0.0
  0
LINE
  5
4E0
100
AcDbEntity
  8
GR2_01
  6
CONTINUOUS
100
AcDbLine
 10
69.127708
 20
20.100922
 30
0.0
 11
69.127708
 21
19.200922
 31
0.0
  0
LINE
  5
4E1
100
AcDbEntity
  8
GR2_01
  6
CONTINUOUS
100
AcDbLine
 10
68.428731
 20
19.500922
 30
0.0
 11
68.601937
 21
19.200922
 31
0.0
  0
ARC
  5
4E2
100
AcDbEntity
  8
GR2_01
  6
CONTINUOUS
100
AcDbCircle
 10
68.927708
 20
20.100922
 30
0.0
 40
0.2
100
AcDbArc
 50
0.0
 51
90.0
  0
LINE
  5
4E3
100
AcDbEntity
  8
GR2_01
  6
CONTINUOUS
100
AcDbLine
 10
64.777708
 20
22.300922
 30
0.0
 11
67.277708
 21
22.300922
 31
0.0
  0
LINE
  5
4E4
100
AcDbEntity
  8
GR2_01
  6
CONTINUOUS
100
AcDbLine
 10
68.777708
 20
20.800922
 30
0.0
 11
68.777708
 21
20.300922
 31
0.0
  0
LINE
  5
4E5
100
AcDbEntity
  8
GR2_01
  6
CONTINUOUS
100
AcDbLine
 10
63.277708
 20
20.800922
 30
0.0
 11
63.277708
 21
20.300922
 31
0.0
  0
ARC
  5
4E6
100
AcDbEntity
  8
GR2_01
  6
CONTINUOUS
100
AcDbCircle
 10
67.277708
 20
20.800922
 30
0.0
 40
1.5
100
AcDbArc
 50
0.0
 51
90.0
  0
ARC
  5
4E7
100
AcDbEntity
  8
GR2_01
  6
CONTINUOUS
100
AcDbCircle
 10
64.777708
 20
20.800922
 30
0.0
 40
1.5
100
AcDbArc
 50
90.0
 51
180.0
  0
LINE
  5
4E8
100
AcDbEntity
  8
GR2_01
  6
CONTINUOUS
100
AcDbLine
 10
66.027708
 20
22.300922
 30
0.0
 11
63.891637
 21
21.728563
 31
0.0
  0
LINE
  5
4E9
100
AcDbEntity
  8
GR2_01
  6
CONTINUOUS
100
AcDbLine
 10
66.027708
 20
22.300922
 30
0.0
 11
68.219204
 21
21.713712
 31
0.0
  0
LINE
  5
4EA
100
AcDbEntity
  8
0
  6
CONTINUOUS
 62
     7
100
AcDbLine
 10
56.854828
 20
13.400922
 30
0.0
 11
132.357708
 21
13.400922
 31
0.0
  0
LINE
  5
4EB
100
AcDbEntity
  8
GR2_01
  6
CONTINUOUS
100
AcDbLine
 10
56.352708
 20
40.050922
 30
0.0
 11
56.352708
 21
14.050922
 31
0.0
  0
LINE
  5
4EC
100
AcDbEntity
  8
GR2_01
  6
CONTINUOUS
100
AcDbLine
 10
18.352708
 20
13.150922
 30
0.0
 11
9.405079
 21
13.150922
 31
0.0
  0
LINE
  5
4ED
100
AcDbEntity
  8
GR2_01
  6
CONTINUOUS
100
AcDbLine
 10
18.352708
 20
13.150922
 30
0.0
 11
18.352708
 21
17.350922
 31
0.0
  0
LINE
  5
4EE
100
AcDbEntity
  8
GR2_01
  6
CONTINUOUS
100
AcDbLine
 10
140.247825
 20
17.850922
 30
0.0
 11
132.852708
 21
17.850922
 31
0.0
  0
LINE
  5
4EF
100
AcDbEntity
  8
GR2_01
  6
CONTINUOUS
100
AcDbLine
 10
141.353818
 20
11.595767
 30
0.0
 11
141.247673
 21
16.868374
 31
0.0
  0
ARC
  5
4F0
100
AcDbEntity
  8
GR2_01
  6
CONTINUOUS
100
AcDbCircle
 10
140.247825
 20
16.850922
 30
0.0
 40
1.0
100
AcDbArc
 50
1.0
 51
90.0
  0
LINE
  5
4F1
100
AcDbEntity
  8
GR2_01
  6
CONTINUOUS
100
AcDbLine
 10
9.352708
 20
11.650922
 30
0.0
 11
9.457743
 21
16.868374
 31
0.0
  0
ARC
  5
4F2
100
AcDbEntity
  8
GR2_01
  6
CONTINUOUS
100
AcDbCircle
 10
10.45759
 20
16.850922
 30
0.0
 40
1.0
100
AcDbArc
 50
90.0
 51
179.0
  0
LINE
  5
4F3
100
AcDbEntity
  8
GR2_01
  6
CONTINUOUS
100
AcDbLine
 10
133.352708
 20
41.550922
 30
0.0
 11
55.913086
 21
41.550922
 31
0.0
  0
LINE
  5
4F4
100
AcDbEntity
  8
GR2_01
  6
CONTINUOUS
100
AcDbLine
 10
132.852708
 20
40.050922
 30
0.0
 11
56.352708
 21
40.050922
 31
0.0
  0
LINE
  5
4F5
100
AcDbEntity
  8
GR2_01
  6
CONTINUOUS
100
AcDbLine
 10
36.452708
 20
17.850922
 30
0.0
 11
36.452708
 21
25.450922
 31
0.0
  0
LINE
  5
4F6
100
AcDbEntity
  8
GR2_01
  6
CONTINUOUS
100
AcDbLine
 10
54.913086
 20
17.850922
 30
0.0
 11
54.913086
 21
40.550922
 31
0.0
  0
LINE
  5
4F7
100
AcDbEntity
  8
GR2_01
  6
CONTINUOUS
100
AcDbLine
 10
36.952708
 20
25.950922
 30
0.0
 11
54.913086
 21
25.950922
 31
0.0
  0
ARC
  5
4F8
100
AcDbEntity
  8
GR2_01
  6
CONTINUOUS
100
AcDbCircle
 10
36.952708
 20
25.450922
 30
0.0
 40
0.5
100
AcDbArc
 50
90.0
 51
180.0
  0
ARC
  5
4F9
100
AcDbEntity
  8
GR2_01
  6
CONTINUOUS
100
AcDbCircle
 10
55.913086
 20
40.550922
 30
0.0
 40
1.0
100
AcDbArc
 50
90.0
 51
180.0
  0
LINE
  5
4FA
100
AcDbEntity
  8
GR2_01
  6
CONTINUOUS
100
AcDbLine
 10
134.352708
 20
40.550922
 30
0.0
 11
134.352708
 21
17.850922
 31
0.0
  0
LINE
  5
4FB
100
AcDbEntity
  8
GR2_01
  6
CONTINUOUS
100
AcDbLine
 10
132.852708
 20
40.050922
 30
0.0
 11
132.852708
 21
14.050922
 31
0.0
  0
LINE
  5
4FC
100
AcDbEntity
  8
GR2_01
  6
CONTINUOUS
100
AcDbLine
 10
56.352708
 20
17.850922
 30
0.0
 11
10.45759
 21
17.850922
 31
0.0
  0
ARC
  5
4FD
100
AcDbEntity
  8
GR2_01
  6
CONTINUOUS
100
AcDbCircle
 10
133.352708
 20
40.550922
 30
0.0
 40
1.0
100
AcDbArc
 50
0.0
 51
90.0
  0
ARC
  5
4FE
100
AcDbEntity
  8
GR2_01
  6
CONTINUOUS
100
AcDbCircle
 10
18.852708
 20
17.350922
 30
0.0
 40
0.5
100
AcDbArc
 50
90.0
 51
180.0
  0
LINE
  5
4FF
100
AcDbEntity
  8
GR2_01
  6
CONTINUOUS
100
AcDbLine
 10
132.852708
 20
27.650922
 30
0.0
 11
134.352708
 21
27.650922
 31
0.0
  0
LINE
  5
500
100
AcDbEntity
  8
GR2_01
  6
CONTINUOUS
100
AcDbLine
 10
126.427708
 20
41.550922
 30
0.0
 11
126.427708
 21
40.050922
 31
0.0
  0
LINE
  5
501
100
AcDbEntity
  8
GR2_01
  6
CONTINUOUS
100
AcDbLine
 10
58.967708
 20
41.550922
 30
0.0
 11
58.967708
 21
40.050922
 31
0.0
  0
LINE
  5
502
100
AcDbEntity
  8
GR2_01
  6
CONTINUOUS
100
AcDbLine
 10
56.352708
 20
27.650922
 30
0.0
 11
54.913086
 21
27.650922
 31
0.0
  0
LINE
  5
504
102
{ACAD_REACTORS
330
503
102
}
100
AcDbEntity
  8
GR2_01
  6
CONTINUOUS
100
AcDbLine
 10
16.482708
 20
139.856582
 30
0.0
 11
16.482708
 21
138.256582
 31
0.0
  0
LINE
  5
505
102
{ACAD_REACTORS
330
503
102
}
100
AcDbEntity
  8
GR2_01
  6
CONTINUOUS
100
AcDbLine
 10
17.282708
 20
139.856582
 30
0.0
 11
17.282708
 21
138.256582
 31
0.0
  0
LINE
  5
506
102
{ACAD_REACTORS
330
503
102
}
100
AcDbEntity
  8
GR2_01
  6
CONTINUOUS
100
AcDbLine
 10
16.482708
 20
139.856582
 30
0.0
 11
17.282708
 21
139.856582
 31
0.0
  0
LINE
  5
507
102
{ACAD_REACTORS
330
503
102
}
100
AcDbEntity
  8
GR2_01
  6
CONTINUOUS
100
AcDbLine
 10
16.482708
 20
138.256582
 30
0.0
 11
17.282708
 21
138.256582
 31
0.0
  0
LINE
  5
508
102
{ACAD_REACTORS
330
503
102
}
100
AcDbEntity
  8
GR2_01
  6
CONTINUOUS
100
AcDbLine
 10
19.022708
 20
139.856582
 30
0.0
 11
19.022708
 21
138.256582
 31
0.0
  0
LINE
  5
509
102
{ACAD_REACTORS
330
503
102
}
100
AcDbEntity
  8
GR2_01
  6
CONTINUOUS
100
AcDbLine
 10
19.822708
 20
139.856582
 30
0.0
 11
19.822708
 21
138.256582
 31
0.0
  0
LINE
  5
50A
102
{ACAD_REACTORS
330
503
102
}
100
AcDbEntity
  8
GR2_01
  6
CONTINUOUS
100
AcDbLine
 10
19.022708
 20
139.856582
 30
0.0
 11
19.822708
 21
139.856582
 31
0.0
  0
LINE
  5
50B
102
{ACAD_REACTORS
330
503
102
}
100
AcDbEntity
  8
GR2_01
  6
CONTINUOUS
100
AcDbLine
 10
19.022708
 20
138.256582
 30
0.0
 11
19.822708
 21
138.256582
 31
0.0
  0
LINE
  5
50C
102
{ACAD_REACTORS
330
503
102
}
100
AcDbEntity
  8
GR2_01
  6
CONTINUOUS
100
AcDbLine
 10
16.482708
 20
142.396582
 30
0.0
 11
16.482708
 21
140.796582
 31
0.0
  0
LINE
  5
50D
102
{ACAD_REACTORS
330
503
102
}
100
AcDbEntity
  8
GR2_01
  6
CONTINUOUS
100
AcDbLine
 10
17.282708
 20
142.396582
 30
0.0
 11
17.282708
 21
140.796582
 31
0.0
  0
LINE
  5
50E
102
{ACAD_REACTORS
330
503
102
}
100
AcDbEntity
  8
GR2_01
  6
CONTINUOUS
100
AcDbLine
 10
16.482708
 20
142.396582
 30
0.0
 11
17.282708
 21
142.396582
 31
0.0
  0
LINE
  5
50F
102
{ACAD_REACTORS
330
503
102
}
100
AcDbEntity
  8
GR2_01
  6
CONTINUOUS
100
AcDbLine
 10
16.482708
 20
140.796582
 30
0.0
 11
17.282708
 21
140.796582
 31
0.0
  0
LINE
  5
510
102
{ACAD_REACTORS
330
503
102
}
100
AcDbEntity
  8
GR2_01
  6
CONTINUOUS
100
AcDbLine
 10
19.022708
 20
142.396582
 30
0.0
 11
19.022708
 21
140.796582
 31
0.0
  0
LINE
  5
511
102
{ACAD_REACTORS
330
503
102
}
100
AcDbEntity
  8
GR2_01
  6
CONTINUOUS
100
AcDbLine
 10
19.822708
 20
142.396582
 30
0.0
 11
19.822708
 21
140.796582
 31
0.0
  0
LINE
  5
512
102
{ACAD_REACTORS
330
503
102
}
100
AcDbEntity
  8
GR2_01
  6
CONTINUOUS
100
AcDbLine
 10
19.022708
 20
142.396582
 30
0.0
 11
19.822708
 21
142.396582
 31
0.0
  0
LINE
  5
513
102
{ACAD_REACTORS
330
503
102
}
100
AcDbEntity
  8
GR2_01
  6
CONTINUOUS
100
AcDbLine
 10
19.022708
 20
140.796582
 30
0.0
 11
19.822708
 21
140.796582
 31
0.0
  0
LINE
  5
514
102
{ACAD_REACTORS
330
503
102
}
100
AcDbEntity
  8
GR2_01
  6
CONTINUOUS
100
AcDbLine
 10
16.482708
 20
144.936582
 30
0.0
 11
16.482708
 21
143.336582
 31
0.0
  0
LINE
  5
515
102
{ACAD_REACTORS
330
503
102
}
100
AcDbEntity
  8
GR2_01
  6
CONTINUOUS
100
AcDbLine
 10
17.282708
 20
144.936582
 30
0.0
 11
17.282708
 21
143.336582
 31
0.0
  0
LINE
  5
516
102
{ACAD_REACTORS
330
503
102
}
100
AcDbEntity
  8
GR2_01
  6
CONTINUOUS
100
AcDbLine
 10
16.482708
 20
144.936582
 30
0.0
 11
17.282708
 21
144.936582
 31
0.0
  0
LINE
  5
517
102
{ACAD_REACTORS
330
503
102
}
100
AcDbEntity
  8
GR2_01
  6
CONTINUOUS
100
AcDbLine
 10
16.482708
 20
143.336582
 30
0.0
 11
17.282708
 21
143.336582
 31
0.0
  0
LINE
  5
518
102
{ACAD_REACTORS
330
503
102
}
100
AcDbEntity
  8
GR2_01
  6
CONTINUOUS
100
AcDbLine
 10
19.022708
 20
144.936582
 30
0.0
 11
19.022708
 21
143.336582
 31
0.0
  0
LINE
  5
519
102
{ACAD_REACTORS
330
503
102
}
100
AcDbEntity
  8
GR2_01
  6
CONTINUOUS
100
AcDbLine
 10
19.822708
 20
144.936582
 30
0.0
 11
19.822708
 21
143.336582
 31
0.0
  0
LINE
  5
51A
102
{ACAD_REACTORS
330
503
102
}
100
AcDbEntity
  8
GR2_01
  6
CONTINUOUS
100
AcDbLine
 10
19.022708
 20
144.936582
 30
0.0
 11
19.822708
 21
144.936582
 31
0.0
  0
LINE
  5
51B
102
{ACAD_REACTORS
330
503
102
}
100
AcDbEntity
  8
GR2_01
  6
CONTINUOUS
100
AcDbLine
 10
19.022708
 20
143.336582
 30
0.0
 11
19.822708
 21
143.336582
 31
0.0
  0
LINE
  5
51C
102
{ACAD_REACTORS
330
503
102
}
100
AcDbEntity
  8
GR2_01
  6
CONTINUOUS
100
AcDbLine
 10
16.482708
 20
147.476582
 30
0.0
 11
16.482708
 21
145.876582
 31
0.0
  0
LINE
  5
51D
102
{ACAD_REACTORS
330
503
102
}
100
AcDbEntity
  8
GR2_01
  6
CONTINUOUS
100
AcDbLine
 10
17.282708
 20
147.476582
 30
0.0
 11
17.282708
 21
145.876582
 31
0.0
  0
LINE
  5
51E
102
{ACAD_REACTORS
330
503
102
}
100
AcDbEntity
  8
GR2_01
  6
CONTINUOUS
100
AcDbLine
 10
16.482708
 20
147.476582
 30
0.0
 11
17.282708
 21
147.476582
 31
0.0
  0
LINE
  5
51F
102
{ACAD_REACTORS
330
503
102
}
100
AcDbEntity
  8
GR2_01
  6
CONTINUOUS
100
AcDbLine
 10
16.482708
 20
145.876582
 30
0.0
 11
17.282708
 21
145.876582
 31
0.0
  0
LINE
  5
520
102
{ACAD_REACTORS
330
503
102
}
100
AcDbEntity
  8
GR2_01
  6
CONTINUOUS
100
AcDbLine
 10
19.022708
 20
147.476582
 30
0.0
 11
19.022708
 21
145.876582
 31
0.0
  0
LINE
  5
521
102
{ACAD_REACTORS
330
503
102
}
100
AcDbEntity
  8
GR2_01
  6
CONTINUOUS
100
AcDbLine
 10
19.822708
 20
147.476582
 30
0.0
 11
19.822708
 21
145.876582
 31
0.0
  0
LINE
  5
522
102
{ACAD_REACTORS
330
503
102
}
100
AcDbEntity
  8
GR2_01
  6
CONTINUOUS
100
AcDbLine
 10
19.022708
 20
147.476582
 30
0.0
 11
19.822708
 21
147.476582
 31
0.0
  0
LINE
  5
523
102
{ACAD_REACTORS
330
503
102
}
100
AcDbEntity
  8
GR2_01
  6
CONTINUOUS
100
AcDbLine
 10
19.022708
 20
145.876582
 30
0.0
 11
19.822708
 21
145.876582
 31
0.0
  0
LINE
  5
524
102
{ACAD_REACTORS
330
503
102
}
100
AcDbEntity
  8
GR2_01
  6
CONTINUOUS
100
AcDbLine
 10
16.482708
 20
150.016582
 30
0.0
 11
16.482708
 21
148.416582
 31
0.0
  0
LINE
  5
525
102
{ACAD_REACTORS
330
503
102
}
100
AcDbEntity
  8
GR2_01
  6
CONTINUOUS
100
AcDbLine
 10
17.282708
 20
150.016582
 30
0.0
 11
17.282708
 21
148.416582
 31
0.0
  0
LINE
  5
526
102
{ACAD_REACTORS
330
503
102
}
100
AcDbEntity
  8
GR2_01
  6
CONTINUOUS
100
AcDbLine
 10
16.482708
 20
150.016582
 30
0.0
 11
17.282708
 21
150.016582
 31
0.0
  0
LINE
  5
527
102
{ACAD_REACTORS
330
503
102
}
100
AcDbEntity
  8
GR2_01
  6
CONTINUOUS
100
AcDbLine
 10
16.482708
 20
148.416582
 30
0.0
 11
17.282708
 21
148.416582
 31
0.0
  0
LINE
  5
528
102
{ACAD_REACTORS
330
503
102
}
100
AcDbEntity
  8
GR2_01
  6
CONTINUOUS
100
AcDbLine
 10
19.022708
 20
150.016582
 30
0.0
 11
19.022708
 21
148.416582
 31
0.0
  0
LINE
  5
529
102
{ACAD_REACTORS
330
503
102
}
100
AcDbEntity
  8
GR2_01
  6
CONTINUOUS
100
AcDbLine
 10
19.822708
 20
150.016582
 30
0.0
 11
19.822708
 21
148.416582
 31
0.0
  0
LINE
  5
52A
102
{ACAD_REACTORS
330
503
102
}
100
AcDbEntity
  8
GR2_01
  6
CONTINUOUS
100
AcDbLine
 10
19.022708
 20
150.016582
 30
0.0
 11
19.822708
 21
150.016582
 31
0.0
  0
LINE
  5
52B
102
{ACAD_REACTORS
330
503
102
}
100
AcDbEntity
  8
GR2_01
  6
CONTINUOUS
100
AcDbLine
 10
19.022708
 20
148.416582
 30
0.0
 11
19.822708
 21
148.416582
 31
0.0
  0
LINE
  5
52C
102
{ACAD_REACTORS
330
503
102
}
100
AcDbEntity
  8
GR2_01
  6
CONTINUOUS
100
AcDbLine
 10
16.482708
 20
135.716582
 30
0.0
 11
16.482708
 21
137.316582
 31
0.0
  0
LINE
  5
52D
102
{ACAD_REACTORS
330
503
102
}
100
AcDbEntity
  8
GR2_01
  6
CONTINUOUS
100
AcDbLine
 10
17.282708
 20
135.716582
 30
0.0
 11
17.282708
 21
137.316582
 31
0.0
  0
LINE
  5
52E
102
{ACAD_REACTORS
330
503
102
}
100
AcDbEntity
  8
GR2_01
  6
CONTINUOUS
100
AcDbLine
 10
16.482708
 20
135.716582
 30
0.0
 11
17.282708
 21
135.716582
 31
0.0
  0
LINE
  5
52F
102
{ACAD_REACTORS
330
503
102
}
100
AcDbEntity
  8
GR2_01
  6
CONTINUOUS
100
AcDbLine
 10
16.482708
 20
137.316582
 30
0.0
 11
17.282708
 21
137.316582
 31
0.0
  0
LINE
  5
530
102
{ACAD_REACTORS
330
503
102
}
100
AcDbEntity
  8
GR2_01
  6
CONTINUOUS
100
AcDbLine
 10
19.022708
 20
135.716582
 30
0.0
 11
19.022708
 21
137.316582
 31
0.0
  0
LINE
  5
531
102
{ACAD_REACTORS
330
503
102
}
100
AcDbEntity
  8
GR2_01
  6
CONTINUOUS
100
AcDbLine
 10
19.822708
 20
135.716582
 30
0.0
 11
19.822708
 21
137.316582
 31
0.0
  0
LINE
  5
532
102
{ACAD_REACTORS
330
503
102
}
100
AcDbEntity
  8
GR2_01
  6
CONTINUOUS
100
AcDbLine
 10
19.022708
 20
135.716582
 30
0.0
 11
19.822708
 21
135.716582
 31
0.0
  0
LINE
  5
533
102
{ACAD_REACTORS
330
503
102
}
100
AcDbEntity
  8
GR2_01
  6
CONTINUOUS
100
AcDbLine
 10
19.022708
 20
137.316582
 30
0.0
 11
19.822708
 21
137.316582
 31
0.0
  0
LINE
  5
534
102
{ACAD_REACTORS
330
503
102
}
100
AcDbEntity
  8
GR2_01
  6
CONTINUOUS
100
AcDbLine
 10
16.482708
 20
133.176582
 30
0.0
 11
16.482708
 21
134.776582
 31
0.0
  0
LINE
  5
535
102
{ACAD_REACTORS
330
503
102
}
100
AcDbEntity
  8
GR2_01
  6
CONTINUOUS
100
AcDbLine
 10
17.282708
 20
133.176582
 30
0.0
 11
17.282708
 21
134.776582
 31
0.0
  0
LINE
  5
536
102
{ACAD_REACTORS
330
503
102
}
100
AcDbEntity
  8
GR2_01
  6
CONTINUOUS
100
AcDbLine
 10
16.482708
 20
133.176582
 30
0.0
 11
17.282708
 21
133.176582
 31
0.0
  0
LINE
  5
537
102
{ACAD_REACTORS
330
503
102
}
100
AcDbEntity
  8
GR2_01
  6
CONTINUOUS
100
AcDbLine
 10
16.482708
 20
134.776582
 30
0.0
 11
17.282708
 21
134.776582
 31
0.0
  0
LINE
  5
538
102
{ACAD_REACTORS
330
503
102
}
100
AcDbEntity
  8
GR2_01
  6
CONTINUOUS
100
AcDbLine
 10
19.022708
 20
133.176582
 30
0.0
 11
19.022708
 21
134.776582
 31
0.0
  0
LINE
  5
539
102
{ACAD_REACTORS
330
503
102
}
100
AcDbEntity
  8
GR2_01
  6
CONTINUOUS
100
AcDbLine
 10
19.822708
 20
133.176582
 30
0.0
 11
19.822708
 21
134.776582
 31
0.0
  0
LINE
  5
53A
102
{ACAD_REACTORS
330
503
102
}
100
AcDbEntity
  8
GR2_01
  6
CONTINUOUS
100
AcDbLine
 10
19.022708
 20
133.176582
 30
0.0
 11
19.822708
 21
133.176582
 31
0.0
  0
LINE
  5
53B
102
{ACAD_REACTORS
330
503
102
}
100
AcDbEntity
  8
GR2_01
  6
CONTINUOUS
100
AcDbLine
 10
19.022708
 20
134.776582
 30
0.0
 11
19.822708
 21
134.776582
 31
0.0
  0
LINE
  5
53C
102
{ACAD_REACTORS
330
503
102
}
100
AcDbEntity
  8
GR2_01
  6
CONTINUOUS
100
AcDbLine
 10
16.482708
 20
130.636582
 30
0.0
 11
16.482708
 21
132.236582
 31
0.0
  0
LINE
  5
53D
102
{ACAD_REACTORS
330
503
102
}
100
AcDbEntity
  8
GR2_01
  6
CONTINUOUS
100
AcDbLine
 10
17.282708
 20
130.636582
 30
0.0
 11
17.282708
 21
132.236582
 31
0.0
  0
LINE
  5
53E
102
{ACAD_REACTORS
330
503
102
}
100
AcDbEntity
  8
GR2_01
  6
CONTINUOUS
100
AcDbLine
 10
16.482708
 20
130.636582
 30
0.0
 11
17.282708
 21
130.636582
 31
0.0
  0
LINE
  5
53F
102
{ACAD_REACTORS
330
503
102
}
100
AcDbEntity
  8
GR2_01
  6
CONTINUOUS
100
AcDbLine
 10
16.482708
 20
132.236582
 30
0.0
 11
17.282708
 21
132.236582
 31
0.0
  0
LINE
  5
540
102
{ACAD_REACTORS
330
503
102
}
100
AcDbEntity
  8
GR2_01
  6
CONTINUOUS
100
AcDbLine
 10
19.022708
 20
130.636582
 30
0.0
 11
19.022708
 21
132.236582
 31
0.0
  0
LINE
  5
541
102
{ACAD_REACTORS
330
503
102
}
100
AcDbEntity
  8
GR2_01
  6
CONTINUOUS
100
AcDbLine
 10
19.822708
 20
130.636582
 30
0.0
 11
19.822708
 21
132.236582
 31
0.0
  0
LINE
  5
542
102
{ACAD_REACTORS
330
503
102
}
100
AcDbEntity
  8
GR2_01
  6
CONTINUOUS
100
AcDbLine
 10
19.022708
 20
130.636582
 30
0.0
 11
19.822708
 21
130.636582
 31
0.0
  0
LINE
  5
543
102
{ACAD_REACTORS
330
503
102
}
100
AcDbEntity
  8
GR2_01
  6
CONTINUOUS
100
AcDbLine
 10
19.022708
 20
132.236582
 30
0.0
 11
19.822708
 21
132.236582
 31
0.0
  0
LINE
  5
544
102
{ACAD_REACTORS
330
503
102
}
100
AcDbEntity
  8
GR2_01
  6
CONTINUOUS
100
AcDbLine
 10
16.482708
 20
128.096582
 30
0.0
 11
16.482708
 21
129.696582
 31
0.0
  0
LINE
  5
545
102
{ACAD_REACTORS
330
503
102
}
100
AcDbEntity
  8
GR2_01
  6
CONTINUOUS
100
AcDbLine
 10
17.282708
 20
128.096582
 30
0.0
 11
17.282708
 21
129.696582
 31
0.0
  0
LINE
  5
546
102
{ACAD_REACTORS
330
503
102
}
100
AcDbEntity
  8
GR2_01
  6
CONTINUOUS
100
AcDbLine
 10
16.482708
 20
128.096582
 30
0.0
 11
17.282708
 21
128.096582
 31
0.0
  0
LINE
  5
547
102
{ACAD_REACTORS
330
503
102
}
100
AcDbEntity
  8
GR2_01
  6
CONTINUOUS
100
AcDbLine
 10
16.482708
 20
129.696582
 30
0.0
 11
17.282708
 21
129.696582
 31
0.0
  0
LINE
  5
548
102
{ACAD_REACTORS
330
503
102
}
100
AcDbEntity
  8
GR2_01
  6
CONTINUOUS
100
AcDbLine
 10
19.022708
 20
128.096582
 30
0.0
 11
19.022708
 21
129.696582
 31
0.0
  0
LINE
  5
549
102
{ACAD_REACTORS
330
503
102
}
100
AcDbEntity
  8
GR2_01
  6
CONTINUOUS
100
AcDbLine
 10
19.822708
 20
128.096582
 30
0.0
 11
19.822708
 21
129.696582
 31
0.0
  0
LINE
  5
54A
102
{ACAD_REACTORS
330
503
102
}
100
AcDbEntity
  8
GR2_01
  6
CONTINUOUS
100
AcDbLine
 10
19.022708
 20
128.096582
 30
0.0
 11
19.822708
 21
128.096582
 31
0.0
  0
LINE
  5
54B
102
{ACAD_REACTORS
330
503
102
}
100
AcDbEntity
  8
GR2_01
  6
CONTINUOUS
100
AcDbLine
 10
19.022708
 20
129.696582
 30
0.0
 11
19.822708
 21
129.696582
 31
0.0
  0
LINE
  5
54C
102
{ACAD_REACTORS
330
503
102
}
100
AcDbEntity
  8
GR2_01
  6
CONTINUOUS
100
AcDbLine
 10
16.482708
 20
125.556582
 30
0.0
 11
16.482708
 21
127.156582
 31
0.0
  0
LINE
  5
54D
102
{ACAD_REACTORS
330
503
102
}
100
AcDbEntity
  8
GR2_01
  6
CONTINUOUS
100
AcDbLine
 10
17.282708
 20
125.556582
 30
0.0
 11
17.282708
 21
127.156582
 31
0.0
  0
LINE
  5
54E
102
{ACAD_REACTORS
330
503
102
}
100
AcDbEntity
  8
GR2_01
  6
CONTINUOUS
100
AcDbLine
 10
16.482708
 20
125.556582
 30
0.0
 11
17.282708
 21
125.556582
 31
0.0
  0
LINE
  5
54F
102
{ACAD_REACTORS
330
503
102
}
100
AcDbEntity
  8
GR2_01
  6
CONTINUOUS
100
AcDbLine
 10
16.482708
 20
127.156582
 30
0.0
 11
17.282708
 21
127.156582
 31
0.0
  0
LINE
  5
550
102
{ACAD_REACTORS
330
503
102
}
100
AcDbEntity
  8
GR2_01
  6
CONTINUOUS
100
AcDbLine
 10
19.022708
 20
125.556582
 30
0.0
 11
19.022708
 21
127.156582
 31
0.0
  0
LINE
  5
551
102
{ACAD_REACTORS
330
503
102
}
100
AcDbEntity
  8
GR2_01
  6
CONTINUOUS
100
AcDbLine
 10
19.822708
 20
125.556582
 30
0.0
 11
19.822708
 21
127.156582
 31
0.0
  0
LINE
  5
552
102
{ACAD_REACTORS
330
503
102
}
100
AcDbEntity
  8
GR2_01
  6
CONTINUOUS
100
AcDbLine
 10
19.022708
 20
125.556582
 30
0.0
 11
19.822708
 21
125.556582
 31
0.0
  0
LINE
  5
553
102
{ACAD_REACTORS
330
503
102
}
100
AcDbEntity
  8
GR2_01
  6
CONTINUOUS
100
AcDbLine
 10
19.022708
 20
127.156582
 30
0.0
 11
19.822708
 21
127.156582
 31
0.0
  0
LINE
  5
554
102
{ACAD_REACTORS
330
503
102
}
100
AcDbEntity
  8
0
  6
CONTINUOUS
 62
     7
100
AcDbLine
 10
15.152708
 20
153.086582
 30
0.0
 11
15.152708
 21
122.486582
 31
0.0
  0
LINE
  5
555
102
{ACAD_REACTORS
330
503
102
}
100
AcDbEntity
  8
0
  6
CONTINUOUS
 62
     7
100
AcDbLine
 10
15.152708
 20
122.486582
 30
0.0
 11
21.152708
 21
122.486582
 31
0.0
  0
LINE
  5
556
102
{ACAD_REACTORS
330
503
102
}
100
AcDbEntity
  8
0
  6
CONTINUOUS
 62
     7
100
AcDbLine
 10
21.152708
 20
122.486582
 30
0.0
 11
21.152708
 21
153.086582
 31
0.0
  0
LINE
  5
557
102
{ACAD_REACTORS
330
503
102
}
100
AcDbEntity
  8
0
  6
CONTINUOUS
 62
     7
100
AcDbLine
 10
21.152708
 20
153.086582
 30
0.0
 11
15.152708
 21
153.086582
 31
0.0
  0
LINE
  5
558
102
{ACAD_REACTORS
330
503
102
}
100
AcDbEntity
  8
0
  6
CONTINUOUS
 62
     7
100
AcDbLine
 10
16.152708
 20
160.236582
 30
0.0
 11
16.152708
 21
153.086582
 31
0.0
  0
LINE
  5
559
102
{ACAD_REACTORS
330
503
102
}
100
AcDbEntity
  8
0
  6
CONTINUOUS
 62
     7
100
AcDbLine
 10
20.152708
 20
160.236582
 30
0.0
 11
20.152708
 21
153.086582
 31
0.0
  0
LINE
  5
55A
102
{ACAD_REACTORS
330
503
102
}
100
AcDbEntity
  8
0
  6
CONTINUOUS
 62
     7
100
AcDbLine
 10
19.652708
 20
151.086582
 30
0.0
 11
16.652708
 21
151.086582
 31
0.0
  0
LINE
  5
55B
102
{ACAD_REACTORS
330
503
102
}
100
AcDbEntity
  8
0
  6
CONTINUOUS
 62
     7
100
AcDbLine
 10
16.652708
 20
153.086582
 30
0.0
 11
16.652708
 21
151.086582
 31
0.0
  0
LINE
  5
55C
102
{ACAD_REACTORS
330
503
102
}
100
AcDbEntity
  8
0
  6
CONTINUOUS
 62
     7
100
AcDbLine
 10
19.652708
 20
153.086582
 30
0.0
 11
19.652708
 21
151.086582
 31
0.0
  0
LINE
  5
55D
102
{ACAD_REACTORS
330
503
102
}
100
AcDbEntity
  8
0
  6
CONTINUOUS
 62
     7
100
AcDbLine
 10
16.152708
 20
115.336582
 30
0.0
 11
16.152708
 21
122.486582
 31
0.0
  0
LINE
  5
55E
102
{ACAD_REACTORS
330
503
102
}
100
AcDbEntity
  8
0
  6
CONTINUOUS
 62
     7
100
AcDbLine
 10
20.152708
 20
115.336582
 30
0.0
 11
20.152708
 21
122.486582
 31
0.0
  0
LINE
  5
55F
102
{ACAD_REACTORS
330
503
102
}
100
AcDbEntity
  8
0
  6
CONTINUOUS
 62
     7
100
AcDbLine
 10
19.652708
 20
124.486582
 30
0.0
 11
16.652708
 21
124.486582
 31
0.0
  0
LINE
  5
560
102
{ACAD_REACTORS
330
503
102
}
100
AcDbEntity
  8
0
  6
CONTINUOUS
 62
     7
100
AcDbLine
 10
16.652708
 20
122.486582
 30
0.0
 11
16.652708
 21
124.486582
 31
0.0
  0
LINE
  5
561
102
{ACAD_REACTORS
330
503
102
}
100
AcDbEntity
  8
0
  6
CONTINUOUS
 62
     7
100
AcDbLine
 10
19.652708
 20
122.486582
 30
0.0
 11
19.652708
 21
124.486582
 31
0.0
  0
LINE
  5
563
102
{ACAD_REACTORS
330
562
102
}
100
AcDbEntity
  8
GR2_01
  6
CONTINUOUS
100
AcDbLine
 10
28.482708
 20
139.856582
 30
0.0
 11
28.482708
 21
138.256582
 31
0.0
  0
LINE
  5
564
102
{ACAD_REACTORS
330
562
102
}
100
AcDbEntity
  8
GR2_01
  6
CONTINUOUS
100
AcDbLine
 10
29.282708
 20
139.856582
 30
0.0
 11
29.282708
 21
138.256582
 31
0.0
  0
LINE
  5
565
102
{ACAD_REACTORS
330
562
102
}
100
AcDbEntity
  8
GR2_01
  6
CONTINUOUS
100
AcDbLine
 10
28.482708
 20
139.856582
 30
0.0
 11
29.282708
 21
139.856582
 31
0.0
  0
LINE
  5
566
102
{ACAD_REACTORS
330
562
102
}
100
AcDbEntity
  8
GR2_01
  6
CONTINUOUS
100
AcDbLine
 10
28.482708
 20
138.256582
 30
0.0
 11
29.282708
 21
138.256582
 31
0.0
  0
LINE
  5
567
102
{ACAD_REACTORS
330
562
102
}
100
AcDbEntity
  8
GR2_01
  6
CONTINUOUS
100
AcDbLine
 10
31.022708
 20
139.856582
 30
0.0
 11
31.022708
 21
138.256582
 31
0.0
  0
LINE
  5
568
102
{ACAD_REACTORS
330
562
102
}
100
AcDbEntity
  8
GR2_01
  6
CONTINUOUS
100
AcDbLine
 10
31.822708
 20
139.856582
 30
0.0
 11
31.822708
 21
138.256582
 31
0.0
  0
LINE
  5
569
102
{ACAD_REACTORS
330
562
102
}
100
AcDbEntity
  8
GR2_01
  6
CONTINUOUS
100
AcDbLine
 10
31.022708
 20
139.856582
 30
0.0
 11
31.822708
 21
139.856582
 31
0.0
  0
LINE
  5
56A
102
{ACAD_REACTORS
330
562
102
}
100
AcDbEntity
  8
GR2_01
  6
CONTINUOUS
100
AcDbLine
 10
31.022708
 20
138.256582
 30
0.0
 11
31.822708
 21
138.256582
 31
0.0
  0
LINE
  5
56B
102
{ACAD_REACTORS
330
562
102
}
100
AcDbEntity
  8
GR2_01
  6
CONTINUOUS
100
AcDbLine
 10
28.482708
 20
142.396582
 30
0.0
 11
28.482708
 21
140.796582
 31
0.0
  0
LINE
  5
56C
102
{ACAD_REACTORS
330
562
102
}
100
AcDbEntity
  8
GR2_01
  6
CONTINUOUS
100
AcDbLine
 10
29.282708
 20
142.396582
 30
0.0
 11
29.282708
 21
140.796582
 31
0.0
  0
LINE
  5
56D
102
{ACAD_REACTORS
330
562
102
}
100
AcDbEntity
  8
GR2_01
  6
CONTINUOUS
100
AcDbLine
 10
28.482708
 20
142.396582
 30
0.0
 11
29.282708
 21
142.396582
 31
0.0
  0
LINE
  5
56E
102
{ACAD_REACTORS
330
562
102
}
100
AcDbEntity
  8
GR2_01
  6
CONTINUOUS
100
AcDbLine
 10
28.482708
 20
140.796582
 30
0.0
 11
29.282708
 21
140.796582
 31
0.0
  0
LINE
  5
56F
102
{ACAD_REACTORS
330
562
102
}
100
AcDbEntity
  8
GR2_01
  6
CONTINUOUS
100
AcDbLine
 10
31.022708
 20
142.396582
 30
0.0
 11
31.022708
 21
140.796582
 31
0.0
  0
LINE
  5
570
102
{ACAD_REACTORS
330
562
102
}
100
AcDbEntity
  8
GR2_01
  6
CONTINUOUS
100
AcDbLine
 10
31.822708
 20
142.396582
 30
0.0
 11
31.822708
 21
140.796582
 31
0.0
  0
LINE
  5
571
102
{ACAD_REACTORS
330
562
102
}
100
AcDbEntity
  8
GR2_01
  6
CONTINUOUS
100
AcDbLine
 10
31.022708
 20
142.396582
 30
0.0
 11
31.822708
 21
142.396582
 31
0.0
  0
LINE
  5
572
102
{ACAD_REACTORS
330
562
102
}
100
AcDbEntity
  8
GR2_01
  6
CONTINUOUS
100
AcDbLine
 10
31.022708
 20
140.796582
 30
0.0
 11
31.822708
 21
140.796582
 31
0.0
  0
LINE
  5
573
102
{ACAD_REACTORS
330
562
102
}
100
AcDbEntity
  8
GR2_01
  6
CONTINUOUS
100
AcDbLine
 10
28.482708
 20
144.936582
 30
0.0
 11
28.482708
 21
143.336582
 31
0.0
  0
LINE
  5
574
102
{ACAD_REACTORS
330
562
102
}
100
AcDbEntity
  8
GR2_01
  6
CONTINUOUS
100
AcDbLine
 10
29.282708
 20
144.936582
 30
0.0
 11
29.282708
 21
143.336582
 31
0.0
  0
LINE
  5
575
102
{ACAD_REACTORS
330
562
102
}
100
AcDbEntity
  8
GR2_01
  6
CONTINUOUS
100
AcDbLine
 10
28.482708
 20
144.936582
 30
0.0
 11
29.282708
 21
144.936582
 31
0.0
  0
LINE
  5
576
102
{ACAD_REACTORS
330
562
102
}
100
AcDbEntity
  8
GR2_01
  6
CONTINUOUS
100
AcDbLine
 10
28.482708
 20
143.336582
 30
0.0
 11
29.282708
 21
143.336582
 31
0.0
  0
LINE
  5
577
102
{ACAD_REACTORS
330
562
102
}
100
AcDbEntity
  8
GR2_01
  6
CONTINUOUS
100
AcDbLine
 10
31.022708
 20
144.936582
 30
0.0
 11
31.022708
 21
143.336582
 31
0.0
  0
LINE
  5
578
102
{ACAD_REACTORS
330
562
102
}
100
AcDbEntity
  8
GR2_01
  6
CONTINUOUS
100
AcDbLine
 10
31.822708
 20
144.936582
 30
0.0
 11
31.822708
 21
143.336582
 31
0.0
  0
LINE
  5
579
102
{ACAD_REACTORS
330
562
102
}
100
AcDbEntity
  8
GR2_01
  6
CONTINUOUS
100
AcDbLine
 10
31.022708
 20
144.936582
 30
0.0
 11
31.822708
 21
144.936582
 31
0.0
  0
LINE
  5
57A
102
{ACAD_REACTORS
330
562
102
}
100
AcDbEntity
  8
GR2_01
  6
CONTINUOUS
100
AcDbLine
 10
31.022708
 20
143.336582
 30
0.0
 11
31.822708
 21
143.336582
 31
0.0
  0
LINE
  5
57B
102
{ACAD_REACTORS
330
562
102
}
100
AcDbEntity
  8
GR2_01
  6
CONTINUOUS
100
AcDbLine
 10
28.482708
 20
147.476582
 30
0.0
 11
28.482708
 21
145.876582
 31
0.0
  0
LINE
  5
57C
102
{ACAD_REACTORS
330
562
102
}
100
AcDbEntity
  8
GR2_01
  6
CONTINUOUS
100
AcDbLine
 10
29.282708
 20
147.476582
 30
0.0
 11
29.282708
 21
145.876582
 31
0.0
  0
LINE
  5
57D
102
{ACAD_REACTORS
330
562
102
}
100
AcDbEntity
  8
GR2_01
  6
CONTINUOUS
100
AcDbLine
 10
28.482708
 20
147.476582
 30
0.0
 11
29.282708
 21
147.476582
 31
0.0
  0
LINE
  5
57E
102
{ACAD_REACTORS
330
562
102
}
100
AcDbEntity
  8
GR2_01
  6
CONTINUOUS
100
AcDbLine
 10
28.482708
 20
145.876582
 30
0.0
 11
29.282708
 21
145.876582
 31
0.0
  0
LINE
  5
57F
102
{ACAD_REACTORS
330
562
102
}
100
AcDbEntity
  8
GR2_01
  6
CONTINUOUS
100
AcDbLine
 10
31.022708
 20
147.476582
 30
0.0
 11
31.022708
 21
145.876582
 31
0.0
  0
LINE
  5
580
102
{ACAD_REACTORS
330
562
102
}
100
AcDbEntity
  8
GR2_01
  6
CONTINUOUS
100
AcDbLine
 10
31.822708
 20
147.476582
 30
0.0
 11
31.822708
 21
145.876582
 31
0.0
  0
LINE
  5
581
102
{ACAD_REACTORS
330
562
102
}
100
AcDbEntity
  8
GR2_01
  6
CONTINUOUS
100
AcDbLine
 10
31.022708
 20
147.476582
 30
0.0
 11
31.822708
 21
147.476582
 31
0.0
  0
LINE
  5
582
102
{ACAD_REACTORS
330
562
102
}
100
AcDbEntity
  8
GR2_01
  6
CONTINUOUS
100
AcDbLine
 10
31.022708
 20
145.876582
 30
0.0
 11
31.822708
 21
145.876582
 31
0.0
  0
LINE
  5
583
102
{ACAD_REACTORS
330
562
102
}
100
AcDbEntity
  8
GR2_01
  6
CONTINUOUS
100
AcDbLine
 10
28.482708
 20
150.016582
 30
0.0
 11
28.482708
 21
148.416582
 31
0.0
  0
LINE
  5
584
102
{ACAD_REACTORS
330
562
102
}
100
AcDbEntity
  8
GR2_01
  6
CONTINUOUS
100
AcDbLine
 10
29.282708
 20
150.016582
 30
0.0
 11
29.282708
 21
148.416582
 31
0.0
  0
LINE
  5
585
102
{ACAD_REACTORS
330
562
102
}
100
AcDbEntity
  8
GR2_01
  6
CONTINUOUS
100
AcDbLine
 10
28.482708
 20
150.016582
 30
0.0
 11
29.282708
 21
150.016582
 31
0.0
  0
LINE
  5
586
102
{ACAD_REACTORS
330
562
102
}
100
AcDbEntity
  8
GR2_01
  6
CONTINUOUS
100
AcDbLine
 10
28.482708
 20
148.416582
 30
0.0
 11
29.282708
 21
148.416582
 31
0.0
  0
LINE
  5
587
102
{ACAD_REACTORS
330
562
102
}
100
AcDbEntity
  8
GR2_01
  6
CONTINUOUS
100
AcDbLine
 10
31.022708
 20
150.016582
 30
0.0
 11
31.022708
 21
148.416582
 31
0.0
  0
LINE
  5
588
102
{ACAD_REACTORS
330
562
102
}
100
AcDbEntity
  8
GR2_01
  6
CONTINUOUS
100
AcDbLine
 10
31.822708
 20
150.016582
 30
0.0
 11
31.822708
 21
148.416582
 31
0.0
  0
LINE
  5
589
102
{ACAD_REACTORS
330
562
102
}
100
AcDbEntity
  8
GR2_01
  6
CONTINUOUS
100
AcDbLine
 10
31.022708
 20
150.016582
 30
0.0
 11
31.822708
 21
150.016582
 31
0.0
  0
LINE
  5
58A
102
{ACAD_REACTORS
330
562
102
}
100
AcDbEntity
  8
GR2_01
  6
CONTINUOUS
100
AcDbLine
 10
31.022708
 20
148.416582
 30
0.0
 11
31.822708
 21
148.416582
 31
0.0
  0
LINE
  5
58B
102
{ACAD_REACTORS
330
562
102
}
100
AcDbEntity
  8
GR2_01
  6
CONTINUOUS
100
AcDbLine
 10
28.482708
 20
135.716582
 30
0.0
 11
28.482708
 21
137.316582
 31
0.0
  0
LINE
  5
58C
102
{ACAD_REACTORS
330
562
102
}
100
AcDbEntity
  8
GR2_01
  6
CONTINUOUS
100
AcDbLine
 10
29.282708
 20
135.716582
 30
0.0
 11
29.282708
 21
137.316582
 31
0.0
  0
LINE
  5
58D
102
{ACAD_REACTORS
330
562
102
}
100
AcDbEntity
  8
GR2_01
  6
CONTINUOUS
100
AcDbLine
 10
28.482708
 20
135.716582
 30
0.0
 11
29.282708
 21
135.716582
 31
0.0
  0
LINE
  5
58E
102
{ACAD_REACTORS
330
562
102
}
100
AcDbEntity
  8
GR2_01
  6
CONTINUOUS
100
AcDbLine
 10
28.482708
 20
137.316582
 30
0.0
 11
29.282708
 21
137.316582
 31
0.0
  0
LINE
  5
58F
102
{ACAD_REACTORS
330
562
102
}
100
AcDbEntity
  8
GR2_01
  6
CONTINUOUS
100
AcDbLine
 10
31.022708
 20
135.716582
 30
0.0
 11
31.022708
 21
137.316582
 31
0.0
  0
LINE
  5
590
102
{ACAD_REACTORS
330
562
102
}
100
AcDbEntity
  8
GR2_01
  6
CONTINUOUS
100
AcDbLine
 10
31.822708
 20
135.716582
 30
0.0
 11
31.822708
 21
137.316582
 31
0.0
  0
LINE
  5
591
102
{ACAD_REACTORS
330
562
102
}
100
AcDbEntity
  8
GR2_01
  6
CONTINUOUS
100
AcDbLine
 10
31.022708
 20
135.716582
 30
0.0
 11
31.822708
 21
135.716582
 31
0.0
  0
LINE
  5
592
102
{ACAD_REACTORS
330
562
102
}
100
AcDbEntity
  8
GR2_01
  6
CONTINUOUS
100
AcDbLine
 10
31.022708
 20
137.316582
 30
0.0
 11
31.822708
 21
137.316582
 31
0.0
  0
LINE
  5
593
102
{ACAD_REACTORS
330
562
102
}
100
AcDbEntity
  8
GR2_01
  6
CONTINUOUS
100
AcDbLine
 10
28.482708
 20
133.176582
 30
0.0
 11
28.482708
 21
134.776582
 31
0.0
  0
LINE
  5
594
102
{ACAD_REACTORS
330
562
102
}
100
AcDbEntity
  8
GR2_01
  6
CONTINUOUS
100
AcDbLine
 10
29.282708
 20
133.176582
 30
0.0
 11
29.282708
 21
134.776582
 31
0.0
  0
LINE
  5
595
102
{ACAD_REACTORS
330
562
102
}
100
AcDbEntity
  8
GR2_01
  6
CONTINUOUS
100
AcDbLine
 10
28.482708
 20
133.176582
 30
0.0
 11
29.282708
 21
133.176582
 31
0.0
  0
LINE
  5
596
102
{ACAD_REACTORS
330
562
102
}
100
AcDbEntity
  8
GR2_01
  6
CONTINUOUS
100
AcDbLine
 10
28.482708
 20
134.776582
 30
0.0
 11
29.282708
 21
134.776582
 31
0.0
  0
LINE
  5
597
102
{ACAD_REACTORS
330
562
102
}
100
AcDbEntity
  8
GR2_01
  6
CONTINUOUS
100
AcDbLine
 10
31.022708
 20
133.176582
 30
0.0
 11
31.022708
 21
134.776582
 31
0.0
  0
LINE
  5
598
102
{ACAD_REACTORS
330
562
102
}
100
AcDbEntity
  8
GR2_01
  6
CONTINUOUS
100
AcDbLine
 10
31.822708
 20
133.176582
 30
0.0
 11
31.822708
 21
134.776582
 31
0.0
  0
LINE
  5
599
102
{ACAD_REACTORS
330
562
102
}
100
AcDbEntity
  8
GR2_01
  6
CONTINUOUS
100
AcDbLine
 10
31.022708
 20
133.176582
 30
0.0
 11
31.822708
 21
133.176582
 31
0.0
  0
LINE
  5
59A
102
{ACAD_REACTORS
330
562
102
}
100
AcDbEntity
  8
GR2_01
  6
CONTINUOUS
100
AcDbLine
 10
31.022708
 20
134.776582
 30
0.0
 11
31.822708
 21
134.776582
 31
0.0
  0
LINE
  5
59B
102
{ACAD_REACTORS
330
562
102
}
100
AcDbEntity
  8
GR2_01
  6
CONTINUOUS
100
AcDbLine
 10
28.482708
 20
130.636582
 30
0.0
 11
28.482708
 21
132.236582
 31
0.0
  0
LINE
  5
59C
102
{ACAD_REACTORS
330
562
102
}
100
AcDbEntity
  8
GR2_01
  6
CONTINUOUS
100
AcDbLine
 10
29.282708
 20
130.636582
 30
0.0
 11
29.282708
 21
132.236582
 31
0.0
  0
LINE
  5
59D
102
{ACAD_REACTORS
330
562
102
}
100
AcDbEntity
  8
GR2_01
  6
CONTINUOUS
100
AcDbLine
 10
28.482708
 20
130.636582
 30
0.0
 11
29.282708
 21
130.636582
 31
0.0
  0
LINE
  5
59E
102
{ACAD_REACTORS
330
562
102
}
100
AcDbEntity
  8
GR2_01
  6
CONTINUOUS
100
AcDbLine
 10
28.482708
 20
132.236582
 30
0.0
 11
29.282708
 21
132.236582
 31
0.0
  0
LINE
  5
59F
102
{ACAD_REACTORS
330
562
102
}
100
AcDbEntity
  8
GR2_01
  6
CONTINUOUS
100
AcDbLine
 10
31.022708
 20
130.636582
 30
0.0
 11
31.022708
 21
132.236582
 31
0.0
  0
LINE
  5
5A0
102
{ACAD_REACTORS
330
562
102
}
100
AcDbEntity
  8
GR2_01
  6
CONTINUOUS
100
AcDbLine
 10
31.822708
 20
130.636582
 30
0.0
 11
31.822708
 21
132.236582
 31
0.0
  0
LINE
  5
5A1
102
{ACAD_REACTORS
330
562
102
}
100
AcDbEntity
  8
GR2_01
  6
CONTINUOUS
100
AcDbLine
 10
31.022708
 20
130.636582
 30
0.0
 11
31.822708
 21
130.636582
 31
0.0
  0
LINE
  5
5A2
102
{ACAD_REACTORS
330
562
102
}
100
AcDbEntity
  8
GR2_01
  6
CONTINUOUS
100
AcDbLine
 10
31.022708
 20
132.236582
 30
0.0
 11
31.822708
 21
132.236582
 31
0.0
  0
LINE
  5
5A3
102
{ACAD_REACTORS
330
562
102
}
100
AcDbEntity
  8
GR2_01
  6
CONTINUOUS
100
AcDbLine
 10
28.482708
 20
128.096582
 30
0.0
 11
28.482708
 21
129.696582
 31
0.0
  0
LINE
  5
5A4
102
{ACAD_REACTORS
330
562
102
}
100
AcDbEntity
  8
GR2_01
  6
CONTINUOUS
100
AcDbLine
 10
29.282708
 20
128.096582
 30
0.0
 11
29.282708
 21
129.696582
 31
0.0
  0
LINE
  5
5A5
102
{ACAD_REACTORS
330
562
102
}
100
AcDbEntity
  8
GR2_01
  6
CONTINUOUS
100
AcDbLine
 10
28.482708
 20
128.096582
 30
0.0
 11
29.282708
 21
128.096582
 31
0.0
  0
LINE
  5
5A6
102
{ACAD_REACTORS
330
562
102
}
100
AcDbEntity
  8
GR2_01
  6
CONTINUOUS
100
AcDbLine
 10
28.482708
 20
129.696582
 30
0.0
 11
29.282708
 21
129.696582
 31
0.0
  0
LINE
  5
5A7
102
{ACAD_REACTORS
330
562
102
}
100
AcDbEntity
  8
GR2_01
  6
CONTINUOUS
100
AcDbLine
 10
31.022708
 20
128.096582
 30
0.0
 11
31.022708
 21
129.696582
 31
0.0
  0
LINE
  5
5A8
102
{ACAD_REACTORS
330
562
102
}
100
AcDbEntity
  8
GR2_01
  6
CONTINUOUS
100
AcDbLine
 10
31.822708
 20
128.096582
 30
0.0
 11
31.822708
 21
129.696582
 31
0.0
  0
LINE
  5
5A9
102
{ACAD_REACTORS
330
562
102
}
100
AcDbEntity
  8
GR2_01
  6
CONTINUOUS
100
AcDbLine
 10
31.022708
 20
128.096582
 30
0.0
 11
31.822708
 21
128.096582
 31
0.0
  0
LINE
  5
5AA
102
{ACAD_REACTORS
330
562
102
}
100
AcDbEntity
  8
GR2_01
  6
CONTINUOUS
100
AcDbLine
 10
31.022708
 20
129.696582
 30
0.0
 11
31.822708
 21
129.696582
 31
0.0
  0
LINE
  5
5AB
102
{ACAD_REACTORS
330
562
102
}
100
AcDbEntity
  8
GR2_01
  6
CONTINUOUS
100
AcDbLine
 10
28.482708
 20
125.556582
 30
0.0
 11
28.482708
 21
127.156582
 31
0.0
  0
LINE
  5
5AC
102
{ACAD_REACTORS
330
562
102
}
100
AcDbEntity
  8
GR2_01
  6
CONTINUOUS
100
AcDbLine
 10
29.282708
 20
125.556582
 30
0.0
 11
29.282708
 21
127.156582
 31
0.0
  0
LINE
  5
5AD
102
{ACAD_REACTORS
330
562
102
}
100
AcDbEntity
  8
GR2_01
  6
CONTINUOUS
100
AcDbLine
 10
28.482708
 20
125.556582
 30
0.0
 11
29.282708
 21
125.556582
 31
0.0
  0
LINE
  5
5AE
102
{ACAD_REACTORS
330
562
102
}
100
AcDbEntity
  8
GR2_01
  6
CONTINUOUS
100
AcDbLine
 10
28.482708
 20
127.156582
 30
0.0
 11
29.282708
 21
127.156582
 31
0.0
  0
LINE
  5
5AF
102
{ACAD_REACTORS
330
562
102
}
100
AcDbEntity
  8
GR2_01
  6
CONTINUOUS
100
AcDbLine
 10
31.022708
 20
125.556582
 30
0.0
 11
31.022708
 21
127.156582
 31
0.0
  0
LINE
  5
5B0
102
{ACAD_REACTORS
330
562
102
}
100
AcDbEntity
  8
GR2_01
  6
CONTINUOUS
100
AcDbLine
 10
31.822708
 20
125.556582
 30
0.0
 11
31.822708
 21
127.156582
 31
0.0
  0
LINE
  5
5B1
102
{ACAD_REACTORS
330
562
102
}
100
AcDbEntity
  8
GR2_01
  6
CONTINUOUS
100
AcDbLine
 10
31.022708
 20
125.556582
 30
0.0
 11
31.822708
 21
125.556582
 31
0.0
  0
LINE
  5
5B2
102
{ACAD_REACTORS
330
562
102
}
100
AcDbEntity
  8
GR2_01
  6
CONTINUOUS
100
AcDbLine
 10
31.022708
 20
127.156582
 30
0.0
 11
31.822708
 21
127.156582
 31
0.0
  0
LINE
  5
5B3
102
{ACAD_REACTORS
330
562
102
}
100
AcDbEntity
  8
0
  6
CONTINUOUS
 62
     7
100
AcDbLine
 10
27.152708
 20
153.086582
 30
0.0
 11
27.152708
 21
122.486582
 31
0.0
  0
LINE
  5
5B4
102
{ACAD_REACTORS
330
562
102
}
100
AcDbEntity
  8
0
  6
CONTINUOUS
 62
     7
100
AcDbLine
 10
27.152708
 20
122.486582
 30
0.0
 11
33.152708
 21
122.486582
 31
0.0
  0
LINE
  5
5B5
102
{ACAD_REACTORS
330
562
102
}
100
AcDbEntity
  8
0
  6
CONTINUOUS
 62
     7
100
AcDbLine
 10
33.152708
 20
122.486582
 30
0.0
 11
33.152708
 21
153.086582
 31
0.0
  0
LINE
  5
5B6
102
{ACAD_REACTORS
330
562
102
}
100
AcDbEntity
  8
0
  6
CONTINUOUS
 62
     7
100
AcDbLine
 10
33.152708
 20
153.086582
 30
0.0
 11
27.152708
 21
153.086582
 31
0.0
  0
LINE
  5
5B7
102
{ACAD_REACTORS
330
562
102
}
100
AcDbEntity
  8
0
  6
CONTINUOUS
 62
     7
100
AcDbLine
 10
28.152708
 20
160.236582
 30
0.0
 11
28.152708
 21
153.086582
 31
0.0
  0
LINE
  5
5B8
102
{ACAD_REACTORS
330
562
102
}
100
AcDbEntity
  8
0
  6
CONTINUOUS
 62
     7
100
AcDbLine
 10
32.152708
 20
160.236582
 30
0.0
 11
32.152708
 21
153.086582
 31
0.0
  0
LINE
  5
5B9
102
{ACAD_REACTORS
330
562
102
}
100
AcDbEntity
  8
0
  6
CONTINUOUS
 62
     7
100
AcDbLine
 10
31.652708
 20
151.086582
 30
0.0
 11
28.652708
 21
151.086582
 31
0.0
  0
LINE
  5
5BA
102
{ACAD_REACTORS
330
562
102
}
100
AcDbEntity
  8
0
  6
CONTINUOUS
 62
     7
100
AcDbLine
 10
28.652708
 20
153.086582
 30
0.0
 11
28.652708
 21
151.086582
 31
0.0
  0
LINE
  5
5BB
102
{ACAD_REACTORS
330
562
102
}
100
AcDbEntity
  8
0
  6
CONTINUOUS
 62
     7
100
AcDbLine
 10
31.652708
 20
153.086582
 30
0.0
 11
31.652708
 21
151.086582
 31
0.0
  0
LINE
  5
5BC
102
{ACAD_REACTORS
330
562
102
}
100
AcDbEntity
  8
0
  6
CONTINUOUS
 62
     7
100
AcDbLine
 10
28.152708
 20
115.336582
 30
0.0
 11
28.152708
 21
122.486582
 31
0.0
  0
LINE
  5
5BD
102
{ACAD_REACTORS
330
562
102
}
100
AcDbEntity
  8
0
  6
CONTINUOUS
 62
     7
100
AcDbLine
 10
32.152708
 20
115.336582
 30
0.0
 11
32.152708
 21
122.486582
 31
0.0
  0
LINE
  5
5BE
102
{ACAD_REACTORS
330
562
102
}
100
AcDbEntity
  8
0
  6
CONTINUOUS
 62
     7
100
AcDbLine
 10
31.652708
 20
124.486582
 30
0.0
 11
28.652708
 21
124.486582
 31
0.0
  0
LINE
  5
5BF
102
{ACAD_REACTORS
330
562
102
}
100
AcDbEntity
  8
0
  6
CONTINUOUS
 62
     7
100
AcDbLine
 10
28.652708
 20
122.486582
 30
0.0
 11
28.652708
 21
124.486582
 31
0.0
  0
LINE
  5
5C0
102
{ACAD_REACTORS
330
562
102
}
100
AcDbEntity
  8
0
  6
CONTINUOUS
 62
     7
100
AcDbLine
 10
31.652708
 20
122.486582
 30
0.0
 11
31.652708
 21
124.486582
 31
0.0
  0
LINE
  5
5C1
100
AcDbEntity
  8
0
  6
CONTINUOUS
 62
     7
100
AcDbLine
 10
81.752708
 20
173.386582
 30
0.0
 11
81.752708
 21
173.186582
 31
0.0
  0
LINE
  5
5C2
100
AcDbEntity
  8
0
  6
CONTINUOUS
 62
     7
100
AcDbLine
 10
94.152708
 20
173.186582
 30
0.0
 11
81.561043
 21
173.186582
 31
0.0
  0
LINE
  5
5C3
100
AcDbEntity
  8
GR2_01
  6
CONTINUOUS
 62
     7
100
AcDbLine
 10
80.67301
 20
171.886582
 30
0.0
 11
80.294096
 21
171.886582
 31
0.0
  0
LINE
  5
5C4
100
AcDbEntity
  8
GR2_01
  6
CONTINUOUS
 62
     7
100
AcDbLine
 10
80.294096
 20
171.886582
 30
0.0
 11
80.294096
 21
171.386582
 31
0.0
  0
LINE
  5
5C6
102
{ACAD_REACTORS
330
5C5
102
}
100
AcDbEntity
  8
GR2_01
  6
CONTINUOUS
100
AcDbLine
 10
47.352708
 20
0.450922
 30
0.0
 11
103.352708
 21
0.450922
 31
0.0
  0
LINE
  5
5C7
102
{ACAD_REACTORS
330
5C5
102
}
100
AcDbEntity
  8
GR2_01
  6
CONTINUOUS
100
AcDbLine
 10
81.352708
 20
0.450922
 30
0.0
 11
81.352708
 21
4.450922
 31
0.0
  0
ARC
  5
5C8
102
{ACAD_REACTORS
330
5C5
102
}
100
AcDbEntity
  8
GR2_01
  6
CONTINUOUS
100
AcDbCircle
 10
80.852708
 20
4.450922
 30
0.0
 40
0.5
100
AcDbArc
 50
0.0
 51
90.0
  0
LINE
  5
5C9
102
{ACAD_REACTORS
330
5C5
102
}
100
AcDbEntity
  8
GR2_01
  6
CONTINUOUS
100
AcDbLine
 10
69.352708
 20
0.450922
 30
0.0
 11
69.352708
 21
4.450922
 31
0.0
  0
ARC
  5
5CA
102
{ACAD_REACTORS
330
5C5
102
}
100
AcDbEntity
  8
GR2_01
  6
CONTINUOUS
100
AcDbCircle
 10
69.852708
 20
4.450922
 30
0.0
 40
0.5
100
AcDbArc
 50
90.0
 51
180.0
  0
LINE
  5
5CB
102
{ACAD_REACTORS
330
5C5
102
}
100
AcDbEntity
  8
GR2_01
  6
CONTINUOUS
100
AcDbLine
 10
73.0075
 20
0.450922
 30
0.0
 11
73.0075
 21
4.950922
 31
0.0
  0
LINE
  5
5CC
102
{ACAD_REACTORS
330
5C5
102
}
100
AcDbEntity
  8
GR2_01
  6
CONTINUOUS
100
AcDbLine
 10
77.697915
 20
4.950922
 30
0.0
 11
77.697915
 21
0.450922
 31
0.0
  0
LINE
  5
5CD
100
AcDbEntity
  8
GR2_01
  6
CONTINUOUS
 62
     7
100
AcDbLine
 10
47.352708
 20
4.950922
 30
0.0
 11
103.352708
 21
4.950922
 31
0.0
  0
LINE
  5
5CE
100
AcDbEntity
  8
GR2_01
  6
CONTINUOUS
 62
     7
100
AcDbLine
 10
103.352708
 20
0.150922
 30
0.0
 11
103.352708
 21
4.950922
 31
0.0
  0
LINE
  5
5CF
100
AcDbEntity
  8
GR2_01
  6
CONTINUOUS
 62
     7
100
AcDbLine
 10
95.352708
 20
6.682972
 30
0.0
 11
99.352708
 21
6.682972
 31
0.0
  0
LINE
  5
5D0
100
AcDbEntity
  8
GR2_01
  6
CONTINUOUS
 62
     7
100
AcDbLine
 10
99.352708
 20
6.682972
 30
0.0
 11
99.352708
 21
4.950922
 31
0.0
  0
LINE
  5
5D1
100
AcDbEntity
  8
GR2_01
  6
CONTINUOUS
 62
     7
100
AcDbLine
 10
95.352708
 20
6.682972
 30
0.0
 11
95.352708
 21
4.950922
 31
0.0
  0
LINE
  5
5D2
100
AcDbEntity
  8
GR2_01
  6
CONTINUOUS
 62
     7
100
AcDbLine
 10
47.352708
 20
0.150922
 30
0.0
 11
47.352708
 21
4.950922
 31
0.0
  0
LINE
  5
5D3
100
AcDbEntity
  8
GR2_01
  6
CONTINUOUS
 62
     7
100
AcDbLine
 10
55.352708
 20
6.682972
 30
0.0
 11
51.352708
 21
6.682972
 31
0.0
  0
LINE
  5
5D4
100
AcDbEntity
  8
GR2_01
  6
CONTINUOUS
 62
     7
100
AcDbLine
 10
51.352708
 20
6.682972
 30
0.0
 11
51.352708
 21
4.950922
 31
0.0
  0
LINE
  5
5D5
100
AcDbEntity
  8
GR2_01
  6
CONTINUOUS
 62
     7
100
AcDbLine
 10
55.352708
 20
6.682972
 30
0.0
 11
55.352708
 21
4.950922
 31
0.0
  0
LINE
  5
5D6
100
AcDbEntity
  8
0
  6
CONTINUOUS
 62
     7
100
AcDbLine
 10
132.357708
 20
14.050922
 30
0.0
 11
132.357708
 21
13.390303
 31
0.0
  0
LINE
  5
5D7
100
AcDbEntity
  8
0
  6
CONTINUOUS
 62
     7
100
AcDbLine
 10
132.357708
 20
39.800922
 30
0.0
 11
132.357708
 21
14.050922
 31
0.0
  0
LINE
  5
5D8
100
AcDbEntity
  8
0
  6
CONTINUOUS
 62
     7
100
AcDbLine
 10
56.87301
 20
14.050922
 30
0.0
 11
56.352708
 21
14.050922
 31
0.0
  0
LINE
  5
5D9
100
AcDbEntity
  8
0
  6
CONTINUOUS
 62
     7
100
AcDbLine
 10
132.852708
 20
14.050922
 30
0.0
 11
132.357708
 21
14.050922
 31
0.0
  0
LINE
  5
5DA
100
AcDbEntity
  8
0
  6
CONTINUOUS
 62
     7
100
AcDbLine
 10
9.352708
 20
11.206077
 30
0.0
 11
141.352708
 21
11.206077
 31
0.0
  0
LINE
  5
5DB
100
AcDbEntity
  8
0
  6
CONTINUOUS
 62
     7
100
AcDbLine
 10
9.352708
 20
11.595767
 30
0.0
 11
141.353818
 21
11.595767
 31
0.0
  0
LWPOLYLINE
  5
5DC
100
AcDbEntity
  8
0
  6
CONTINUOUS
 62
   253
100
AcDbPolyline
 90
        2
 70
     1
 10
112.99131
 20
127.886582
 10
112.981052
 20
127.886582
  0
LINE
  5
5DD
100
AcDbEntity
  8
0
  6
CONTINUOUS
 62
     7
100
AcDbLine
 10
117.124105
 20
127.886582
 30
0.0
 11
117.134364
 21
127.886582
 31
0.0
  0
LINE
  5
5DE
100
AcDbEntity
  8
0
  6
CONTINUOUS
 62
     7
100
AcDbLine
 10
117.134364
 20
127.886582
 30
0.0
 11
117.124105
 21
127.886582
 31
0.0
  0
ARC
  5
5DF
100
AcDbEntity
  8
0
  6
CONTINUOUS
 62
     7
100
AcDbCircle
 10
115.057707
 20
125.186582
 30
0.0
 40
3.4
100
AcDbArc
 50
52.572
 51
127.428
  0
ARC
  5
5E0
100
AcDbEntity
  8
0
  6
CONTINUOUS
 62
     7
100
AcDbCircle
 10
107.437708
 20
125.186582
 30
0.0
 40
3.4
100
AcDbArc
 50
52.572
 51
127.428
  0
ARC
  5
5E1
100
AcDbEntity
  8
0
  6
CONTINUOUS
 62
     7
100
AcDbCircle
 10
99.817708
 20
125.186582
 30
0.0
 40
3.4
100
AcDbArc
 50
52.572
 51
127.428
  0
ARC
  5
5E2
100
AcDbEntity
  8
0
  6
CONTINUOUS
 62
     7
100
AcDbCircle
 10
92.197708
 20
125.186582
 30
0.0
 40
3.4
100
AcDbArc
 50
52.572
 51
127.428
  0
ARC
  5
5E3
100
AcDbEntity
  8
0
  6
CONTINUOUS
 62
     7
100
AcDbCircle
 10
69.337708
 20
125.186582
 30
0.0
 40
3.4
100
AcDbArc
 50
52.572
 51
127.428
  0
ARC
  5
5E4
100
AcDbEntity
  8
0
  6
CONTINUOUS
 62
     7
100
AcDbCircle
 10
84.577708
 20
125.186582
 30
0.0
 40
3.4
100
AcDbArc
 50
52.572
 51
127.428
  0
ARC
  5
5E5
100
AcDbEntity
  8
0
  6
CONTINUOUS
 62
     7
100
AcDbCircle
 10
76.957708
 20
125.186582
 30
0.0
 40
3.4
100
AcDbArc
 50
52.572
 51
127.428
  0
LINE
  5
5E7
102
{ACAD_REACTORS
330
5E6
102
}
100
AcDbEntity
  8
GR2_01
  6
CONTINUOUS
100
AcDbLine
 10
133.852708
 20
140.911582
 30
0.0
 11
137.852708
 21
140.911582
 31
0.0
  0
LINE
  5
5E8
102
{ACAD_REACTORS
330
5E6
102
}
100
AcDbEntity
  8
GR2_01
  6
CONTINUOUS
100
AcDbLine
 10
132.852708
 20
143.661582
 30
0.0
 11
132.852708
 21
141.911582
 31
0.0
  0
ARC
  5
5E9
102
{ACAD_REACTORS
330
5E6
102
}
100
AcDbEntity
  8
GR2_01
  6
CONTINUOUS
100
AcDbCircle
 10
133.852708
 20
143.661582
 30
0.0
 40
1.0
100
AcDbArc
 50
90.0
 51
180.0
  0
ARC
  5
5EA
102
{ACAD_REACTORS
330
5E6
102
}
100
AcDbEntity
  8
GR2_01
  6
CONTINUOUS
100
AcDbCircle
 10
133.852708
 20
141.911582
 30
0.0
 40
1.0
100
AcDbArc
 50
180.0
 51
270.0
  0
ARC
  5
5EB
102
{ACAD_REACTORS
330
5E6
102
}
100
AcDbEntity
  8
GR2_01
  6
CONTINUOUS
100
AcDbCircle
 10
137.852708
 20
141.911582
 30
0.0
 40
1.0
100
AcDbArc
 50
270.0
 51
0.0
  0
ARC
  5
5EC
102
{ACAD_REACTORS
330
5E6
102
}
100
AcDbEntity
  8
GR2_01
  6
CONTINUOUS
100
AcDbCircle
 10
137.852708
 20
143.661582
 30
0.0
 40
1.0
100
AcDbArc
 50
0.0
 51
90.0
  0
LINE
  5
5ED
102
{ACAD_REACTORS
330
5E6
102
}
100
AcDbEntity
  8
GR2_01
  6
CONTINUOUS
100
AcDbLine
 10
138.852708
 20
143.661582
 30
0.0
 11
138.852708
 21
141.911582
 31
0.0
  0
LINE
  5
5EE
102
{ACAD_REACTORS
330
5E6
102
}
100
AcDbEntity
  8
GR2_01
  6
CONTINUOUS
100
AcDbLine
 10
133.852708
 20
144.661582
 30
0.0
 11
137.852708
 21
144.661582
 31
0.0
  0
LINE
  5
5EF
100
AcDbEntity
  8
0
  6
CONTINUOUS
 62
     7
100
AcDbLine
 10
247.044103
 20
174.886582
 30
0.0
 11
247.044103
 21
165.867579
 31
0.0
  0
LINE
  5
5F0
100
AcDbEntity
  8
GR1_01
  6
CONTINUOUS
 62
     7
100
AcDbLine
 10
242.327559
 20
165.886582
 30
0.0
 11
247.03665
 21
165.886582
 31
0.0
  0
MTEXT
  5
5F1
100
AcDbEntity
  8
GR2_01
100
AcDbMText
 10
219.553309
 20
68.624842
 30
0.0
 40
1.818983
 41
14.108138
 71
     8
 72
     5
  1
\C94;\fＭＳ Ｐゴシック|b0|i0|;\H1.8189826607704;\M+18257\M+18250
  7
HORIZONTALBIGFONT
 11
1.0
 21
0.0
 31
0.0
  0
LINE
  5
5F2
100
AcDbEntity
  8
GR2_01
  6
CONTINUOUS
 62
     7
100
AcDbLine
 10
179.035239
 20
68.357168
 30
0.0
 11
260.07138
 21
68.357168
 31
0.0
  0
LINE
  5
5F4
102
{ACAD_REACTORS
330
5F3
102
}
100
AcDbEntity
  8
GR2_01
  6
CONTINUOUS
100
AcDbLine
 10
179.035239
 20
68.357168
 30
0.0
 11
181.535239
 21
68.357168
 31
0.0
  0
LINE
  5
5F5
102
{ACAD_REACTORS
330
5F3
102
}
100
AcDbEntity
  8
GR2_01
  6
CONTINUOUS
100
AcDbLine
 10
179.035239
 20
68.357168
 30
0.0
 11
181.450054
 21
69.004216
 31
0.0
  0
LINE
  5
5F6
102
{ACAD_REACTORS
330
5F3
102
}
100
AcDbEntity
  8
GR2_01
  6
CONTINUOUS
100
AcDbLine
 10
179.035239
 20
68.357168
 30
0.0
 11
181.450054
 21
67.710121
 31
0.0
  0
LINE
  5
5F8
102
{ACAD_REACTORS
330
5F7
102
}
100
AcDbEntity
  8
GR2_01
  6
CONTINUOUS
100
AcDbLine
 10
260.07138
 20
68.357168
 30
0.0
 11
257.57138
 21
68.357168
 31
0.0
  0
LINE
  5
5F9
102
{ACAD_REACTORS
330
5F7
102
}
100
AcDbEntity
  8
GR2_01
  6
CONTINUOUS
100
AcDbLine
 10
260.07138
 20
68.357168
 30
0.0
 11
257.656565
 21
69.004216
 31
0.0
  0
LINE
  5
5FA
102
{ACAD_REACTORS
330
5F7
102
}
100
AcDbEntity
  8
GR2_01
  6
CONTINUOUS
100
AcDbLine
 10
260.07138
 20
68.357168
 30
0.0
 11
257.656565
 21
67.710121
 31
0.0
  0
LINE
  5
5FB
100
AcDbEntity
  8
0
  6
CONTINUOUS
 62
     7
100
AcDbLine
 10
9.405079
 20
13.150922
 30
0.0
 11
2.515431
 21
13.150922
 31
0.0
  0
LINE
  5
5FC
100
AcDbEntity
  8
0
  6
CONTINUOUS
 62
     7
100
AcDbLine
 10
9.436954
 20
0.2023
 30
0.0
 11
2.648765
 21
0.2023
 31
0.0
  0
MTEXT
  5
5FD
100
AcDbEntity
  8
GR2_01
100
AcDbMText
 10
3.563381
 20
6.672885
 30
0.0
 40
1.818983
 41
13.257576
 71
     8
 72
     5
  1
\C94;\fＭＳ Ｐゴシック|b0|i0|;\H1.8189826607704;\M+18250\M+18252
  7
HORIZONTALBIGFONT
 11
0.0
 21
1.0
 31
0.0
  0
LINE
  5
5FF
102
{ACAD_REACTORS
330
5FE
102
}
100
AcDbEntity
  8
GR2_01
  6
CONTINUOUS
100
AcDbLine
 10
3.814891
 20
0.2023
 30
0.0
 11
3.814891
 21
2.7023
 31
0.0
  0
LINE
  5
600
102
{ACAD_REACTORS
330
5FE
102
}
100
AcDbEntity
  8
GR2_01
  6
CONTINUOUS
100
AcDbLine
 10
3.814891
 20
0.2023
 30
0.0
 11
3.167843
 21
2.617115
 31
0.0
  0
LINE
  5
601
102
{ACAD_REACTORS
330
5FE
102
}
100
AcDbEntity
  8
GR2_01
  6
CONTINUOUS
100
AcDbLine
 10
3.814891
 20
0.2023
 30
0.0
 11
4.461938
 21
2.617115
 31
0.0
  0
LINE
  5
603
102
{ACAD_REACTORS
330
602
102
}
100
AcDbEntity
  8
GR2_01
  6
CONTINUOUS
100
AcDbLine
 10
3.814891
 20
13.150922
 30
0.0
 11
3.814891
 21
10.650922
 31
0.0
  0
LINE
  5
604
102
{ACAD_REACTORS
330
602
102
}
100
AcDbEntity
  8
GR2_01
  6
CONTINUOUS
100
AcDbLine
 10
3.814891
 20
13.150922
 30
0.0
 11
3.167843
 21
10.736107
 31
0.0
  0
LINE
  5
605
102
{ACAD_REACTORS
330
602
102
}
100
AcDbEntity
  8
GR2_01
  6
CONTINUOUS
100
AcDbLine
 10
3.814891
 20
13.150922
 30
0.0
 11
4.461938
 21
10.736107
 31
0.0
  0
LINE
  5
606
100
AcDbEntity
  8
GR1_01
  6
CONTINUOUS
 62
     7
100
AcDbLine
 10
3.814891
 20
0.194848
 30
0.0
 11
3.814891
 21
13.150922
 31
0.0
  0
LINE
  5
608
102
{ACAD_REACTORS
330
607
102
}
100
AcDbEntity
  8
GR1_01
  6
CONTINUOUS
100
AcDbLine
 10
13.352708
 20
189.357158
 30
0.0
 11
15.852708
 21
189.357158
 31
0.0
  0
LINE
  5
609
102
{ACAD_REACTORS
330
607
102
}
100
AcDbEntity
  8
GR1_01
  6
CONTINUOUS
100
AcDbLine
 10
13.352708
 20
189.357158
 30
0.0
 11
15.767522
 21
190.004205
 31
0.0
  0
LINE
  5
60A
102
{ACAD_REACTORS
330
607
102
}
100
AcDbEntity
  8
GR1_01
  6
CONTINUOUS
100
AcDbLine
 10
13.352708
 20
189.357158
 30
0.0
 11
15.767522
 21
188.71011
 31
0.0
  0
LINE
  5
60C
102
{ACAD_REACTORS
330
60B
102
}
100
AcDbEntity
  8
GR1_01
  6
CONTINUOUS
100
AcDbLine
 10
136.352708
 20
189.357158
 30
0.0
 11
133.852708
 21
189.357158
 31
0.0
  0
LINE
  5
60D
102
{ACAD_REACTORS
330
60B
102
}
100
AcDbEntity
  8
GR1_01
  6
CONTINUOUS
100
AcDbLine
 10
136.352708
 20
189.357158
 30
0.0
 11
133.937893
 21
190.004205
 31
0.0
  0
LINE
  5
60E
102
{ACAD_REACTORS
330
60B
102
}
100
AcDbEntity
  8
GR1_01
  6
CONTINUOUS
100
AcDbLine
 10
136.352708
 20
189.357158
 30
0.0
 11
133.937893
 21
188.71011
 31
0.0
  0
LINE
  5
610
102
{ACAD_REACTORS
330
60F
102
}
100
AcDbEntity
  8
GR1_01
  6
CONTINUOUS
100
AcDbLine
 10
140.852708
 20
189.357158
 30
0.0
 11
143.352708
 21
189.357158
 31
0.0
  0
LINE
  5
611
102
{ACAD_REACTORS
330
60F
102
}
100
AcDbEntity
  8
GR1_01
  6
CONTINUOUS
100
AcDbLine
 10
140.852708
 20
189.357158
 30
0.0
 11
143.267522
 21
190.004205
 31
0.0
  0
LINE
  5
612
102
{ACAD_REACTORS
330
60F
102
}
100
AcDbEntity
  8
GR1_01
  6
CONTINUOUS
100
AcDbLine
 10
140.852708
 20
189.357158
 30
0.0
 11
143.267522
 21
188.71011
 31
0.0
  0
LINE
  5
614
102
{ACAD_REACTORS
330
613
102
}
100
AcDbEntity
  8
GR2_01
  6
CONTINUOUS
100
AcDbLine
 10
149.385615
 20
172.486582
 30
0.0
 11
149.385615
 21
174.986582
 31
0.0
  0
LINE
  5
615
102
{ACAD_REACTORS
330
613
102
}
100
AcDbEntity
  8
GR2_01
  6
CONTINUOUS
100
AcDbLine
 10
149.385615
 20
172.486582
 30
0.0
 11
148.738568
 21
174.901396
 31
0.0
  0
LINE
  5
616
102
{ACAD_REACTORS
330
613
102
}
100
AcDbEntity
  8
GR2_01
  6
CONTINUOUS
100
AcDbLine
 10
149.385615
 20
172.486582
 30
0.0
 11
150.032663
 21
174.901396
 31
0.0
  0
LINE
  5
618
102
{ACAD_REACTORS
330
617
102
}
100
AcDbEntity
  8
GR1_01
  6
CONTINUOUS
100
AcDbLine
 10
158.485615
 20
170.386582
 30
0.0
 11
158.485615
 21
167.886582
 31
0.0
  0
LINE
  5
619
102
{ACAD_REACTORS
330
617
102
}
100
AcDbEntity
  8
GR1_01
  6
CONTINUOUS
100
AcDbLine
 10
158.485615
 20
170.386582
 30
0.0
 11
157.838568
 21
167.971767
 31
0.0
  0
LINE
  5
61A
102
{ACAD_REACTORS
330
617
102
}
100
AcDbEntity
  8
GR1_01
  6
CONTINUOUS
100
AcDbLine
 10
158.485615
 20
170.386582
 30
0.0
 11
159.132663
 21
167.971767
 31
0.0
  0
LINE
  5
61C
102
{ACAD_REACTORS
330
61B
102
}
100
AcDbEntity
  8
GR2_01
  6
CONTINUOUS
100
AcDbLine
 10
149.385615
 20
168.286582
 30
0.0
 11
149.385615
 21
165.786582
 31
0.0
  0
LINE
  5
61D
102
{ACAD_REACTORS
330
61B
102
}
100
AcDbEntity
  8
GR2_01
  6
CONTINUOUS
100
AcDbLine
 10
149.385615
 20
168.286582
 30
0.0
 11
148.738568
 21
165.871767
 31
0.0
  0
LINE
  5
61E
102
{ACAD_REACTORS
330
61B
102
}
100
AcDbEntity
  8
GR2_01
  6
CONTINUOUS
100
AcDbLine
 10
149.385615
 20
168.286582
 30
0.0
 11
150.032663
 21
165.871767
 31
0.0
  0
LINE
  5
620
102
{ACAD_REACTORS
330
61F
102
}
100
AcDbEntity
  8
GR1_01
  6
CONTINUOUS
100
AcDbLine
 10
167.577503
 20
174.886582
 30
0.0
 11
167.577503
 21
172.386582
 31
0.0
  0
LINE
  5
621
102
{ACAD_REACTORS
330
61F
102
}
100
AcDbEntity
  8
GR1_01
  6
CONTINUOUS
100
AcDbLine
 10
167.577503
 20
174.886582
 30
0.0
 11
166.930455
 21
172.471767
 31
0.0
  0
LINE
  5
622
102
{ACAD_REACTORS
330
61F
102
}
100
AcDbEntity
  8
GR1_01
  6
CONTINUOUS
100
AcDbLine
 10
167.577503
 20
174.886582
 30
0.0
 11
168.224551
 21
172.471767
 31
0.0
  0
LINE
  5
624
102
{ACAD_REACTORS
330
623
102
}
100
AcDbEntity
  8
GR1_01
  6
CONTINUOUS
100
AcDbLine
 10
158.485615
 20
105.186582
 30
0.0
 11
158.485615
 21
107.686582
 31
0.0
  0
LINE
  5
625
102
{ACAD_REACTORS
330
623
102
}
100
AcDbEntity
  8
GR1_01
  6
CONTINUOUS
100
AcDbLine
 10
158.485615
 20
105.186582
 30
0.0
 11
157.838568
 21
107.601396
 31
0.0
  0
LINE
  5
626
102
{ACAD_REACTORS
330
623
102
}
100
AcDbEntity
  8
GR1_01
  6
CONTINUOUS
100
AcDbLine
 10
158.485615
 20
105.186582
 30
0.0
 11
159.132663
 21
107.601396
 31
0.0
  0
LINE
  5
628
102
{ACAD_REACTORS
330
627
102
}
100
AcDbEntity
  8
GR1_01
  6
CONTINUOUS
100
AcDbLine
 10
167.577503
 20
100.686582
 30
0.0
 11
167.577503
 21
103.186582
 31
0.0
  0
LINE
  5
629
102
{ACAD_REACTORS
330
627
102
}
100
AcDbEntity
  8
GR1_01
  6
CONTINUOUS
100
AcDbLine
 10
167.577503
 20
100.686582
 30
0.0
 11
166.930455
 21
103.101396
 31
0.0
  0
LINE
  5
62A
102
{ACAD_REACTORS
330
627
102
}
100
AcDbEntity
  8
GR1_01
  6
CONTINUOUS
100
AcDbLine
 10
167.577503
 20
100.686582
 30
0.0
 11
168.224551
 21
103.101396
 31
0.0
  0
LINE
  5
62C
102
{ACAD_REACTORS
330
62B
102
}
100
AcDbEntity
  8
GR1_01
  6
CONTINUOUS
100
AcDbLine
 10
167.577503
 20
95.686582
 30
0.0
 11
167.577503
 21
93.186582
 31
0.0
  0
LINE
  5
62D
102
{ACAD_REACTORS
330
62B
102
}
100
AcDbEntity
  8
GR1_01
  6
CONTINUOUS
100
AcDbLine
 10
167.577503
 20
95.686582
 30
0.0
 11
168.224551
 21
93.271767
 31
0.0
  0
LINE
  5
62E
102
{ACAD_REACTORS
330
62B
102
}
100
AcDbEntity
  8
GR1_01
  6
CONTINUOUS
100
AcDbLine
 10
167.577503
 20
95.686582
 30
0.0
 11
166.930455
 21
93.271767
 31
0.0
  0
LINE
  5
630
102
{ACAD_REACTORS
330
62F
102
}
100
AcDbEntity
  8
GR1_01
  6
CONTINUOUS
100
AcDbLine
 10
140.852708
 20
86.723392
 30
0.0
 11
138.352708
 21
86.723392
 31
0.0
  0
LINE
  5
631
102
{ACAD_REACTORS
330
62F
102
}
100
AcDbEntity
  8
GR1_01
  6
CONTINUOUS
100
AcDbLine
 10
140.852708
 20
86.723392
 30
0.0
 11
138.437893
 21
87.370439
 31
0.0
  0
LINE
  5
632
102
{ACAD_REACTORS
330
62F
102
}
100
AcDbEntity
  8
GR1_01
  6
CONTINUOUS
100
AcDbLine
 10
140.852708
 20
86.723392
 30
0.0
 11
138.437893
 21
86.076344
 31
0.0
  0
LINE
  5
634
102
{ACAD_REACTORS
330
633
102
}
100
AcDbEntity
  8
GR1_01
  6
CONTINUOUS
100
AcDbLine
 10
8.852708
 20
86.723392
 30
0.0
 11
11.352708
 21
86.723392
 31
0.0
  0
LINE
  5
635
102
{ACAD_REACTORS
330
633
102
}
100
AcDbEntity
  8
GR1_01
  6
CONTINUOUS
100
AcDbLine
 10
8.852708
 20
86.723392
 30
0.0
 11
11.267522
 21
87.370439
 31
0.0
  0
LINE
  5
636
102
{ACAD_REACTORS
330
633
102
}
100
AcDbEntity
  8
GR1_01
  6
CONTINUOUS
100
AcDbLine
 10
8.852708
 20
86.723392
 30
0.0
 11
11.267522
 21
86.076344
 31
0.0
  0
LINE
  5
638
102
{ACAD_REACTORS
330
637
102
}
100
AcDbEntity
  8
GR2_01
  6
CONTINUOUS
100
AcDbLine
 10
260.035239
 20
77.523387
 30
0.0
 11
257.535239
 21
77.523387
 31
0.0
  0
LINE
  5
639
102
{ACAD_REACTORS
330
637
102
}
100
AcDbEntity
  8
GR2_01
  6
CONTINUOUS
100
AcDbLine
 10
260.035239
 20
77.523387
 30
0.0
 11
257.620424
 21
78.170434
 31
0.0
  0
LINE
  5
63A
102
{ACAD_REACTORS
330
637
102
}
100
AcDbEntity
  8
GR2_01
  6
CONTINUOUS
100
AcDbLine
 10
260.035239
 20
77.523387
 30
0.0
 11
257.620424
 21
76.876339
 31
0.0
  0
LINE
  5
63C
102
{ACAD_REACTORS
330
63B
102
}
100
AcDbEntity
  8
GR2_01
  6
CONTINUOUS
100
AcDbLine
 10
218.635239
 20
77.523387
 30
0.0
 11
221.135239
 21
77.523387
 31
0.0
  0
LINE
  5
63D
102
{ACAD_REACTORS
330
63B
102
}
100
AcDbEntity
  8
GR2_01
  6
CONTINUOUS
100
AcDbLine
 10
218.635239
 20
77.523387
 30
0.0
 11
221.050054
 21
78.170434
 31
0.0
  0
LINE
  5
63E
102
{ACAD_REACTORS
330
63B
102
}
100
AcDbEntity
  8
GR2_01
  6
CONTINUOUS
100
AcDbLine
 10
218.635239
 20
77.523387
 30
0.0
 11
221.050054
 21
76.876339
 31
0.0
  0
LINE
  5
640
102
{ACAD_REACTORS
330
63F
102
}
100
AcDbEntity
  8
GR1_01
  6
CONTINUOUS
100
AcDbLine
 10
242.335239
 20
86.589611
 30
0.0
 11
244.835239
 21
86.589611
 31
0.0
  0
LINE
  5
641
102
{ACAD_REACTORS
330
63F
102
}
100
AcDbEntity
  8
GR1_01
  6
CONTINUOUS
100
AcDbLine
 10
242.335239
 20
86.589611
 30
0.0
 11
244.750054
 21
87.236658
 31
0.0
  0
LINE
  5
642
102
{ACAD_REACTORS
330
63F
102
}
100
AcDbEntity
  8
GR1_01
  6
CONTINUOUS
100
AcDbLine
 10
242.335239
 20
86.589611
 30
0.0
 11
244.750054
 21
85.942563
 31
0.0
  0
LINE
  5
644
102
{ACAD_REACTORS
330
643
102
}
100
AcDbEntity
  8
GR1_01
  6
CONTINUOUS
100
AcDbLine
 10
260.035239
 20
86.589611
 30
0.0
 11
257.535239
 21
86.589611
 31
0.0
  0
LINE
  5
645
102
{ACAD_REACTORS
330
643
102
}
100
AcDbEntity
  8
GR1_01
  6
CONTINUOUS
100
AcDbLine
 10
260.035239
 20
86.589611
 30
0.0
 11
257.620424
 21
87.236658
 31
0.0
  0
LINE
  5
646
102
{ACAD_REACTORS
330
643
102
}
100
AcDbEntity
  8
GR1_01
  6
CONTINUOUS
100
AcDbLine
 10
260.035239
 20
86.589611
 30
0.0
 11
257.620424
 21
85.942563
 31
0.0
  0
LINE
  5
648
102
{ACAD_REACTORS
330
647
102
}
100
AcDbEntity
  8
GR1_01
  6
CONTINUOUS
100
AcDbLine
 10
275.846004
 20
100.686582
 30
0.0
 11
275.846004
 21
98.186582
 31
0.0
  0
LINE
  5
649
102
{ACAD_REACTORS
330
647
102
}
100
AcDbEntity
  8
GR1_01
  6
CONTINUOUS
100
AcDbLine
 10
275.846004
 20
100.686582
 30
0.0
 11
275.198956
 21
98.271767
 31
0.0
  0
LINE
  5
64A
102
{ACAD_REACTORS
330
647
102
}
100
AcDbEntity
  8
GR1_01
  6
CONTINUOUS
100
AcDbLine
 10
275.846004
 20
100.686582
 30
0.0
 11
276.493051
 21
98.271767
 31
0.0
  0
LINE
  5
64C
102
{ACAD_REACTORS
330
64B
102
}
100
AcDbEntity
  8
GR1_01
  6
CONTINUOUS
100
AcDbLine
 10
275.846004
 20
109.186582
 30
0.0
 11
275.846004
 21
111.686582
 31
0.0
  0
LINE
  5
64D
102
{ACAD_REACTORS
330
64B
102
}
100
AcDbEntity
  8
GR1_01
  6
CONTINUOUS
100
AcDbLine
 10
275.846004
 20
109.186582
 30
0.0
 11
275.198956
 21
111.601396
 31
0.0
  0
LINE
  5
64E
102
{ACAD_REACTORS
330
64B
102
}
100
AcDbEntity
  8
GR1_01
  6
CONTINUOUS
100
AcDbLine
 10
275.846004
 20
109.186582
 30
0.0
 11
276.493051
 21
111.601396
 31
0.0
  0
LINE
  5
650
102
{ACAD_REACTORS
330
64F
102
}
100
AcDbEntity
  8
GR1_01
  6
CONTINUOUS
100
AcDbLine
 10
275.846004
 20
144.686582
 30
0.0
 11
275.846004
 21
142.186582
 31
0.0
  0
LINE
  5
651
102
{ACAD_REACTORS
330
64F
102
}
100
AcDbEntity
  8
GR1_01
  6
CONTINUOUS
100
AcDbLine
 10
275.846004
 20
144.686582
 30
0.0
 11
275.198956
 21
142.271767
 31
0.0
  0
LINE
  5
652
102
{ACAD_REACTORS
330
64F
102
}
100
AcDbEntity
  8
GR1_01
  6
CONTINUOUS
100
AcDbLine
 10
275.846004
 20
144.686582
 30
0.0
 11
276.493051
 21
142.271767
 31
0.0
  0
LINE
  5
654
102
{ACAD_REACTORS
330
653
102
}
100
AcDbEntity
  8
GR1_01
  6
CONTINUOUS
100
AcDbLine
 10
275.846004
 20
144.686582
 30
0.0
 11
275.846004
 21
147.186582
 31
0.0
  0
LINE
  5
655
102
{ACAD_REACTORS
330
653
102
}
100
AcDbEntity
  8
GR1_01
  6
CONTINUOUS
100
AcDbLine
 10
275.846004
 20
144.686582
 30
0.0
 11
275.198956
 21
147.101396
 31
0.0
  0
LINE
  5
656
102
{ACAD_REACTORS
330
653
102
}
100
AcDbEntity
  8
GR1_01
  6
CONTINUOUS
100
AcDbLine
 10
275.846004
 20
144.686582
 30
0.0
 11
276.493051
 21
147.101396
 31
0.0
  0
LINE
  5
658
102
{ACAD_REACTORS
330
657
102
}
100
AcDbEntity
  8
GR1_01
  6
CONTINUOUS
100
AcDbLine
 10
275.846004
 20
174.886582
 30
0.0
 11
275.846004
 21
172.386582
 31
0.0
  0
LINE
  5
659
102
{ACAD_REACTORS
330
657
102
}
100
AcDbEntity
  8
GR1_01
  6
CONTINUOUS
100
AcDbLine
 10
275.846004
 20
174.886582
 30
0.0
 11
275.198956
 21
172.471767
 31
0.0
  0
LINE
  5
65A
102
{ACAD_REACTORS
330
657
102
}
100
AcDbEntity
  8
GR1_01
  6
CONTINUOUS
100
AcDbLine
 10
275.846004
 20
174.886582
 30
0.0
 11
276.493051
 21
172.471767
 31
0.0
  0
LINE
  5
65C
102
{ACAD_REACTORS
330
65B
102
}
100
AcDbEntity
  8
GR1_01
  6
CONTINUOUS
100
AcDbLine
 10
260.035239
 20
181.442562
 30
0.0
 11
257.535239
 21
181.442562
 31
0.0
  0
LINE
  5
65D
102
{ACAD_REACTORS
330
65B
102
}
100
AcDbEntity
  8
GR1_01
  6
CONTINUOUS
100
AcDbLine
 10
260.035239
 20
181.442562
 30
0.0
 11
257.620424
 21
182.089609
 31
0.0
  0
LINE
  5
65E
102
{ACAD_REACTORS
330
65B
102
}
100
AcDbEntity
  8
GR1_01
  6
CONTINUOUS
100
AcDbLine
 10
260.035239
 20
181.442562
 30
0.0
 11
257.620424
 21
180.795514
 31
0.0
  0
LINE
  5
660
102
{ACAD_REACTORS
330
65F
102
}
100
AcDbEntity
  8
GR1_01
  6
CONTINUOUS
100
AcDbLine
 10
247.035239
 20
181.442562
 30
0.0
 11
249.535239
 21
181.442562
 31
0.0
  0
LINE
  5
661
102
{ACAD_REACTORS
330
65F
102
}
100
AcDbEntity
  8
GR1_01
  6
CONTINUOUS
100
AcDbLine
 10
247.035239
 20
181.442562
 30
0.0
 11
249.450054
 21
182.089609
 31
0.0
  0
LINE
  5
662
102
{ACAD_REACTORS
330
65F
102
}
100
AcDbEntity
  8
GR1_01
  6
CONTINUOUS
100
AcDbLine
 10
247.035239
 20
181.442562
 30
0.0
 11
249.450054
 21
180.795514
 31
0.0
  0
LINE
  5
664
102
{ACAD_REACTORS
330
663
102
}
100
AcDbEntity
  8
GR2_01
  6
CONTINUOUS
 62
     7
100
AcDbLine
 10
138.378985
 20
171.442565
 30
0.0
 11
147.88634
 21
180.936595
 31
0.0
  0
LINE
  5
665
102
{ACAD_REACTORS
330
663
102
}
100
AcDbEntity
  8
GR2_01
  6
CONTINUOUS
100
AcDbLine
 10
138.378985
 20
171.442565
 30
0.0
 11
140.147991
 21
173.209092
 31
0.0
  0
LINE
  5
666
102
{ACAD_REACTORS
330
663
102
}
100
AcDbEntity
  8
GR2_01
  6
CONTINUOUS
100
AcDbLine
 10
138.378985
 20
171.442565
 30
0.0
 11
139.630503
 21
173.606751
 31
0.0
  0
LINE
  5
667
102
{ACAD_REACTORS
330
663
102
}
100
AcDbEntity
  8
GR2_01
  6
CONTINUOUS
100
AcDbLine
 10
138.378985
 20
171.442565
 30
0.0
 11
140.544925
 21
172.691046
 31
0.0
  0
LINE
  5
669
102
{ACAD_REACTORS
330
671
102
}
100
AcDbEntity
  8
0
  6
CONTINUOUS
 62
     7
100
AcDbLine
 10
25.852948
 20
110.311144
 30
0.0
 11
25.852948
 21
105.061584
 31
0.0
  0
SPLINE
  5
66A
102
{ACAD_REACTORS
330
671
102
}
100
AcDbEntity
  8
0
  6
CONTINUOUS
 62
     7
100
AcDbSpline
210
0.0
220
0.0
230
1.0
 70
     8
 71
     3
 72
     8
 73
     4
 74
     0
 42
0.0000001
 43
0.0000001
 40
0.0
 40
0.0
 40
0.0
 40
0.0
 40
1.0
 40
1.0
 40
1.0
 40
1.0
 10
25.8529477513679744
 20
105.0615842468707655
 30
0.0
 10
25.8529477513679744
 20
104.8552955391505321
 30
0.0
 10
25.6838020917441909
 20
104.6865501295495307
 30
0.0
 10
25.4777133550184693
 20
104.6865501295495164
 30
0.0
  0
LINE
  5
66B
102
{ACAD_REACTORS
330
671
102
}
100
AcDbEntity
  8
0
  6
CONTINUOUS
 62
     7
100
AcDbLine
 10
25.477713
 20
104.68655
 30
0.0
 11
20.227942
 21
104.68655
 31
0.0
  0
SPLINE
  5
66C
102
{ACAD_REACTORS
330
671
102
}
100
AcDbEntity
  8
0
  6
CONTINUOUS
 62
     7
100
AcDbSpline
210
0.0
220
0.0
230
1.0
 70
     8
 71
     3
 72
     8
 73
     4
 74
     0
 42
0.0000001
 43
0.0000001
 40
0.0
 40
0.0
 40
0.0
 40
0.0
 40
1.0
 40
1.0
 40
1.0
 40
1.0
 10
20.2279419988251021
 20
104.6865501295495164
 30
0.0
 10
20.0216531370879984
 20
104.6865501295495164
 30
0.0
 10
19.8527076024755935
 20
104.8552955391505321
 30
0.0
 10
19.8527076024755935
 20
105.0615844008876536
 30
0.0
  0
LINE
  5
66D
102
{ACAD_REACTORS
330
671
102
}
100
AcDbEntity
  8
0
  6
CONTINUOUS
 62
     7
100
AcDbLine
 10
19.852708
 20
105.061584
 30
0.0
 11
19.852708
 21
110.311144
 31
0.0
  0
SPLINE
  5
66E
102
{ACAD_REACTORS
330
671
102
}
100
AcDbEntity
  8
0
  6
CONTINUOUS
 62
     7
100
AcDbSpline
210
0.0
220
0.0
230
1.0
 70
     8
 71
     3
 72
     8
 73
     4
 74
     0
 42
0.0000001
 43
0.0000001
 40
0.0
 40
0.0
 40
0.0
 40
0.0
 40
1.0
 40
1.0
 40
1.0
 40
1.0
 10
19.8527076024755935
 20
110.3111436245688566
 30
0.0
 10
19.8527076024755935
 20
110.5176726363196593
 30
0.0
 10
20.0216531370879984
 20
110.6865781459297722
 30
0.0
 10
20.2279419988251021
 20
110.6865781459297722
 30
0.0
  0
LINE
  5
66F
102
{ACAD_REACTORS
330
671
102
}
100
AcDbEntity
  8
0
  6
CONTINUOUS
 62
     7
100
AcDbLine
 10
20.227942
 20
110.686578
 30
0.0
 11
25.477713
 21
110.686578
 31
0.0
  0
SPLINE
  5
670
102
{ACAD_REACTORS
330
671
102
}
100
AcDbEntity
  8
0
  6
CONTINUOUS
 62
     7
100
AcDbSpline
210
0.0
220
0.0
230
1.0
 70
     8
 71
     3
 72
     8
 73
     4
 74
     0
 42
0.0000001
 43
0.0000001
 40
0.0
 40
0.0
 40
0.0
 40
0.0
 40
1.0
 40
1.0
 40
1.0
 40
1.0
 10
25.4777133550184658
 20
110.6865781459297438
 30
0.0
 10
25.6838020917441909
 20
110.6865781459297438
 30
0.0
 10
25.8529477513679744
 20
110.5176726363196593
 30
0.0
 10
25.8529477513679744
 20
110.3111436245688992
 30
0.0
  0
HATCH
  5
671
102
{ACAD_REACTORS
330
668
102
}
100
AcDbEntity
  8
0
 62
     7
100
AcDbHatch
 10
0.0
 20
0.0
 30
0.0
210
0.0
220
0.0
230
1.0
  2
SOLID
 70
     1
 71
     1
 91
        4
 92
        1
 93
        8
 72
     1
 10
25.8529477513679744
 20
110.311143624568885
 11
25.8529477513679744
 21
105.0615842468707655
 72
     4
 94
        3
 73
     0
 74
     0
 95
        8
 96
        4
 40
0.0
 40
0.0
 40
0.0
 40
0.0
 40
1.0
 40
1.0
 40
1.0
 40
1.0
 10
25.8529477513679744
 20
105.0615842468707655
 10
25.8529477513679744
 20
104.8552955391505321
 10
25.6838020917441909
 20
104.6865501295495307
 10
25.4777133550184693
 20
104.6865501295495164
 72
     1
 10
25.4777133550184693
 20
104.6865501295495164
 11
20.2279419988251021
 21
104.6865501295495164
 72
     4
 94
        3
 73
     0
 74
     0
 95
        8
 96
        4
 40
0.0
 40
0.0
 40
0.0
 40
0.0
 40
1.0
 40
1.0
 40
1.0
 40
1.0
 10
20.2279419988251021
 20
104.6865501295495164
 10
20.0216531370879984
 20
104.6865501295495164
 10
19.8527076024755935
 20
104.8552955391505321
 10
19.8527076024755935
 20
105.0615844008876536
 72
     1
 10
19.8527076024755935
 20
105.0615844008876536
 11
19.8527076024755935
 21
110.3111436245688566
 72
     4
 94
        3
 73
     0
 74
     0
 95
        8
 96
        4
 40
0.0
 40
0.0
 40
0.0
 40
0.0
 40
1.0
 40
1.0
 40
1.0
 40
1.0
 10
19.8527076024755935
 20
110.3111436245688566
 10
19.8527076024755935
 20
110.5176726363196593
 10
20.0216531370879984
 20
110.6865781459297722
 10
20.2279419988251021
 20
110.6865781459297722
 72
     1
 10
20.2279419988251021
 20
110.6865781459297722
 11
25.4777133550184658
 21
110.6865781459297438
 72
     4
 94
        3
 73
     0
 74
     0
 95
        8
 96
        4
 40
0.0
 40
0.0
 40
0.0
 40
0.0
 40
1.0
 40
1.0
 40
1.0
 40
1.0
 10
25.4777133550184658
 20
110.6865781459297438
 10
25.6838020917441909
 20
110.6865781459297438
 10
25.8529477513679744
 20
110.5176726363196593
 10
25.8529477513679744
 20
110.3111436245688992
 97
        8
330
669
330
66A
330
66B
330
66C
330
66D
330
66E
330
66F
330
670
 92
        1
 93
        4
 72
     4
 94
        3
 73
     0
 74
     0
 95
        8
 96
        4
 40
0.0
 40
0.0
 40
0.0
 40
0.0
 40
1.0
 40
1.0
 40
1.0
 40
1.0
 10
23.9994299209093853
 20
107.2791296270580546
 10
23.9331485171381928
 20
107.1468870195339491
 10
23.809871510124168
 20
107.0372185132941496
 10
23.6647808768690169
 20
106.9267094820066148
 72
     1
 10
23.6647808768690169
 20
106.9267094820066148
 11
25.2204726653823883
 21
105.9811988532104152
 72
     1
 10
25.2204726653823883
 20
105.9811988532104152
 11
24.2458638599306013
 21
107.6317498971208977
 72
     4
 94
        3
 73
     0
 74
     0
 95
        8
 96
        4
 40
0.0
 40
0.0
 40
0.0
 40
0.0
 40
1.0
 40
1.0
 40
1.0
 40
1.0
 10
24.2458638599306013
 20
107.6317498971208977
 10
24.0812410255641325
 20
107.5272846411772036
 10
24.0577863742296536
 20
107.4738512631370355
 10
23.9994299209093853
 20
107.2791296270580546
 97
        4
330
672
330
673
330
674
330
675
 92
        1
 93
        5
 72
     1
 10
23.6990422788183892
 20
108.557728324805808
 11
22.8852139075144336
 21
109.9361093532307621
 72
     1
 10
22.8852139075144336
 20
109.9361093532307621
 11
21.7833856323243253
 21
108.0710643221163423
 72
     1
 10
21.7833856323243253
 20
108.0710643221163423
 11
21.9838108312278067
 21
107.9489880651706386
 72
     4
 94
        3
 73
     0
 74
     0
 95
        8
 96
        4
 40
0.0
 40
0.0
 40
0.0
 40
0.0
 40
1.0
 40
1.0
 40
1.0
 40
1.0
 10
21.9838108312278067
 20
107.9489880651706386
 10
22.1401484901228933
 20
108.1583588520830688
 10
22.309974574785393
 20
108.1902587788980981
 10
22.8852139075144265
 20
108.2219585807016955
 72
     4
 94
        3
 73
     0
 74
     0
 95
        8
 96
        4
 40
0.0
 40
0.0
 40
0.0
 40
0.0
 40
1.0
 40
1.0
 40
1.0
 40
1.0
 10
22.8852139075144265
 20
108.2219585807016955
 10
23.4091812123263381
 20
108.2621436829880679
 10
23.4784644912683262
 20
108.3029291603086222
 10
23.6990422788184034
 20
108.557728324805808
 97
        5
330
676
330
677
330
678
330
679
330
67A
 92
        1
 93
       15
 72
     1
 10
24.9543862750272574
 20
105.4363785222120953
 11
20.227942038469287
 21
105.4363785893584975
 72
     1
 10
20.227942038469287
 20
105.4363785893584975
 11
21.4765499574291319
 21
107.5511795705501328
 72
     1
 10
21.4765499574291319
 20
107.5511795705501328
 11
21.6376786140341082
 21
107.452838136941466
 72
     4
 94
        3
 73
     0
 74
     0
 95
        8
 96
        4
 40
0.0
 40
0.0
 40
0.0
 40
0.0
 40
1.0
 40
1.0
 40
1.0
 40
1.0
 10
21.6376786140341082
 20
107.452838136941466
 10
21.4765499623664731
 20
107.2452284501292183
 10
21.4179253415309212
 20
107.1210308680628174
 10
21.3849127196526467
 20
107.022209137440214
 72
     4
 94
        3
 73
     0
 74
     0
 95
        8
 96
        4
 40
0.0
 40
0.0
 40
0.0
 40
0.0
 40
1.0
 40
1.0
 40
1.0
 40
1.0
 10
21.3849127196526467
 20
107.022209137440214
 10
21.3421379997188794
 20
106.8932085551005429
 10
21.3421379997188794
 20
106.6793149429307164
 10
21.4709064370453753
 20
106.5079679081816977
 72
     4
 94
        3
 73
     0
 74
     0
 95
        8
 96
        4
 40
0.0
 40
0.0
 40
0.0
 40
0.0
 40
1.0
 40
1.0
 40
1.0
 40
1.0
 10
21.4709064370453753
 20
106.5079679081816977
 10
21.7705736290953951
 20
105.6507124094069496
 10
21.7920670553182809
 20
105.6292189831840318
 10
21.8993420664218306
 20
105.6292189831840318
 72
     4
 94
        3
 73
     0
 74
     0
 95
        8
 96
        4
 40
0.0
 40
0.0
 40
0.0
 40
0.0
 40
1.0
 40
1.0
 40
1.0
 40
1.0
 10
21.8993420664218306
 20
105.6292189831840318
 10
22.1564386660497199
 20
105.671965685616172
 10
22.1564386660497235
 20
106.1649536386654091
 10
21.9210556301572659
 20
106.4434876295130579
 72
     4
 94
        3
 73
     0
 74
     0
 95
        8
 96
        4
 40
0.0
 40
0.0
 40
0.0
 40
0.0
 40
1.0
 40
1.0
 40
1.0
 40
1.0
 10
21.9210556301572659
 20
106.4434876295130579
 10
21.9848995112897292
 20
106.5503543855933515
 10
21.9848995112897292
 20
106.8504618526684169
 10
21.8993420664218306
 20
106.8932085551005429
 72
     4
 94
        3
 73
     0
 74
     0
 95
        8
 96
        4
 40
0.0
 40
0.0
 40
0.0
 40
0.0
 40
1.0
 40
1.0
 40
1.0
 40
1.0
 10
21.8993420664218306
 20
106.8932085551005429
 10
21.9705705604744956
 20
106.9470822081657531
 10
22.0424434570637757
 20
107.0309345879366703
 10
22.1260596901654445
 20
107.1560127195397456
 72
     1
 10
22.1260596901654445
 20
107.1560127195397456
 11
22.611362841933289
 21
106.8608683532604857
 72
     4
 94
        3
 73
     0
 74
     0
 95
        8
 96
        4
 40
0.0
 40
0.0
 40
0.0
 40
0.0
 40
1.0
 40
1.0
 40
1.0
 40
1.0
 10
22.611362841933289
 20
106.8608683532604857
 10
22.4699945338899347
 20
106.6940841687710986
 10
22.3653291529348728
 20
106.6639053170540308
 10
22.3277857007987706
 20
106.5503543855933515
 72
     4
 94
        3
 73
     0
 74
     0
 95
        8
 96
        4
 40
0.0
 40
0.0
 40
0.0
 40
0.0
 40
1.0
 40
1.0
 40
1.0
 40
1.0
 10
22.3277857007987706
 20
106.5503543855933515
 10
22.1992253934841273
 20
106.4650210807382109
 10
22.1564386660497199
 20
105.6292189831840318
 10
22.4135592806789461
 20
105.6292189831840318
 72
     4
 94
        3
 73
     0
 74
     0
 95
        8
 96
        4
 40
0.0
 40
0.0
 40
0.0
 40
0.0
 40
0.56566
 40
0.56566
 40
0.56566
 40
0.56566
 10
22.4135592806789461
 20
105.6292189831840318
 10
22.5951136638261829
 20
105.6292189831840318
 10
22.6565271637884003
 20
105.8396096056084588
 10
22.756899249851287
 20
106.0693802090467699
 72
     4
 94
        3
 73
     0
 74
     0
 95
        8
 96
        4
 40
0.0
 40
0.0
 40
0.0
 40
0.0
 40
0.43434
 40
0.43434
 40
0.43434
 40
0.43434
 10
22.756899249851287
 20
106.0693802090467699
 10
22.8339697222879217
 20
106.2458090315775081
 10
22.9340097892424168
 20
106.4336640979791468
 10
23.1290462371833705
 20
106.5464719507661897
 72
     1
 10
23.1290462371833705
 20
106.5464719507661897
 11
24.954386450243021
 21
105.4363785222120953
 97
       15
330
67B
330
67C
330
67D
330
67E
330
67F
330
680
330
681
330
682
330
683
330
684
330
685
330
686
330
687
330
688
330
689
 75
     0
 76
     1
 98
        0
  0
SPLINE
  5
672
102
{ACAD_REACTORS
330
671
102
}
100
AcDbEntity
  8
0
  6
CONTINUOUS
 62
     7
100
AcDbSpline
210
0.0
220
0.0
230
1.0
 70
     8
 71
     3
 72
     8
 73
     4
 74
     0
 42
0.0000001
 43
0.0000001
 40
0.0
 40
0.0
 40
0.0
 40
0.0
 40
1.0
 40
1.0
 40
1.0
 40
1.0
 10
23.9994299209093853
 20
107.2791296270580546
 30
0.0
 10
23.9331485171381928
 20
107.1468870195339491
 30
0.0
 10
23.809871510124168
 20
107.0372185132941496
 30
0.0
 10
23.6647808768690169
 20
106.9267094820066148
 30
0.0
  0
LINE
  5
673
102
{ACAD_REACTORS
330
671
102
}
100
AcDbEntity
  8
0
  6
CONTINUOUS
 62
     7
100
AcDbLine
 10
23.664781
 20
106.926709
 30
0.0
 11
25.220473
 21
105.981199
 31
0.0
  0
LINE
  5
674
102
{ACAD_REACTORS
330
671
102
}
100
AcDbEntity
  8
0
  6
CONTINUOUS
 62
     7
100
AcDbLine
 10
25.220473
 20
105.981199
 30
0.0
 11
24.245864
 21
107.63175
 31
0.0
  0
SPLINE
  5
675
102
{ACAD_REACTORS
330
671
102
}
100
AcDbEntity
  8
0
  6
CONTINUOUS
 62
     7
100
AcDbSpline
210
0.0
220
0.0
230
1.0
 70
     8
 71
     3
 72
     8
 73
     4
 74
     0
 42
0.0000001
 43
0.0000001
 40
0.0
 40
0.0
 40
0.0
 40
0.0
 40
1.0
 40
1.0
 40
1.0
 40
1.0
 10
24.2458638599306013
 20
107.6317498971208977
 30
0.0
 10
24.0812410255641325
 20
107.5272846411772036
 30
0.0
 10
24.0577863742296536
 20
107.4738512631370355
 30
0.0
 10
23.9994299209093853
 20
107.2791296270580546
 30
0.0
  0
LINE
  5
676
102
{ACAD_REACTORS
330
671
102
}
100
AcDbEntity
  8
0
  6
CONTINUOUS
 62
     7
100
AcDbLine
 10
23.699042
 20
108.557728
 30
0.0
 11
22.885214
 21
109.936109
 31
0.0
  0
LINE
  5
677
102
{ACAD_REACTORS
330
671
102
}
100
AcDbEntity
  8
0
  6
CONTINUOUS
 62
     7
100
AcDbLine
 10
22.885214
 20
109.936109
 30
0.0
 11
21.783386
 21
108.071064
 31
0.0
  0
LINE
  5
678
102
{ACAD_REACTORS
330
671
102
}
100
AcDbEntity
  8
0
  6
CONTINUOUS
 62
     7
100
AcDbLine
 10
21.783386
 20
108.071064
 30
0.0
 11
21.983811
 21
107.948988
 31
0.0
  0
SPLINE
  5
679
102
{ACAD_REACTORS
330
671
102
}
100
AcDbEntity
  8
0
  6
CONTINUOUS
 62
     7
100
AcDbSpline
210
0.0
220
0.0
230
1.0
 70
     8
 71
     3
 72
     8
 73
     4
 74
     0
 42
0.0000001
 43
0.0000001
 40
0.0
 40
0.0
 40
0.0
 40
0.0
 40
1.0
 40
1.0
 40
1.0
 40
1.0
 10
21.9838108312278067
 20
107.9489880651706386
 30
0.0
 10
22.1401484901228933
 20
108.1583588520830688
 30
0.0
 10
22.309974574785393
 20
108.1902587788980981
 30
0.0
 10
22.8852139075144265
 20
108.2219585807016955
 30
0.0
  0
SPLINE
  5
67A
102
{ACAD_REACTORS
330
671
102
}
100
AcDbEntity
  8
0
  6
CONTINUOUS
 62
     7
100
AcDbSpline
210
0.0
220
0.0
230
1.0
 70
     8
 71
     3
 72
     8
 73
     4
 74
     0
 42
0.0000001
 43
0.0000001
 40
0.0
 40
0.0
 40
0.0
 40
0.0
 40
1.0
 40
1.0
 40
1.0
 40
1.0
 10
22.8852139075144265
 20
108.2219585807016955
 30
0.0
 10
23.4091812123263381
 20
108.2621436829880679
 30
0.0
 10
23.4784644912683262
 20
108.3029291603086222
 30
0.0
 10
23.6990422788184034
 20
108.557728324805808
 30
0.0
  0
LINE
  5
67B
102
{ACAD_REACTORS
330
671
102
}
100
AcDbEntity
  8
0
  6
CONTINUOUS
 62
     7
100
AcDbLine
 10
24.954386
 20
105.436379
 30
0.0
 11
20.227942
 21
105.436379
 31
0.0
  0
LINE
  5
67C
102
{ACAD_REACTORS
330
671
102
}
100
AcDbEntity
  8
0
  6
CONTINUOUS
 62
     7
100
AcDbLine
 10
20.227942
 20
105.436379
 30
0.0
 11
21.47655
 21
107.55118
 31
0.0
  0
LINE
  5
67D
102
{ACAD_REACTORS
330
671
102
}
100
AcDbEntity
  8
0
  6
CONTINUOUS
 62
     7
100
AcDbLine
 10
21.47655
 20
107.55118
 30
0.0
 11
21.637679
 21
107.452838
 31
0.0
  0
SPLINE
  5
67E
102
{ACAD_REACTORS
330
671
102
}
100
AcDbEntity
  8
0
  6
CONTINUOUS
 62
     7
100
AcDbSpline
210
0.0
220
0.0
230
1.0
 70
     8
 71
     3
 72
     8
 73
     4
 74
     0
 42
0.0000001
 43
0.0000001
 40
0.0
 40
0.0
 40
0.0
 40
0.0
 40
1.0
 40
1.0
 40
1.0
 40
1.0
 10
21.6376786140341082
 20
107.452838136941466
 30
0.0
 10
21.4765499623664731
 20
107.2452284501292183
 30
0.0
 10
21.4179253415309212
 20
107.1210308680628174
 30
0.0
 10
21.3849127196526467
 20
107.022209137440214
 30
0.0
  0
SPLINE
  5
67F
102
{ACAD_REACTORS
330
671
102
}
100
AcDbEntity
  8
0
  6
CONTINUOUS
 62
     7
100
AcDbSpline
210
0.0
220
0.0
230
1.0
 70
     8
 71
     3
 72
     8
 73
     4
 74
     0
 42
0.0000001
 43
0.0000001
 40
0.0
 40
0.0
 40
0.0
 40
0.0
 40
1.0
 40
1.0
 40
1.0
 40
1.0
 10
21.3849127196526467
 20
107.022209137440214
 30
0.0
 10
21.3421379997188794
 20
106.8932085551005429
 30
0.0
 10
21.3421379997188794
 20
106.6793149429307164
 30
0.0
 10
21.4709064370453753
 20
106.5079679081816977
 30
0.0
  0
SPLINE
  5
680
102
{ACAD_REACTORS
330
671
102
}
100
AcDbEntity
  8
0
  6
CONTINUOUS
 62
     7
100
AcDbSpline
210
0.0
220
0.0
230
1.0
 70
     8
 71
     3
 72
     8
 73
     4
 74
     0
 42
0.0000001
 43
0.0000001
 40
0.0
 40
0.0
 40
0.0
 40
0.0
 40
1.0
 40
1.0
 40
1.0
 40
1.0
 10
21.4709064370453753
 20
106.5079679081816977
 30
0.0
 10
21.7705736290953951
 20
105.6507124094069496
 30
0.0
 10
21.7920670553182809
 20
105.6292189831840318
 30
0.0
 10
21.8993420664218306
 20
105.6292189831840318
 30
0.0
  0
SPLINE
  5
681
102
{ACAD_REACTORS
330
671
102
}
100
AcDbEntity
  8
0
  6
CONTINUOUS
 62
     7
100
AcDbSpline
210
0.0
220
0.0
230
1.0
 70
     8
 71
     3
 72
     8
 73
     4
 74
     0
 42
0.0000001
 43
0.0000001
 40
0.0
 40
0.0
 40
0.0
 40
0.0
 40
1.0
 40
1.0
 40
1.0
 40
1.0
 10
21.8993420664218306
 20
105.6292189831840318
 30
0.0
 10
22.1564386660497199
 20
105.671965685616172
 30
0.0
 10
22.1564386660497235
 20
106.1649536386654091
 30
0.0
 10
21.9210556301572659
 20
106.4434876295130579
 30
0.0
  0
SPLINE
  5
682
102
{ACAD_REACTORS
330
671
102
}
100
AcDbEntity
  8
0
  6
CONTINUOUS
 62
     7
100
AcDbSpline
210
0.0
220
0.0
230
1.0
 70
     8
 71
     3
 72
     8
 73
     4
 74
     0
 42
0.0000001
 43
0.0000001
 40
0.0
 40
0.0
 40
0.0
 40
0.0
 40
1.0
 40
1.0
 40
1.0
 40
1.0
 10
21.9210556301572659
 20
106.4434876295130579
 30
0.0
 10
21.9848995112897292
 20
106.5503543855933515
 30
0.0
 10
21.9848995112897292
 20
106.8504618526684169
 30
0.0
 10
21.8993420664218306
 20
106.8932085551005429
 30
0.0
  0
SPLINE
  5
683
102
{ACAD_REACTORS
330
671
102
}
100
AcDbEntity
  8
0
  6
CONTINUOUS
 62
     7
100
AcDbSpline
210
0.0
220
0.0
230
1.0
 70
     8
 71
     3
 72
     8
 73
     4
 74
     0
 42
0.0000001
 43
0.0000001
 40
0.0
 40
0.0
 40
0.0
 40
0.0
 40
1.0
 40
1.0
 40
1.0
 40
1.0
 10
21.8993420664218306
 20
106.8932085551005429
 30
0.0
 10
21.9705705604744956
 20
106.9470822081657531
 30
0.0
 10
22.0424434570637757
 20
107.0309345879366703
 30
0.0
 10
22.1260596901654445
 20
107.1560127195397456
 30
0.0
  0
LINE
  5
684
102
{ACAD_REACTORS
330
671
102
}
100
AcDbEntity
  8
0
  6
CONTINUOUS
 62
     7
100
AcDbLine
 10
22.12606
 20
107.156013
 30
0.0
 11
22.611363
 21
106.860868
 31
0.0
  0
SPLINE
  5
685
102
{ACAD_REACTORS
330
671
102
}
100
AcDbEntity
  8
0
  6
CONTINUOUS
 62
     7
100
AcDbSpline
210
0.0
220
0.0
230
1.0
 70
     8
 71
     3
 72
     8
 73
     4
 74
     0
 42
0.0000001
 43
0.0000001
 40
0.0
 40
0.0
 40
0.0
 40
0.0
 40
1.0
 40
1.0
 40
1.0
 40
1.0
 10
22.611362841933289
 20
106.8608683532604857
 30
0.0
 10
22.4699945338899347
 20
106.6940841687710986
 30
0.0
 10
22.3653291529348728
 20
106.6639053170540308
 30
0.0
 10
22.3277857007987706
 20
106.5503543855933515
 30
0.0
  0
SPLINE
  5
686
102
{ACAD_REACTORS
330
671
102
}
100
AcDbEntity
  8
0
  6
CONTINUOUS
 62
     7
100
AcDbSpline
210
0.0
220
0.0
230
1.0
 70
     8
 71
     3
 72
     8
 73
     4
 74
     0
 42
0.0000001
 43
0.0000001
 40
0.0
 40
0.0
 40
0.0
 40
0.0
 40
1.0
 40
1.0
 40
1.0
 40
1.0
 10
22.3277857007987706
 20
106.5503543855933515
 30
0.0
 10
22.1992253934841273
 20
106.4650210807382109
 30
0.0
 10
22.1564386660497199
 20
105.6292189831840318
 30
0.0
 10
22.4135592806789461
 20
105.6292189831840318
 30
0.0
  0
SPLINE
  5
687
102
{ACAD_REACTORS
330
671
102
}
100
AcDbEntity
  8
0
  6
CONTINUOUS
 62
     7
100
AcDbSpline
210
0.0
220
0.0
230
1.0
 70
     8
 71
     3
 72
     8
 73
     4
 74
     0
 42
0.0000001
 43
0.0000001
 40
0.0
 40
0.0
 40
0.0
 40
0.0
 40
0.56565959661361
 40
0.56565959661361
 40
0.56565959661361
 40
0.56565959661361
 10
22.4135592806789461
 20
105.6292189831840318
 30
0.0
 10
22.5951136638261829
 20
105.6292189831840318
 30
0.0
 10
22.6565271637884003
 20
105.8396096056084588
 30
0.0
 10
22.756899249851287
 20
106.0693802090467699
 30
0.0
  0
SPLINE
  5
688
102
{ACAD_REACTORS
330
671
102
}
100
AcDbEntity
  8
0
  6
CONTINUOUS
 62
     7
100
AcDbSpline
210
0.0
220
0.0
230
1.0
 70
     8
 71
     3
 72
     8
 73
     4
 74
     0
 42
0.0000001
 43
0.0000001
 40
0.0
 40
0.0
 40
0.0
 40
0.0
 40
0.43434040338639
 40
0.43434040338639
 40
0.43434040338639
 40
0.43434040338639
 10
22.756899249851287
 20
106.0693802090467699
 30
0.0
 10
22.8339697222879217
 20
106.2458090315775081
 30
0.0
 10
22.9340097892424168
 20
106.4336640979791468
 30
0.0
 10
23.1290462371833705
 20
106.5464719507661897
 30
0.0
  0
LINE
  5
689
102
{ACAD_REACTORS
330
671
102
}
100
AcDbEntity
  8
0
  6
CONTINUOUS
 62
     7
100
AcDbLine
 10
23.129046
 20
106.546472
 30
0.0
 11
24.954386
 21
105.436379
 31
0.0
  0
LWPOLYLINE
  5
68B
102
{ACAD_REACTORS
330
68C
102
}
100
AcDbEntity
  8
0
  6
CONTINUOUS
 62
     7
100
AcDbPolyline
 90
        3
 70
     1
 10
32.352293
 20
110.090745
 10
29.470084
 20
105.196778
 10
35.23445
 20
105.196785
  0
HATCH
  5
68C
102
{ACAD_REACTORS
330
68A
102
}
100
AcDbEntity
  8
0
 62
     7
100
AcDbHatch
 10
0.0
 20
0.0
 30
0.0
210
0.0
220
0.0
230
1.0
  2
SOLID
 70
     1
 71
     1
 91
        2
 92
        3
 72
     0
 73
     1
 93
        3
 10
32.3522933350533037
 20
110.0907446481006815
 10
29.4700842196750763
 20
105.1967776138791777
 10
35.2344499533176929
 20
105.1967852697068082
 97
        1
330
68B
 92
        3
 72
     1
 73
     1
 93
        6
 10
35.7126402014101743
 20
105.2943290703739905
 42
0.0
 10
32.6727115367927468
 20
110.4562004983264956
 42
0.5716086462068372
 10
32.0318751757624867
 20
110.4562005704050875
 42
0.0
 10
28.9919464686965895
 20
105.2943290703739905
 42
0.5802317758076025
 10
29.3123646704359331
 20
104.7337739387327247
 42
0.0
 10
35.3922219996708307
 20
104.7337739387327247
 42
0.5802317758076804
 97
        1
330
68D
 75
     0
 76
     1
 98
        0
  0
LWPOLYLINE
  5
68D
102
{ACAD_REACTORS
330
68C
102
}
100
AcDbEntity
  8
0
  6
CONTINUOUS
 62
     7
100
AcDbPolyline
 90
        6
 70
     1
 10
35.71264
 20
105.294329
 10
32.672712
 20
110.4562
 42
0.571609
 10
32.031875
 20
110.456201
 10
28.991946
 20
105.294329
 42
0.580232
 10
29.312365
 20
104.733774
 10
35.392222
 20
104.733774
 42
0.580232
  0
CIRCLE
  5
68E
102
{ACAD_REACTORS
330
68F
102
}
100
AcDbEntity
  8
0
  6
CONTINUOUS
 62
     7
100
AcDbCircle
 10
32.352293
 20
105.89156
 30
0.0
 40
0.391444
  0
HATCH
  5
68F
102
{ACAD_REACTORS
330
68A
102
}
100
AcDbEntity
  8
0
 62
     7
100
AcDbHatch
 10
0.0
 20
0.0
 30
0.0
210
0.0
220
0.0
230
1.0
  2
SOLID
 70
     1
 71
     1
 91
        1
 92
        1
 93
        1
 72
     2
 10
32.3522933435800368
 20
105.8915601101310102
 40
0.3914440513053153
 50
0.0
 51
360.0
 73
     1
 97
        1
330
68E
 75
     0
 76
     1
 98
        0
  0
ELLIPSE
  5
690
102
{ACAD_REACTORS
330
695
102
}
100
AcDbEntity
  8
0
  6
CONTINUOUS
 62
     7
100
AcDbEllipse
 10
32.346143
 20
106.764293
 30
0.0
 11
0.237942939072386
 21
-0.0102828742997471
 31
0.0
210
0.0
220
0.0
230
1.0
 40
0.999044
 41
-3.14158866123713
 42
0.0000039924306419
  0
LINE
  5
691
102
{ACAD_REACTORS
330
695
102
}
100
AcDbEntity
  8
0
  6
CONTINUOUS
 62
     7
100
AcDbLine
 10
32.1082
 20
106.774575
 30
0.0
 11
31.91875
 21
108.621506
 31
0.0
  0
LINE
  5
692
102
{ACAD_REACTORS
330
695
102
}
100
AcDbEntity
  8
0
  6
CONTINUOUS
 62
     7
100
AcDbLine
 10
31.91875
 20
108.621506
 30
0.0
 11
31.921603
 21
108.621506
 31
0.0
  0
ARC
  5
693
102
{ACAD_REACTORS
330
695
102
}
100
AcDbEntity
  8
0
  6
CONTINUOUS
 62
     7
100
AcDbCircle
 10
32.352248
 20
108.621489
 30
0.0
 40
0.430645
100
AcDbArc
 50
0.0
 51
179.997721
  0
LINE
  5
694
102
{ACAD_REACTORS
330
695
102
}
100
AcDbEntity
  8
0
  6
CONTINUOUS
 62
     7
100
AcDbLine
 10
32.782892
 20
108.621506
 30
0.0
 11
32.590133
 21
106.790772
 31
0.0
  0
HATCH
  5
695
102
{ACAD_REACTORS
330
68A
102
}
100
AcDbEntity
  8
0
 62
     7
100
AcDbHatch
 10
0.0
 20
0.0
 30
0.0
210
0.0
220
0.0
230
1.0
  2
SOLID
 70
     1
 71
     1
 91
        1
 92
        1
 93
        6
 72
     3
 10
32.3461430658149993
 20
106.7642926587134866
 11
0.237942939072386
 21
-0.0102828742997471
 40
0.999044
 50
359.999771
 51
179.999771
 73
     0
 72
     1
 10
32.1082000857308998
 20
106.7745745839693683
 11
31.9187500608116217
 21
108.6215063585800777
 72
     1
 10
31.9187500608116217
 20
108.6215063585800777
 11
31.9216031161972573
 21
108.6215063585800493
 72
     2
 10
32.3522477075854624
 20
108.6214892268372978
 40
0.4306445917289654
 50
0.002279
 51
179.997721
 73
     1
 72
     1
 10
32.7828922989736569
 20
108.6215063585800777
 11
32.5901332147752569
 21
106.7907719840848131
 72
     1
 10
32.5901332147752569
 20
106.7907719840848131
 11
32.5840860458998947
 21
106.7540107334761359
 97
        5
330
690
330
691
330
692
330
693
330
694
 75
     0
 76
     1
 98
        0
  0
ARC
  5
696
100
AcDbEntity
  8
0
  6
CONTINUOUS
 62
     7
100
AcDbCircle
 10
74.852708
 20
98.936582
 30
0.0
 40
1.75
100
AcDbArc
 50
188.213211
 51
351.786789
  0
LINE
  5
697
100
AcDbEntity
  8
0
  6
CONTINUOUS
 62
     7
100
AcDbLine
 10
76.584758
 20
98.686582
 30
0.0
 11
78.852708
 21
98.686582
 31
0.0
  0
LINE
  5
698
100
AcDbEntity
  8
0
  6
CONTINUOUS
 62
     7
100
AcDbLine
 10
70.852708
 20
98.686582
 30
0.0
 11
73.120657
 21
98.686582
 31
0.0
  0
LINE
  5
699
100
AcDbEntity
  8
0
  6
CONTINUOUS
 62
     7
100
AcDbLine
 10
242.371945
 20
132.598392
 30
0.0
 11
218.623576
 21
132.598392
 31
0.0
  0
ENDSEC
  0
SECTION
  2
OBJECTS
  0
DICTIONARY
  5
C
100
AcDbDictionary
  3
ACAD_GROUP
350
D
  3
ACAD_MLINESTYLE
350
1B
  3
ACAD_SCALELIST
350
2C
  3
ACAD_VISUALSTYLE
350
51
  3
ACAD_MATERIAL
350
6A
  3
ACAD_TABLESTYLE
350
6E
  3
ACAD_MLEADERSTYLE
350
70
  0
DICTIONARY
  5
D
102
{ACAD_REACTORS
330
C
102
}
100
AcDbDictionary
  3
VISIOGROUP_0
350
503
  3
VISIOGROUP_1
350
562
  3
VISIOGROUP_2
350
5C5
  3
VISIOGROUP_3
350
5E6
  3
VISIOGROUP_4
350
5F3
  3
VISIOGROUP_5
350
5F7
  3
VISIOGROUP_6
350
5FE
  3
VISIOGROUP_7
350
602
  3
VISIOGROUP_8
350
607
  3
VISIOGROUP_9
350
60B
  3
VISIOGROUP_10
350
60F
  3
VISIOGROUP_11
350
613
  3
VISIOGROUP_12
350
617
  3
VISIOGROUP_13
350
61B
  3
VISIOGROUP_14
350
61F
  3
VISIOGROUP_15
350
623
  3
VISIOGROUP_16
350
627
  3
VISIOGROUP_17
350
62B
  3
VISIOGROUP_18
350
62F
  3
VISIOGROUP_19
350
633
  3
VISIOGROUP_20
350
637
  3
VISIOGROUP_21
350
63B
  3
VISIOGROUP_22
350
63F
  3
VISIOGROUP_23
350
643
  3
VISIOGROUP_24
350
647
  3
VISIOGROUP_25
350
64B
  3
VISIOGROUP_26
350
64F
  3
VISIOGROUP_27
350
653
  3
VISIOGROUP_28
350
657
  3
VISIOGROUP_29
350
65B
  3
VISIOGROUP_30
350
65F
  3
VISIOGROUP_31
350
663
  3
VISIOGROUP_32
350
668
  3
VISIOGROUP_33
350
68A
  0
DICTIONARY
  5
1B
102
{ACAD_REACTORS
330
C
102
}
100
AcDbDictionary
  3
STANDARD
350
1C
  0
MLINESTYLE
  5
1C
102
{ACAD_REACTORS
330
1B
102
}
100
AcDbMlineStyle
  2
STANDARD
 70
     0
  3

 62
   256
 51
90.0
 52
90.0
 71
     2
 49
0.5
 62
   256
  6
BYLAYER
 49
-0.5
 62
   256
  6
BYLAYER
  0
DICTIONARY
  5
29
102
{ACAD_REACTORS
330
C
102
}
100
AcDbDictionary
  0
DICTIONARY
  5
2C
102
{ACAD_REACTORS
330
C
102
}
100
AcDbDictionary
  3
A0
350
2D
  3
A1
350
2E
  3
A2
350
2F
  3
A3
350
30
  3
A4
350
31
  3
A5
350
32
  3
A6
350
33
  3
A7
350
34
  3
A8
350
35
  3
A9
350
36
  3
B0
350
37
  3
B1
350
38
  3
B2
350
39
  3
B3
350
3A
  3
B4
350
3B
  3
B5
350
3C
  3
B6
350
3D
  3
B7
350
3E
  3
B8
350
3F
  3
B9
350
40
  3
C0
350
41
  3
C1
350
42
  3
C2
350
43
  3
C3
350
44
  3
C4
350
45
  3
C5
350
46
  3
C6
350
47
  3
C7
350
48
  3
C8
350
49
  3
C9
350
4A
  3
D0
350
4B
  3
D1
350
4C
  3
D2
350
4D
  0
DICTIONARY
  5
4E
102
{ACAD_REACTORS
330
C
102
}
100
AcDbDictionary
  3
MODEL
350
4F
  3
LAYOUT1
350
50
  0
DICTIONARY
  5
51
102
{ACAD_REACTORS
330
C
102
}
100
AcDbDictionary
  3
FLAT
350
52
  3
FLATWITHEDGES
350
53
  3
GOURAUD
350
54
  3
GOURAUDWITHEDGES
350
55
  3
2DWIREFRAME
350
56
  3
WIREFRAME
350
57
  3
HIDDEN
350
58
  3
BASIC
350
59
  3
REALISTIC
350
5A
  3
CONCEPTUAL
350
5B
  3
DIM
350
5C
  3
BRIGHTEN
350
5D
  3
THICKEN
350
5E
  3
LINEPATTERN
350
5F
  3
FACEPATTERN
350
60
  3
COLORCHANGE
350
61
  3
JITTEROFF
350
62
  3
OVERHANGOFF
350
63
  3
EDGECOLOROFF
350
64
  3
SHADES OF GRAY
350
65
  3
SKETCHY
350
66
  3
X-RAY
350
67
  3
SHADED WITH EDGES
350
68
  3
SHADED
350
69
  0
DICTIONARY
  5
6A
102
{ACAD_REACTORS
330
C
102
}
100
AcDbDictionary
  3
BYLAYER
350
6B
  3
BYBLOCK
350
6C
  3
GLOBAL
350
6D
  0
DICTIONARY
  5
6E
102
{ACAD_REACTORS
330
C
102
}
100
AcDbDictionary
  3
STANDARD
350
6F
  0
DICTIONARY
  5
70
102
{ACAD_REACTORS
330
C
102
}
100
AcDbDictionary
  3
STANDARD
350
71
  0
GROUP
  5
503
102
{ACAD_REACTORS
330
D
102
}
100
AcDbGroup
300
Group created by Visio.
 70
     0
 71
     1
340
504
340
505
340
506
340
507
340
508
340
509
340
50A
340
50B
340
50C
340
50D
340
50E
340
50F
340
510
340
511
340
512
340
513
340
514
340
515
340
516
340
517
340
518
340
519
340
51A
340
51B
340
51C
340
51D
340
51E
340
51F
340
520
340
521
340
522
340
523
340
524
340
525
340
526
340
527
340
528
340
529
340
52A
340
52B
340
52C
340
52D
340
52E
340
52F
340
530
340
531
340
532
340
533
340
534
340
535
340
536
340
537
340
538
340
539
340
53A
340
53B
340
53C
340
53D
340
53E
340
53F
340
540
340
541
340
542
340
543
340
544
340
545
340
546
340
547
340
548
340
549
340
54A
340
54B
340
54C
340
54D
340
54E
340
54F
340
550
340
551
340
552
340
553
340
554
340
555
340
556
340
557
340
558
340
559
340
55A
340
55B
340
55C
340
55D
340
55E
340
55F
340
560
340
561
  0
GROUP
  5
562
102
{ACAD_REACTORS
330
D
102
}
100
AcDbGroup
300
Group created by Visio.
 70
     0
 71
     1
340
563
340
564
340
565
340
566
340
567
340
568
340
569
340
56A
340
56B
340
56C
340
56D
340
56E
340
56F
340
570
340
571
340
572
340
573
340
574
340
575
340
576
340
577
340
578
340
579
340
57A
340
57B
340
57C
340
57D
340
57E
340
57F
340
580
340
581
340
582
340
583
340
584
340
585
340
586
340
587
340
588
340
589
340
58A
340
58B
340
58C
340
58D
340
58E
340
58F
340
590
340
591
340
592
340
593
340
594
340
595
340
596
340
597
340
598
340
599
340
59A
340
59B
340
59C
340
59D
340
59E
340
59F
340
5A0
340
5A1
340
5A2
340
5A3
340
5A4
340
5A5
340
5A6
340
5A7
340
5A8
340
5A9
340
5AA
340
5AB
340
5AC
340
5AD
340
5AE
340
5AF
340
5B0
340
5B1
340
5B2
340
5B3
340
5B4
340
5B5
340
5B6
340
5B7
340
5B8
340
5B9
340
5BA
340
5BB
340
5BC
340
5BD
340
5BE
340
5BF
340
5C0
  0
GROUP
  5
5C5
102
{ACAD_REACTORS
330
D
102
}
100
AcDbGroup
300
Group created by Visio.
 70
     0
 71
     1
340
5C6
340
5C7
340
5C8
340
5C9
340
5CA
340
5CB
340
5CC
  0
GROUP
  5
5E6
102
{ACAD_REACTORS
330
D
102
}
100
AcDbGroup
300
Group created by Visio.
 70
     0
 71
     1
340
5E7
340
5E8
340
5E9
340
5EA
340
5EB
340
5EC
340
5ED
340
5EE
  0
GROUP
  5
5F3
102
{ACAD_REACTORS
330
D
102
}
100
AcDbGroup
300
Group created by Visio.
 70
     0
 71
     1
340
5F4
340
5F5
340
5F6
  0
GROUP
  5
5F7
102
{ACAD_REACTORS
330
D
102
}
100
AcDbGroup
300
Group created by Visio.
 70
     0
 71
     1
340
5F8
340
5F9
340
5FA
  0
GROUP
  5
5FE
102
{ACAD_REACTORS
330
D
102
}
100
AcDbGroup
300
Group created by Visio.
 70
     0
 71
     1
340
5FF
340
600
340
601
  0
GROUP
  5
602
102
{ACAD_REACTORS
330
D
102
}
100
AcDbGroup
300
Group created by Visio.
 70
     0
 71
     1
340
603
340
604
340
605
  0
GROUP
  5
607
102
{ACAD_REACTORS
330
D
102
}
100
AcDbGroup
300
Group created by Visio.
 70
     0
 71
     1
340
608
340
609
340
60A
  0
GROUP
  5
60B
102
{ACAD_REACTORS
330
D
102
}
100
AcDbGroup
300
Group created by Visio.
 70
     0
 71
     1
340
60C
340
60D
340
60E
  0
GROUP
  5
60F
102
{ACAD_REACTORS
330
D
102
}
100
AcDbGroup
300
Group created by Visio.
 70
     0
 71
     1
340
610
340
611
340
612
  0
GROUP
  5
613
102
{ACAD_REACTORS
330
D
102
}
100
AcDbGroup
300
Group created by Visio.
 70
     0
 71
     1
340
614
340
615
340
616
  0
GROUP
  5
617
102
{ACAD_REACTORS
330
D
102
}
100
AcDbGroup
300
Group created by Visio.
 70
     0
 71
     1
340
618
340
619
340
61A
  0
GROUP
  5
61B
102
{ACAD_REACTORS
330
D
102
}
100
AcDbGroup
300
Group created by Visio.
 70
     0
 71
     1
340
61C
340
61D
340
61E
  0
GROUP
  5
61F
102
{ACAD_REACTORS
330
D
102
}
100
AcDbGroup
300
Group created by Visio.
 70
     0
 71
     1
340
620
340
621
340
622
  0
GROUP
  5
623
102
{ACAD_REACTORS
330
D
102
}
100
AcDbGroup
300
Group created by Visio.
 70
     0
 71
     1
340
624
340
625
340
626
  0
GROUP
  5
627
102
{ACAD_REACTORS
330
D
102
}
100
AcDbGroup
300
Group created by Visio.
 70
     0
 71
     1
340
628
340
629
340
62A
  0
GROUP
  5
62B
102
{ACAD_REACTORS
330
D
102
}
100
AcDbGroup
300
Group created by Visio.
 70
     0
 71
     1
340
62C
340
62D
340
62E
  0
GROUP
  5
62F
102
{ACAD_REACTORS
330
D
102
}
100
AcDbGroup
300
Group created by Visio.
 70
     0
 71
     1
340
630
340
631
340
632
  0
GROUP
  5
633
102
{ACAD_REACTORS
330
D
102
}
100
AcDbGroup
300
Group created by Visio.
 70
     0
 71
     1
340
634
340
635
340
636
  0
GROUP
  5
637
102
{ACAD_REACTORS
330
D
102
}
100
AcDbGroup
300
Group created by Visio.
 70
     0
 71
     1
340
638
340
639
340
63A
  0
GROUP
  5
63B
102
{ACAD_REACTORS
330
D
102
}
100
AcDbGroup
300
Group created by Visio.
 70
     0
 71
     1
340
63C
340
63D
340
63E
  0
GROUP
  5
63F
102
{ACAD_REACTORS
330
D
102
}
100
AcDbGroup
300
Group created by Visio.
 70
     0
 71
     1
340
640
340
641
340
642
  0
GROUP
  5
643
102
{ACAD_REACTORS
330
D
102
}
100
AcDbGroup
300
Group created by Visio.
 70
     0
 71
     1
340
644
340
645
340
646
  0
GROUP
  5
647
102
{ACAD_REACTORS
330
D
102
}
100
AcDbGroup
300
Group created by Visio.
 70
     0
 71
     1
340
648
340
649
340
64A
  0
GROUP
  5
64B
102
{ACAD_REACTORS
330
D
102
}
100
AcDbGroup
300
Group created by Visio.
 70
     0
 71
     1
340
64C
340
64D
340
64E
  0
GROUP
  5
64F
102
{ACAD_REACTORS
330
D
102
}
100
AcDbGroup
300
Group created by Visio.
 70
     0
 71
     1
340
650
340
651
340
652
  0
GROUP
  5
653
102
{ACAD_REACTORS
330
D
102
}
100
AcDbGroup
300
Group created by Visio.
 70
     0
 71
     1
340
654
340
655
340
656
  0
GROUP
  5
657
102
{ACAD_REACTORS
330
D
102
}
100
AcDbGroup
300
Group created by Visio.
 70
     0
 71
     1
340
658
340
659
340
65A
  0
GROUP
  5
65B
102
{ACAD_REACTORS
330
D
102
}
100
AcDbGroup
300
Group created by Visio.
 70
     0
 71
     1
340
65C
340
65D
340
65E
  0
GROUP
  5
65F
102
{ACAD_REACTORS
330
D
102
}
100
AcDbGroup
300
Group created by Visio.
 70
     0
 71
     1
340
660
340
661
340
662
  0
GROUP
  5
663
102
{ACAD_REACTORS
330
D
102
}
100
AcDbGroup
300
Group created by Visio.
 70
     0
 71
     1
340
664
340
665
340
666
340
667
  0
GROUP
  5
668
102
{ACAD_REACTORS
330
D
102
}
100
AcDbGroup
300
Group created by Visio.
 70
     0
 71
     1
340
669
340
66A
340
66B
340
66C
340
66D
340
66E
340
66F
340
670
340
672
340
673
340
674
340
675
340
676
340
677
340
678
340
679
340
67A
340
67B
340
67C
340
67D
340
67E
340
67F
340
680
340
681
340
682
340
683
340
684
340
685
340
686
340
687
340
688
340
689
340
671
  0
GROUP
  5
68A
102
{ACAD_REACTORS
330
D
102
}
100
AcDbGroup
300
Group created by Visio.
 70
     0
 71
     1
340
68B
340
68D
340
68C
340
68E
340
68F
340
690
340
691
340
692
340
693
340
694
340
695
  0
ENDSEC
  0
EOF
