  0
SECTION
  2
HEADER
  9
$ACADVER
  1
AC1014
  9
$ACADMAINTVER
 70
     9
  9
$DWGCODEPAGE
  3
ANSI_932
  9
$INSBASE
 10
0.0
 20
0.0
 30
0.0
  9
$EXTMIN
 10
0.0
 20
0.0
 30
0.0
  9
$EXTMAX
 10
210.0
 20
297.0
 30
0.0
  9
$LIMMIN
 10
0.0
 20
0.0
  9
$LIMMAX
 10
210.0
 20
297.0
  9
$ORTHOMODE
 70
     0
  9
$REGENMODE
 70
     1
  9
$FILLMODE
 70
     1
  9
$QTEXTMODE
 70
     0
  9
$MIRRTEXT
 70
     1
  9
$DRAGMODE
 70
     2
  9
$LTSCALE
 40
1.0
  9
$OSMODE
 70
    37
  9
$ATTMODE
 70
     1
  9
$TEXTSIZE
 40
2.5
  9
$TRACEWID
 40
1.0
  9
$TEXTSTYLE
  7
ＭＳ_ゴシック
  9
$CLAYER
  8
0
  9
$CELTYPE
  6
BYLAYER
  9
$CECOLOR
 62
   256
  9
$CELTSCALE
 40
1.0
  9
$DELOBJ
 70
     1
  9
$DISPSILH
 70
     0
  9
$DIMSCALE
 40
1.0
  9
$DIMASZ
 40
2.5
  9
$DIMEXO
 40
1.0
  9
$DIMDLI
 40
6.0
  9
$DIMRND
 40
0.0
  9
$DIMDLE
 40
4.0
  9
$DIMEXE
 40
1.0
  9
$DIMTP
 40
0.0
  9
$DIMTM
 40
0.0
  9
$DIMTXT
 40
3.0
  9
$DIMCEN
 40
2.5
  9
$DIMTSZ
 40
0.0
  9
$DIMTOL
 70
     0
  9
$DIMLIM
 70
     0
  9
$DIMTIH
 70
     0
  9
$DIMTOH
 70
     0
  9
$DIMSE1
 70
     0
  9
$DIMSE2
 70
     0
  9
$DIMTAD
 70
     1
  9
$DIMZIN
 70
     8
  9
$DIMBLK
  1

  9
$DIMASO
 70
     1
  9
$DIMSHO
 70
     1
  9
$DIMPOST
  1

  9
$DIMAPOST
  1

  9
$DIMALT
 70
     0
  9
$DIMALTD
 70
     3
  9
$DIMALTF
 40
0.03937
  9
$DIMLFAC
 40
1.0
  9
$DIMTOFL
 70
     1
  9
$DIMTVP
 40
0.0
  9
$DIMTIX
 70
     0
  9
$DIMSOXD
 70
     0
  9
$DIMSAH
 70
     1
  9
$DIMBLK1
  1
FXTIP_ARROW_S
  9
$DIMBLK2
  1
FXTIP_ARROW_E
  9
$DIMSTYLE
  2
FX_DIMINFO
  9
$DIMCLRD
 70
     0
  9
$DIMCLRE
 70
     0
  9
$DIMCLRT
 70
     0
  9
$DIMTFAC
 40
1.0
  9
$DIMGAP
 40
1.0
  9
$DIMJUST
 70
     0
  9
$DIMSD1
 70
     0
  9
$DIMSD2
 70
     0
  9
$DIMTOLJ
 70
     1
  9
$DIMTZIN
 70
     8
  9
$DIMALTZ
 70
     0
  9
$DIMALTTZ
 70
     0
  9
$DIMFIT
 70
     3
  9
$DIMUPT
 70
     0
  9
$DIMUNIT
 70
     2
  9
$DIMDEC
 70
     2
  9
$DIMTDEC
 70
     2
  9
$DIMALTU
 70
     2
  9
$DIMALTTD
 70
     3
  9
$DIMTXSTY
  7
ＭＳ_ゴシック
  9
$DIMAUNIT
 70
     0
  9
$LUNITS
 70
     2
  9
$LUPREC
 70
     4
  9
$SKETCHINC
 40
1.0
  9
$FILLETRAD
 40
10.0
  9
$AUNITS
 70
     0
  9
$AUPREC
 70
     0
  9
$MENU
  1
.
  9
$ELEVATION
 40
0.0
  9
$PELEVATION
 40
0.0
  9
$THICKNESS
 40
0.0
  9
$LIMCHECK
 70
     0
  9
$CHAMFERA
 40
0.0
  9
$CHAMFERB
 40
0.0
  9
$CHAMFERC
 40
0.0
  9
$CHAMFERD
 40
0.0
  9
$SKPOLY
 70
     0
  9
$TDCREATE
 40
2457744.448096585
  9
$TDUPDATE
 40
2457744.448097674
  9
$TDINDWG
 40
0.0000000116
  9
$TDUSRTIMER
 40
0.0000000116
  9
$USRTIMER
 70
     1
  9
$ANGBASE
 50
0.0
  9
$ANGDIR
 70
     0
  9
$PDMODE
 70
     0
  9
$PDSIZE
 40
0.0
  9
$PLINEWID
 40
0.0
  9
$COORDS
 70
     1
  9
$SPLFRAME
 70
     0
  9
$SPLINETYPE
 70
     6
  9
$SPLINESEGS
 70
     8
  9
$ATTDIA
 70
     0
  9
$ATTREQ
 70
     1
  9
$HANDLING
 70
     1
  9
$HANDSEED
  5
2AA
  9
$SURFTAB1
 70
     6
  9
$SURFTAB2
 70
     6
  9
$SURFTYPE
 70
     6
  9
$SURFU
 70
     6
  9
$SURFV
 70
     6
  9
$UCSNAME
  2

  9
$UCSORG
 10
0.0
 20
0.0
 30
0.0
  9
$UCSXDIR
 10
1.0
 20
0.0
 30
0.0
  9
$UCSYDIR
 10
0.0
 20
1.0
 30
0.0
  9
$PUCSNAME
  2

  9
$PUCSORG
 10
0.0
 20
0.0
 30
0.0
  9
$PUCSXDIR
 10
1.0
 20
0.0
 30
0.0
  9
$PUCSYDIR
 10
0.0
 20
1.0
 30
0.0
  9
$USERI1
 70
     0
  9
$USERI2
 70
     0
  9
$USERI3
 70
     0
  9
$USERI4
 70
     0
  9
$USERI5
 70
     0
  9
$USERR1
 40
0.0
  9
$USERR2
 40
0.0
  9
$USERR3
 40
0.0
  9
$USERR4
 40
0.0
  9
$USERR5
 40
0.0
  9
$WORLDVIEW
 70
     1
  9
$SHADEDGE
 70
     3
  9
$SHADEDIF
 70
    70
  9
$TILEMODE
 70
     1
  9
$MAXACTVP
 70
    64
  9
$PINSBASE
 10
0.0
 20
0.0
 30
0.0
  9
$PLIMCHECK
 70
     0
  9
$PEXTMIN
 10
1.000000000000000E+20
 20
1.000000000000000E+20
 30
1.000000000000000E+20
  9
$PEXTMAX
 10
-1.000000000000000E+20
 20
-1.000000000000000E+20
 30
-1.000000000000000E+20
  9
$PLIMMIN
 10
0.0
 20
0.0
  9
$PLIMMAX
 10
420.0
 20
297.0
  9
$UNITMODE
 70
     0
  9
$VISRETAIN
 70
     1
  9
$PLINEGEN
 70
     0
  9
$PSLTSCALE
 70
     1
  9
$TREEDEPTH
 70
  3020
  9
$PICKSTYLE
 70
     1
  9
$CMLSTYLE
  2
STANDARD
  9
$CMLJUST
 70
     0
  9
$CMLSCALE
 40
20.0
  9
$PROXYGRAPHICS
 70
     1
  9
$MEASUREMENT
 70
     1
  0
ENDSEC
  0
SECTION
  2
CLASSES
  0
CLASS
  1
ACDBDICTIONARYWDFLT
  2
AcDbDictionaryWithDefault
  3
ObjectDBX Classes
 90
        0
280
     0
281
     0
  0
CLASS
  1
VISUALSTYLE
  2
AcDbVisualStyle
  3
ObjectDBX Classes
 90
     4095
280
     0
281
     0
  0
CLASS
  1
MATERIAL
  2
AcDbMaterial
  3
ObjectDBX Classes
 90
     1153
280
     0
281
     0
  0
CLASS
  1
SCALE
  2
AcDbScale
  3
ObjectDBX Classes
 90
     1153
280
     0
281
     0
  0
CLASS
  1
TABLESTYLE
  2
AcDbTableStyle
  3
ObjectDBX Classes
 90
     4095
280
     0
281
     0
  0
CLASS
  1
MLEADERSTYLE
  2
AcDbMLeaderStyle
  3
ACDB_MLEADERSTYLE_CLASS
 90
     4095
280
     0
281
     0
  0
CLASS
  1
SUN
  2
AcDbSun
  3
SCENEOE
 90
     1153
280
     0
281
     0
  0
CLASS
  1
DICTIONARYVAR
  2
AcDbDictionaryVar
  3
ObjectDBX Classes
 90
        0
280
     0
281
     0
  0
CLASS
  1
XRECORD
  2
AcDbXrecord
  3
ObjectDBX Classes
 90
        0
280
     0
281
     0
  0
CLASS
  1
LWPOLYLINE
  2
AcDbPolyline
  3
ObjectDBX Classes
 90
        0
280
     0
281
     1
  0
CLASS
  1
HATCH
  2
AcDbHatch
  3
ObjectDBX Classes
 90
        0
280
     0
281
     1
  0
CLASS
  1
ACDBPLACEHOLDER
  2
AcDbPlaceHolder
  3
ObjectDBX Classes
 90
        0
280
     0
281
     0
  0
CLASS
  1
LAYOUT
  2
AcDbLayout
  3
ObjectDBX Classes
 90
        0
280
     0
281
     0
  0
ENDSEC
  0
SECTION
  2
TABLES
  0
TABLE
  2
VPORT
  5
8
102
{ACAD_XDICTIONARY
360
29F
102
}
330
0
100
AcDbSymbolTable
 70
     1
  0
VPORT
  5
29
330
8
100
AcDbSymbolTableRecord
100
AcDbViewportTableRecord
  2
*ACTIVE
 70
     0
 10
0.0
 20
0.0
 11
1.0
 21
1.0
 12
105.0
 22
148.5
 13
0.0
 23
0.0
 14
10.0
 24
10.0
 15
10.0
 25
10.0
 16
0.0
 26
0.0
 36
1.0
 17
0.0
 27
0.0
 37
0.0
 40
297.0
 41
0.7070707070707071
 42
50.0
 43
0.0
 44
0.0
 50
0.0
 51
0.0
 71
     0
 72
   100
 73
     1
 74
     3
 75
     0
 76
     0
 77
     0
 78
     0
  0
ENDTAB
  0
TABLE
  2
LTYPE
  5
5
330
0
100
AcDbSymbolTable
 70
     3
  0
LTYPE
  5
14
330
5
100
AcDbSymbolTableRecord
100
AcDbLinetypeTableRecord
  2
BYBLOCK
 70
     0
  3

 72
    65
 73
     0
 40
0.0
  0
LTYPE
  5
15
330
5
100
AcDbSymbolTableRecord
100
AcDbLinetypeTableRecord
  2
BYLAYER
 70
     0
  3

 72
    65
 73
     0
 40
0.0
  0
LTYPE
  5
16
330
5
100
AcDbSymbolTableRecord
100
AcDbLinetypeTableRecord
  2
CONTINUOUS
 70
     0
  3
Solid line
 72
    65
 73
     0
 40
0.0
  0
LTYPE
  5
DC
330
5
100
AcDbSymbolTableRecord
100
AcDbLinetypeTableRecord
  2
0_5実線
 70
     0
  3

 72
    65
 73
     0
 40
0.0
  0
LTYPE
  5
E6
330
5
100
AcDbSymbolTableRecord
100
AcDbLinetypeTableRecord
  2
0_35点線
 70
     0
  3

 72
    65
 73
     2
 40
2.0
 49
1.0
 74
     0
 49
-1.0
 74
     0
  0
ENDTAB
  0
TABLE
  2
LAYER
  5
2
330
0
100
AcDbSymbolTable
 70
     4
  0
LAYER
  5
10
330
2
100
AcDbSymbolTableRecord
100
AcDbLayerTableRecord
  2
0
 70
     0
 62
     7
  6
CONTINUOUS
  0
LAYER
  5
DB
330
2
100
AcDbSymbolTableRecord
100
AcDbLayerTableRecord
  2
GR1_16
 70
     0
 62
     1
  6
0_5実線
  0
LAYER
  5
E1
330
2
100
AcDbSymbolTableRecord
100
AcDbLayerTableRecord
  2
GR2_01
 70
     0
 62
     1
  6
0_5実線
  0
LAYER
  5
EA
330
2
100
AcDbSymbolTableRecord
100
AcDbLayerTableRecord
  2
GR4_01
 70
     0
 62
     1
  6
0_5実線
  0
ENDTAB
  0
TABLE
  2
STYLE
  5
3
330
0
100
AcDbSymbolTable
 70
     4
  0
STYLE
  5
11
330
3
100
AcDbSymbolTableRecord
100
AcDbTextStyleTableRecord
  2
STANDARD
 70
     0
 40
0.0
 41
1.0
 50
0.0
 71
     0
 42
2.5
  3
txt
  4

  0
STYLE
  5
6E
330
3
100
AcDbSymbolTableRecord
100
AcDbTextStyleTableRecord
  2
FX_VECTOR
 70
     0
 40
0.0
 41
1.0
 50
0.0
 71
     0
 42
2.5
  3
MONOTXT.SHX
  4
BigFont.shx
  0
STYLE
  5
D9
330
3
100
AcDbSymbolTableRecord
100
AcDbTextStyleTableRecord
  2
ＭＳ_ゴシック
 70
     0
 40
0.0
 41
1.0
 50
0.0
 71
     0
 42
2.5
  3

  4

1001
ACAD
1000
ＭＳ ゴシック
1071
    32817
  0
STYLE
  5
DA
330
3
100
AcDbSymbolTableRecord
100
AcDbTextStyleTableRecord
  2
DEFAULT
 70
     0
 40
0.0
 41
1.0
 50
0.0
 71
     0
 42
2.5
  3

  4

1001
ACAD
1000
ＭＳ ゴシック
1071
    32817
  0
ENDTAB
  0
TABLE
  2
VIEW
  5
6
330
0
100
AcDbSymbolTable
 70
     0
  0
ENDTAB
  0
TABLE
  2
UCS
  5
7
330
0
100
AcDbSymbolTable
 70
     0
  0
ENDTAB
  0
TABLE
  2
APPID
  5
9
330
0
100
AcDbSymbolTable
 70
     2
  0
APPID
  5
12
330
9
100
AcDbSymbolTableRecord
100
AcDbRegAppTableRecord
  2
ACAD
 70
     0
  0
APPID
  5
2A9
330
9
100
AcDbSymbolTableRecord
100
AcDbRegAppTableRecord
  2
ACAD_MLEADERVER
 70
     0
  0
ENDTAB
  0
TABLE
  2
DIMSTYLE
  5
A
330
0
100
AcDbSymbolTable
 70
     2
  0
DIMSTYLE
105
27
330
A
100
AcDbSymbolTableRecord
100
AcDbDimStyleTableRecord
  2
ISO-25
 70
     0
  3

  4

  5

  6

  7

 40
1.0
 41
2.5
 42
0.625
 43
3.75
 44
1.25
 45
0.0
 46
0.0
 47
0.0
 48
0.0
140
2.5
141
2.5
142
0.0
143
0.03937007874016
144
1.0
145
0.0
146
1.0
147
0.625
 71
     0
 72
     0
 73
     0
 74
     0
 75
     0
 76
     0
 77
     1
 78
     8
170
     0
171
     3
172
     1
173
     0
174
     0
175
     0
176
     0
177
     0
178
     0
270
     2
271
     2
272
     2
273
     2
274
     3
340
11
275
     0
280
     0
281
     0
282
     0
283
     0
284
     8
285
     0
286
     0
287
     3
288
     0
  0
DIMSTYLE
105
D8
330
A
100
AcDbSymbolTableRecord
100
AcDbDimStyleTableRecord
  2
FX_DIMINFO
 70
     0
  3

  4

  5

  6
FXTIP_ARROW_S
  7
FXTIP_ARROW_E
 40
1.0
 41
2.5
 42
1.0
 43
6.0
 44
1.0
 45
0.0
 46
4.0
 47
0.0
 48
0.0
140
3.0
141
2.5
142
0.0
143
0.03937
144
1.0
145
0.0
146
1.0
147
1.0
 71
     0
 72
     0
 73
     0
 74
     0
 75
     0
 76
     0
 77
     1
 78
     8
170
     0
171
     3
172
     1
173
     1
174
     0
175
     0
176
     0
177
     0
178
     0
179
     2
270
     2
271
     2
272
     2
273
     2
274
     3
340
D9
275
     0
280
     0
281
     0
282
     0
283
     1
284
     8
285
     0
286
     0
287
     3
288
     0
  0
ENDTAB
  0
TABLE
  2
BLOCK_RECORD
  5
1
330
0
100
AcDbSymbolTable
 70
    20
  0
BLOCK_RECORD
  5
1F
330
1
100
AcDbSymbolTableRecord
100
AcDbBlockTableRecord
  2
*MODEL_SPACE
  0
BLOCK_RECORD
  5
1B
330
1
100
AcDbSymbolTableRecord
100
AcDbBlockTableRecord
  2
*PAPER_SPACE
  0
BLOCK_RECORD
  5
6F
330
1
100
AcDbSymbolTableRecord
100
AcDbBlockTableRecord
  2
FXTIP_NONE
  0
BLOCK_RECORD
  5
72
330
1
100
AcDbSymbolTableRecord
100
AcDbBlockTableRecord
  2
FXTIP_ARROW_S
  0
BLOCK_RECORD
  5
78
330
1
100
AcDbSymbolTableRecord
100
AcDbBlockTableRecord
  2
FXTIP_ARROW_E
  0
BLOCK_RECORD
  5
7E
330
1
100
AcDbSymbolTableRecord
100
AcDbBlockTableRecord
  2
FXTIP_BLACKDOT_S
  0
BLOCK_RECORD
  5
84
330
1
100
AcDbSymbolTableRecord
100
AcDbBlockTableRecord
  2
FXTIP_BLACKDOT_E
  0
BLOCK_RECORD
  5
8A
330
1
100
AcDbSymbolTableRecord
100
AcDbBlockTableRecord
  2
FXTIP_TRIANGLE_S
  0
BLOCK_RECORD
  5
91
330
1
100
AcDbSymbolTableRecord
100
AcDbBlockTableRecord
  2
FXTIP_TRIANGLE_E
  0
BLOCK_RECORD
  5
98
330
1
100
AcDbSymbolTableRecord
100
AcDbBlockTableRecord
  2
FXTIP_ARCHITECT_S
  0
BLOCK_RECORD
  5
9E
330
1
100
AcDbSymbolTableRecord
100
AcDbBlockTableRecord
  2
FXTIP_ARCHITECT_E
  0
BLOCK_RECORD
  5
A4
330
1
100
AcDbSymbolTableRecord
100
AcDbBlockTableRecord
  2
FXTIP_CIVIL_S
  0
BLOCK_RECORD
  5
AA
330
1
100
AcDbSymbolTableRecord
100
AcDbBlockTableRecord
  2
FXTIP_CIVIL_E
  0
BLOCK_RECORD
  5
B0
330
1
100
AcDbSymbolTableRecord
100
AcDbBlockTableRecord
  2
FXTIP_WHITEDOT_S
  0
BLOCK_RECORD
  5
B5
330
1
100
AcDbSymbolTableRecord
100
AcDbBlockTableRecord
  2
FXTIP_WHITEDOT_E
  0
BLOCK_RECORD
  5
BA
330
1
100
AcDbSymbolTableRecord
100
AcDbBlockTableRecord
  2
FXTIP_UPARROW_S
  0
BLOCK_RECORD
  5
BF
330
1
100
AcDbSymbolTableRecord
100
AcDbBlockTableRecord
  2
FXTIP_UPARROW_E
  0
BLOCK_RECORD
  5
C4
330
1
100
AcDbSymbolTableRecord
100
AcDbBlockTableRecord
  2
FXTIP_DOWNARROW_S
  0
BLOCK_RECORD
  5
C9
330
1
100
AcDbSymbolTableRecord
100
AcDbBlockTableRecord
  2
FXTIP_DOWNARROW_E
  0
BLOCK_RECORD
  5
CE
330
1
100
AcDbSymbolTableRecord
100
AcDbBlockTableRecord
  2
FXTIP_BLACKTRIANGLE_S
  0
BLOCK_RECORD
  5
D3
330
1
100
AcDbSymbolTableRecord
100
AcDbBlockTableRecord
  2
FXTIP_BLACKTRIANGLE_E
  0
ENDTAB
  0
ENDSEC
  0
SECTION
  2
BLOCKS
  0
BLOCK
  5
20
330
1F
100
AcDbEntity
  8
0
100
AcDbBlockBegin
  2
*MODEL_SPACE
 70
     0
 10
0.0
 20
0.0
 30
0.0
  3
*MODEL_SPACE
  1

  0
ENDBLK
  5
21
330
1F
100
AcDbEntity
  8
0
100
AcDbBlockEnd
  0
BLOCK
  5
1C
330
1B
100
AcDbEntity
 67
     1
  8
0
100
AcDbBlockBegin
  2
*PAPER_SPACE
 70
     0
 10
0.0
 20
0.0
 30
0.0
  3
*PAPER_SPACE
  1

  0
ENDBLK
  5
1D
330
1B
100
AcDbEntity
 67
     1
  8
0
100
AcDbBlockEnd
  0
BLOCK
  5
70
330
6F
100
AcDbEntity
  8
0
100
AcDbBlockBegin
  2
FXTIP_NONE
 70
     0
 10
0.0
 20
0.0
 30
0.0
  3
FXTIP_NONE
  1
FXTIP_NONE
  0
ENDBLK
  5
71
330
6F
100
AcDbEntity
  8
0
100
AcDbBlockEnd
  0
BLOCK
  5
73
330
72
100
AcDbEntity
  8
0
100
AcDbBlockBegin
  2
FXTIP_ARROW_S
 70
     0
 10
0.0
 20
0.0
 30
0.0
  3
FXTIP_ARROW_S
  1
FXTIP_ARROW_S
  0
LINE
  5
75
330
72
100
AcDbEntity
  8
0
  6
CONTINUOUS
 62
     0
100
AcDbLine
 10
0.0
 20
0.0
 30
0.0
 11
-1.0
 21
0.0000000000000001
 31
0.0
  0
LINE
  5
76
330
72
100
AcDbEntity
  8
0
  6
CONTINUOUS
 62
     0
100
AcDbLine
 10
0.0
 20
0.0
 30
0.0
 11
-0.9659258262890683
 21
-0.2588190451025206
 31
0.0
  0
LINE
  5
77
330
72
100
AcDbEntity
  8
0
  6
CONTINUOUS
 62
     0
100
AcDbLine
 10
0.0
 20
0.0
 30
0.0
 11
-0.9659258262890683
 21
0.2588190451025209
 31
0.0
  0
ENDBLK
  5
74
330
72
100
AcDbEntity
  8
0
100
AcDbBlockEnd
  0
BLOCK
  5
79
330
78
100
AcDbEntity
  8
0
100
AcDbBlockBegin
  2
FXTIP_ARROW_E
 70
     0
 10
0.0
 20
0.0
 30
0.0
  3
FXTIP_ARROW_E
  1
FXTIP_ARROW_E
  0
LINE
  5
7B
330
78
100
AcDbEntity
  8
0
  6
CONTINUOUS
 62
     0
100
AcDbLine
 10
0.0
 20
0.0
 30
0.0
 11
-1.0
 21
0.0
 31
0.0
  0
LINE
  5
7C
330
78
100
AcDbEntity
  8
0
  6
CONTINUOUS
 62
     0
100
AcDbLine
 10
0.0
 20
0.0
 30
0.0
 11
-0.9659258262890683
 21
0.2588190451025207
 31
0.0
  0
LINE
  5
7D
330
78
100
AcDbEntity
  8
0
  6
CONTINUOUS
 62
     0
100
AcDbLine
 10
0.0
 20
0.0
 30
0.0
 11
-0.9659258262890683
 21
-0.2588190451025207
 31
0.0
  0
ENDBLK
  5
7A
330
78
100
AcDbEntity
  8
0
100
AcDbBlockEnd
  0
BLOCK
  5
7F
330
7E
100
AcDbEntity
  8
0
100
AcDbBlockBegin
  2
FXTIP_BLACKDOT_S
 70
     0
 10
0.0
 20
0.0
 30
0.0
  3
FXTIP_BLACKDOT_S
  1
FXTIP_BLACKDOT_S
  0
LINE
  5
81
330
7E
100
AcDbEntity
  8
0
  6
CONTINUOUS
 62
     0
100
AcDbLine
 10
0.0
 20
0.0
 30
0.0
 11
-1.0
 21
0.0000000000000001
 31
0.0
  0
LWPOLYLINE
  5
82
330
7E
100
AcDbEntity
  8
0
  6
CONTINUOUS
 62
     0
100
AcDbPolyline
 90
        2
 70
     1
 43
0.2
 10
-0.1
 20
0.0
 42
1.0
 10
0.1
 20
0.0
 42
1.0
  0
CIRCLE
  5
83
330
7E
100
AcDbEntity
  8
0
  6
CONTINUOUS
 62
     0
100
AcDbCircle
 10
0.0
 20
0.0
 30
0.0
 40
0.2
  0
ENDBLK
  5
80
330
7E
100
AcDbEntity
  8
0
100
AcDbBlockEnd
  0
BLOCK
  5
85
330
84
100
AcDbEntity
  8
0
100
AcDbBlockBegin
  2
FXTIP_BLACKDOT_E
 70
     0
 10
0.0
 20
0.0
 30
0.0
  3
FXTIP_BLACKDOT_E
  1
FXTIP_BLACKDOT_E
  0
LINE
  5
87
330
84
100
AcDbEntity
  8
0
  6
CONTINUOUS
 62
     0
100
AcDbLine
 10
0.0
 20
0.0
 30
0.0
 11
-1.0
 21
0.0
 31
0.0
  0
LWPOLYLINE
  5
88
330
84
100
AcDbEntity
  8
0
  6
CONTINUOUS
 62
     0
100
AcDbPolyline
 90
        2
 70
     1
 43
0.2
 10
-0.1
 20
0.0
 42
1.0
 10
0.1
 20
0.0
 42
1.0
  0
CIRCLE
  5
89
330
84
100
AcDbEntity
  8
0
  6
CONTINUOUS
 62
     0
100
AcDbCircle
 10
0.0
 20
0.0
 30
0.0
 40
0.2
  0
ENDBLK
  5
86
330
84
100
AcDbEntity
  8
0
100
AcDbBlockEnd
  0
BLOCK
  5
8B
330
8A
100
AcDbEntity
  8
0
100
AcDbBlockBegin
  2
FXTIP_TRIANGLE_S
 70
     0
 10
0.0
 20
0.0
 30
0.0
  3
FXTIP_TRIANGLE_S
  1
FXTIP_TRIANGLE_S
  0
LINE
  5
8D
330
8A
100
AcDbEntity
  8
0
  6
CONTINUOUS
 62
     0
100
AcDbLine
 10
0.0
 20
0.0
 30
0.0
 11
-1.0
 21
0.0000000000000001
 31
0.0
  0
LINE
  5
8E
330
8A
100
AcDbEntity
  8
0
  6
CONTINUOUS
 62
     0
100
AcDbLine
 10
0.0
 20
0.0
 30
0.0
 11
-0.9659258262890683
 21
-0.2588190451025206
 31
0.0
  0
LINE
  5
8F
330
8A
100
AcDbEntity
  8
0
  6
CONTINUOUS
 62
     0
100
AcDbLine
 10
0.0
 20
0.0
 30
0.0
 11
-0.9659258262890683
 21
0.2588190451025209
 31
0.0
  0
LINE
  5
90
330
8A
100
AcDbEntity
  8
0
  6
CONTINUOUS
 62
     0
100
AcDbLine
 10
-0.9659258262890683
 20
-0.2588190451025206
 30
0.0
 11
-0.9659258262890683
 21
0.2588190451025209
 31
0.0
  0
ENDBLK
  5
8C
330
8A
100
AcDbEntity
  8
0
100
AcDbBlockEnd
  0
BLOCK
  5
92
330
91
100
AcDbEntity
  8
0
100
AcDbBlockBegin
  2
FXTIP_TRIANGLE_E
 70
     0
 10
0.0
 20
0.0
 30
0.0
  3
FXTIP_TRIANGLE_E
  1
FXTIP_TRIANGLE_E
  0
LINE
  5
94
330
91
100
AcDbEntity
  8
0
  6
CONTINUOUS
 62
     0
100
AcDbLine
 10
0.0
 20
0.0
 30
0.0
 11
-1.0
 21
0.0
 31
0.0
  0
LINE
  5
95
330
91
100
AcDbEntity
  8
0
  6
CONTINUOUS
 62
     0
100
AcDbLine
 10
0.0
 20
0.0
 30
0.0
 11
-0.9659258262890683
 21
0.2588190451025207
 31
0.0
  0
LINE
  5
96
330
91
100
AcDbEntity
  8
0
  6
CONTINUOUS
 62
     0
100
AcDbLine
 10
0.0
 20
0.0
 30
0.0
 11
-0.9659258262890683
 21
-0.2588190451025207
 31
0.0
  0
LINE
  5
97
330
91
100
AcDbEntity
  8
0
  6
CONTINUOUS
 62
     0
100
AcDbLine
 10
-0.9659258262890683
 20
0.2588190451025207
 30
0.0
 11
-0.9659258262890683
 21
-0.2588190451025207
 31
0.0
  0
ENDBLK
  5
93
330
91
100
AcDbEntity
  8
0
100
AcDbBlockEnd
  0
BLOCK
  5
99
330
98
100
AcDbEntity
  8
0
100
AcDbBlockBegin
  2
FXTIP_ARCHITECT_S
 70
     0
 10
0.0
 20
0.0
 30
0.0
  3
FXTIP_ARCHITECT_S
  1
FXTIP_ARCHITECT_S
  0
LINE
  5
9B
330
98
100
AcDbEntity
  8
0
  6
CONTINUOUS
 62
     0
100
AcDbLine
 10
0.0
 20
0.0
 30
0.0
 11
-1.0
 21
0.0000000000000001
 31
0.0
  0
LINE
  5
9C
330
98
100
AcDbEntity
  8
0
  6
CONTINUOUS
 62
     0
100
AcDbLine
 10
0.0
 20
0.0
 30
0.0
 11
-0.7071067811865476
 21
-0.7071067811865474
 31
0.0
  0
LINE
  5
9D
330
98
100
AcDbEntity
  8
0
  6
CONTINUOUS
 62
     0
100
AcDbLine
 10
0.0
 20
0.0
 30
0.0
 11
0.7071067811865476
 21
0.7071067811865474
 31
0.0
  0
ENDBLK
  5
9A
330
98
100
AcDbEntity
  8
0
100
AcDbBlockEnd
  0
BLOCK
  5
9F
330
9E
100
AcDbEntity
  8
0
100
AcDbBlockBegin
  2
FXTIP_ARCHITECT_E
 70
     0
 10
0.0
 20
0.0
 30
0.0
  3
FXTIP_ARCHITECT_E
  1
FXTIP_ARCHITECT_E
  0
LINE
  5
A1
330
9E
100
AcDbEntity
  8
0
  6
CONTINUOUS
 62
     0
100
AcDbLine
 10
0.0
 20
0.0
 30
0.0
 11
-1.0
 21
0.0
 31
0.0
  0
LINE
  5
A2
330
9E
100
AcDbEntity
  8
0
  6
CONTINUOUS
 62
     0
100
AcDbLine
 10
0.0
 20
0.0
 30
0.0
 11
0.7071067811865475
 21
0.7071067811865475
 31
0.0
  0
LINE
  5
A3
330
9E
100
AcDbEntity
  8
0
  6
CONTINUOUS
 62
     0
100
AcDbLine
 10
0.0
 20
0.0
 30
0.0
 11
-0.7071067811865475
 21
-0.7071067811865475
 31
0.0
  0
ENDBLK
  5
A0
330
9E
100
AcDbEntity
  8
0
100
AcDbBlockEnd
  0
BLOCK
  5
A5
330
A4
100
AcDbEntity
  8
0
100
AcDbBlockBegin
  2
FXTIP_CIVIL_S
 70
     0
 10
0.0
 20
0.0
 30
0.0
  3
FXTIP_CIVIL_S
  1
FXTIP_CIVIL_S
  0
LINE
  5
A7
330
A4
100
AcDbEntity
  8
0
  6
CONTINUOUS
 62
     0
100
AcDbLine
 10
0.0
 20
0.0
 30
0.0
 11
-1.0
 21
0.0000000000000001
 31
0.0
  0
LINE
  5
A8
330
A4
100
AcDbEntity
  8
0
  6
CONTINUOUS
 62
     0
100
AcDbLine
 10
0.0
 20
-0.1
 30
0.0
 11
-1.0
 21
-0.0999999999999999
 31
0.0
  0
LINE
  5
A9
330
A4
100
AcDbEntity
  8
0
  6
CONTINUOUS
 62
     0
100
AcDbLine
 10
0.0
 20
-0.2
 30
0.0
 11
-1.0
 21
-0.1999999999999999
 31
0.0
  0
ENDBLK
  5
A6
330
A4
100
AcDbEntity
  8
0
100
AcDbBlockEnd
  0
BLOCK
  5
AB
330
AA
100
AcDbEntity
  8
0
100
AcDbBlockBegin
  2
FXTIP_CIVIL_E
 70
     0
 10
0.0
 20
0.0
 30
0.0
  3
FXTIP_CIVIL_E
  1
FXTIP_CIVIL_E
  0
LINE
  5
AD
330
AA
100
AcDbEntity
  8
0
  6
CONTINUOUS
 62
     0
100
AcDbLine
 10
0.0
 20
0.0
 30
0.0
 11
-1.0
 21
0.0
 31
0.0
  0
LINE
  5
AE
330
AA
100
AcDbEntity
  8
0
  6
CONTINUOUS
 62
     0
100
AcDbLine
 10
0.0
 20
0.1
 30
0.0
 11
-1.0
 21
0.1
 31
0.0
  0
LINE
  5
AF
330
AA
100
AcDbEntity
  8
0
  6
CONTINUOUS
 62
     0
100
AcDbLine
 10
0.0
 20
0.2
 30
0.0
 11
-1.0
 21
0.2
 31
0.0
  0
ENDBLK
  5
AC
330
AA
100
AcDbEntity
  8
0
100
AcDbBlockEnd
  0
BLOCK
  5
B1
330
B0
100
AcDbEntity
  8
0
100
AcDbBlockBegin
  2
FXTIP_WHITEDOT_S
 70
     0
 10
0.0
 20
0.0
 30
0.0
  3
FXTIP_WHITEDOT_S
  1
FXTIP_WHITEDOT_S
  0
LINE
  5
B3
330
B0
100
AcDbEntity
  8
0
  6
CONTINUOUS
 62
     0
100
AcDbLine
 10
0.0
 20
0.0
 30
0.0
 11
-1.0
 21
0.0000000000000001
 31
0.0
  0
CIRCLE
  5
B4
330
B0
100
AcDbEntity
  8
0
  6
CONTINUOUS
 62
     0
100
AcDbCircle
 10
0.0
 20
0.0
 30
0.0
 40
0.2
  0
ENDBLK
  5
B2
330
B0
100
AcDbEntity
  8
0
100
AcDbBlockEnd
  0
BLOCK
  5
B6
330
B5
100
AcDbEntity
  8
0
100
AcDbBlockBegin
  2
FXTIP_WHITEDOT_E
 70
     0
 10
0.0
 20
0.0
 30
0.0
  3
FXTIP_WHITEDOT_E
  1
FXTIP_WHITEDOT_E
  0
LINE
  5
B8
330
B5
100
AcDbEntity
  8
0
  6
CONTINUOUS
 62
     0
100
AcDbLine
 10
0.0
 20
0.0
 30
0.0
 11
-1.0
 21
0.0
 31
0.0
  0
CIRCLE
  5
B9
330
B5
100
AcDbEntity
  8
0
  6
CONTINUOUS
 62
     0
100
AcDbCircle
 10
0.0
 20
0.0
 30
0.0
 40
0.2
  0
ENDBLK
  5
B7
330
B5
100
AcDbEntity
  8
0
100
AcDbBlockEnd
  0
BLOCK
  5
BB
330
BA
100
AcDbEntity
  8
0
100
AcDbBlockBegin
  2
FXTIP_UPARROW_S
 70
     0
 10
0.0
 20
0.0
 30
0.0
  3
FXTIP_UPARROW_S
  1
FXTIP_UPARROW_S
  0
LINE
  5
BD
330
BA
100
AcDbEntity
  8
0
  6
CONTINUOUS
 62
     0
100
AcDbLine
 10
0.0
 20
0.0
 30
0.0
 11
-1.0
 21
0.0000000000000001
 31
0.0
  0
LINE
  5
BE
330
BA
100
AcDbEntity
  8
0
  6
CONTINUOUS
 62
     0
100
AcDbLine
 10
0.0
 20
0.0
 30
0.0
 11
-0.9659258262890683
 21
-0.2588190451025206
 31
0.0
  0
ENDBLK
  5
BC
330
BA
100
AcDbEntity
  8
0
100
AcDbBlockEnd
  0
BLOCK
  5
C0
330
BF
100
AcDbEntity
  8
0
100
AcDbBlockBegin
  2
FXTIP_UPARROW_E
 70
     0
 10
0.0
 20
0.0
 30
0.0
  3
FXTIP_UPARROW_E
  1
FXTIP_UPARROW_E
  0
LINE
  5
C2
330
BF
100
AcDbEntity
  8
0
  6
CONTINUOUS
 62
     0
100
AcDbLine
 10
0.0
 20
0.0
 30
0.0
 11
-1.0
 21
0.0
 31
0.0
  0
LINE
  5
C3
330
BF
100
AcDbEntity
  8
0
  6
CONTINUOUS
 62
     0
100
AcDbLine
 10
0.0
 20
0.0
 30
0.0
 11
-0.9659258262890683
 21
0.2588190451025207
 31
0.0
  0
ENDBLK
  5
C1
330
BF
100
AcDbEntity
  8
0
100
AcDbBlockEnd
  0
BLOCK
  5
C5
330
C4
100
AcDbEntity
  8
0
100
AcDbBlockBegin
  2
FXTIP_DOWNARROW_S
 70
     0
 10
0.0
 20
0.0
 30
0.0
  3
FXTIP_DOWNARROW_S
  1
FXTIP_DOWNARROW_S
  0
LINE
  5
C7
330
C4
100
AcDbEntity
  8
0
  6
CONTINUOUS
 62
     0
100
AcDbLine
 10
0.0
 20
0.0
 30
0.0
 11
-1.0
 21
0.0000000000000001
 31
0.0
  0
LINE
  5
C8
330
C4
100
AcDbEntity
  8
0
  6
CONTINUOUS
 62
     0
100
AcDbLine
 10
0.0
 20
0.0
 30
0.0
 11
-0.9659258262890683
 21
0.2588190451025209
 31
0.0
  0
ENDBLK
  5
C6
330
C4
100
AcDbEntity
  8
0
100
AcDbBlockEnd
  0
BLOCK
  5
CA
330
C9
100
AcDbEntity
  8
0
100
AcDbBlockBegin
  2
FXTIP_DOWNARROW_E
 70
     0
 10
0.0
 20
0.0
 30
0.0
  3
FXTIP_DOWNARROW_E
  1
FXTIP_DOWNARROW_E
  0
LINE
  5
CC
330
C9
100
AcDbEntity
  8
0
  6
CONTINUOUS
 62
     0
100
AcDbLine
 10
0.0
 20
0.0
 30
0.0
 11
-1.0
 21
0.0
 31
0.0
  0
LINE
  5
CD
330
C9
100
AcDbEntity
  8
0
  6
CONTINUOUS
 62
     0
100
AcDbLine
 10
0.0
 20
0.0
 30
0.0
 11
-0.9659258262890683
 21
-0.2588190451025207
 31
0.0
  0
ENDBLK
  5
CB
330
C9
100
AcDbEntity
  8
0
100
AcDbBlockEnd
  0
BLOCK
  5
CF
330
CE
100
AcDbEntity
  8
0
100
AcDbBlockBegin
  2
FXTIP_BLACKTRIANGLE_S
 70
     0
 10
0.0
 20
0.0
 30
0.0
  3
FXTIP_BLACKTRIANGLE_S
  1
FXTIP_BLACKTRIANGLE_S
  0
LINE
  5
D1
330
CE
100
AcDbEntity
  8
0
  6
CONTINUOUS
 62
     0
100
AcDbLine
 10
0.0
 20
0.0
 30
0.0
 11
-1.0
 21
0.0000000000000001
 31
0.0
  0
SOLID
  5
D2
330
CE
100
AcDbEntity
  8
0
  6
CONTINUOUS
 62
     0
100
AcDbTrace
 10
0.0
 20
0.0
 30
0.0
 11
-0.9659258262890683
 21
-0.2588190451025206
 31
0.0
 12
-0.9659258262890683
 22
0.2588190451025209
 32
0.0
 13
-0.9659258262890683
 23
0.2588190451025209
 33
0.0
  0
ENDBLK
  5
D0
330
CE
100
AcDbEntity
  8
0
100
AcDbBlockEnd
  0
BLOCK
  5
D4
330
D3
100
AcDbEntity
  8
0
100
AcDbBlockBegin
  2
FXTIP_BLACKTRIANGLE_E
 70
     0
 10
0.0
 20
0.0
 30
0.0
  3
FXTIP_BLACKTRIANGLE_E
  1
FXTIP_BLACKTRIANGLE_E
  0
LINE
  5
D6
330
D3
100
AcDbEntity
  8
0
  6
CONTINUOUS
 62
     0
100
AcDbLine
 10
0.0
 20
0.0
 30
0.0
 11
-1.0
 21
0.0
 31
0.0
  0
SOLID
  5
D7
330
D3
100
AcDbEntity
  8
0
  6
CONTINUOUS
 62
     0
100
AcDbTrace
 10
0.0
 20
0.0
 30
0.0
 11
-0.9659258262890683
 21
0.2588190451025207
 31
0.0
 12
-0.9659258262890683
 22
-0.2588190451025207
 32
0.0
 13
-0.9659258262890683
 23
-0.2588190451025207
 33
0.0
  0
ENDBLK
  5
D5
330
D3
100
AcDbEntity
  8
0
100
AcDbBlockEnd
  0
ENDSEC
  0
SECTION
  2
ENTITIES
  0
LINE
  5
DD
330
1F
100
AcDbEntity
  8
GR1_16
 62
     7
100
AcDbLine
 10
25.0
 20
12.0
 30
0.0
 11
25.0
 21
285.0
 31
0.0
  0
LINE
  5
DE
330
1F
100
AcDbEntity
  8
GR1_16
 62
     7
100
AcDbLine
 10
198.0
 20
285.0
 30
0.0
 11
25.0
 21
285.0
 31
0.0
  0
LINE
  5
DF
330
1F
100
AcDbEntity
  8
GR1_16
 62
     7
100
AcDbLine
 10
198.0
 20
285.0
 30
0.0
 11
198.0
 21
12.0
 31
0.0
  0
LINE
  5
E0
330
1F
100
AcDbEntity
  8
GR1_16
 62
     7
100
AcDbLine
 10
198.0
 20
12.0
 30
0.0
 11
25.0
 21
12.0
 31
0.0
  0
LINE
  5
E2
330
1F
100
AcDbEntity
  8
GR2_01
 62
     7
100
AcDbLine
 10
37.0
 20
190.0
 30
0.0
 11
54.50000000000003
 21
190.0
 31
0.0
  0
TEXT
  5
E3
330
1F
100
AcDbEntity
  8
GR2_01
 62
     7
100
AcDbText
 10
40.58107757568359
 20
191.0535663951527
 30
0.0
 40
3.03030303030303
  1
裏面
 41
1.269230769230769
  7
ＭＳ_ゴシック
 72
     1
 11
45.58107757568359
 21
190.5000152587891
 31
0.0
100
AcDbText
 73
     1
  0
LINE
  5
E4
330
1F
100
AcDbEntity
  8
GR2_01
 62
     7
100
AcDbLine
 10
36.15522636782842
 20
250.0
 30
0.0
 11
53.65522636782842
 21
250.0
 31
0.0
  0
TEXT
  5
E5
330
1F
100
AcDbEntity
  8
GR2_01
 62
     7
100
AcDbText
 10
40.58107757568359
 20
251.0535816539418
 30
0.0
 40
3.03030303030303
  1
表面
 41
1.269230769230769
  7
ＭＳ_ゴシック
 72
     1
 11
45.58107757568359
 21
250.5000305175781
 31
0.0
100
AcDbText
 73
     1
  0
LINE
  5
E7
330
1F
100
AcDbEntity
  8
GR2_01
  6
0_35点線
 62
     7
100
AcDbLine
 10
37.00000000000001
 20
104.0
 30
0.0
 11
25.0
 21
104.0
 31
0.0
  0
LINE
  5
E8
330
1F
100
AcDbEntity
  8
GR2_01
  6
0_35点線
 62
     7
100
AcDbLine
 10
181.4999999999984
 20
104.0
 30
0.0
 11
198.0
 21
104.0
 31
0.0
  0
TEXT
  5
E9
330
1F
100
AcDbEntity
  8
GR2_01
 62
     7
100
AcDbText
 10
145.8961029052734
 20
13.55355113636364
 30
0.0
 40
3.03030303030303
  1
ＦＡ－ＴＨ１６Ｘ４８Ｄ３１Ｌ
 41
0.8884615384615387
  7
ＭＳ_ゴシック
 72
     1
 11
170.3961029052734
 21
13.0
 31
0.0
100
AcDbText
 73
     1
  0
LINE
  5
EB
330
1F
100
AcDbEntity
  8
GR4_01
 62
     7
100
AcDbLine
 10
36.99999999999967
 20
245.0000000000001
 30
0.0
 11
181.4999999999988
 21
245.0000000000001
 31
0.0
  0
LINE
  5
EC
330
1F
100
AcDbEntity
  8
GR4_01
 62
     7
100
AcDbLine
 10
36.9999999999991
 20
225.9999999999996
 30
0.0
 11
181.4999999999995
 21
225.9999999999996
 31
0.0
  0
LINE
  5
ED
330
1F
100
AcDbEntity
  8
GR4_01
 62
     7
100
AcDbLine
 10
181.4999999999985
 20
245.0000000000003
 30
0.0
 11
181.4999999999996
 21
225.9999999999998
 31
0.0
  0
LINE
  5
EE
330
1F
100
AcDbEntity
  8
GR4_01
 62
     7
100
AcDbLine
 10
37.00000000000001
 20
245.0000000000003
 30
0.0
 11
36.99999999999887
 21
225.9999999999999
 31
0.0
  0
LINE
  5
EF
330
1F
100
AcDbEntity
  8
GR4_01
 62
     7
100
AcDbLine
 10
39.2499999999987
 20
240.0000000000001
 30
0.0
 11
181.4999999999988
 21
240.0000000000001
 31
0.0
  0
LINE
  5
F0
330
1F
100
AcDbEntity
  8
GR4_01
 62
     7
100
AcDbLine
 10
39.2499999999987
 20
245.0000000000001
 30
0.0
 11
39.2499999999987
 21
225.9999999999996
 31
0.0
  0
LINE
  5
F1
330
1F
100
AcDbEntity
  8
GR4_01
 62
     7
100
AcDbLine
 10
43.19999999999872
 20
245.0000000000001
 30
0.0
 11
43.19999999999872
 21
225.9999999999996
 31
0.0
  0
LINE
  5
F2
330
1F
100
AcDbEntity
  8
GR4_01
 62
     7
100
AcDbLine
 10
47.14999999999871
 20
245.0000000000001
 30
0.0
 11
47.14999999999871
 21
225.9999999999996
 31
0.0
  0
TEXT
  5
F3
330
1F
100
AcDbEntity
  8
GR2_01
 62
     7
100
AcDbText
 10
39.72500228881836
 20
240.7075664173473
 30
0.0
 40
1.136363636363636
  1
２４Ｖ
 41
0.676923076923077
  7
ＭＳ_ゴシック
 11
39.72500228881836
 21
240.4999847412109
 31
0.0
100
AcDbText
 73
     1
  0
TEXT
  5
F4
330
1F
100
AcDbEntity
  8
GR2_01
 62
     7
100
AcDbText
 10
39.72500228881836
 20
242.4575664173473
 30
0.0
 40
1.136363636363636
  1
ＤＣ　
 41
0.676923076923077
  7
ＭＳ_ゴシック
 11
39.72500228881836
 21
242.2499847412109
 31
0.0
100
AcDbText
 73
     1
  0
TEXT
  5
F5
330
1F
100
AcDbEntity
  8
GR2_01
 62
     7
100
AcDbText
 10
38.61692223618738
 20
227.7999845743179
 30
0.0
 40
1.060606042544047
  1
ＦＡ－ＴＨ１６Ｘ４８Ｄ３１Ｌ
 50
90.0
 41
0.7978022286805858
  7
ＭＳ_ゴシック
 72
     1
 11
38.81066513061523
 21
235.4999847412109
 31
0.0
100
AcDbText
 73
     1
  0
LINE
  5
F6
330
1F
100
AcDbEntity
  8
GR4_01
 62
     7
100
AcDbLine
 10
36.99999999999966
 20
185.0
 30
0.0
 11
181.4999999999988
 21
185.0
 31
0.0
  0
LINE
  5
F7
330
1F
100
AcDbEntity
  8
GR4_01
 62
     7
100
AcDbLine
 10
36.99999999999909
 20
165.9999999999995
 30
0.0
 11
181.4999999999995
 21
165.9999999999995
 31
0.0
  0
LINE
  5
F8
330
1F
100
AcDbEntity
  8
GR4_01
 62
     7
100
AcDbLine
 10
181.4999999999985
 20
185.0000000000003
 30
0.0
 11
181.4999999999996
 21
165.9999999999997
 31
0.0
  0
LINE
  5
F9
330
1F
100
AcDbEntity
  8
GR4_01
 62
     7
100
AcDbLine
 10
37.0
 20
185.0000000000003
 30
0.0
 11
36.99999999999886
 21
165.9999999999999
 31
0.0
  0
LINE
  5
FA
330
1F
100
AcDbEntity
  8
GR4_01
 62
     7
100
AcDbLine
 10
36.99999999999932
 20
175.4999999999997
 30
0.0
 11
181.4999999999994
 21
175.4999999999997
 31
0.0
  0
LINE
  5
FB
330
1F
100
AcDbEntity
  8
GR4_01
 62
     7
100
AcDbLine
 10
43.24999999999872
 20
185.0
 30
0.0
 11
43.24999999999869
 21
175.4999999999998
 31
0.0
  0
LINE
  5
FC
330
1F
100
AcDbEntity
  8
GR4_01
 62
     7
100
AcDbLine
 10
51.24999999999872
 20
185.0
 30
0.0
 11
51.24999999999869
 21
175.4999999999998
 31
0.0
  0
LINE
  5
FD
330
1F
100
AcDbEntity
  8
GR4_01
 62
     7
100
AcDbLine
 10
59.24999999999872
 20
185.0
 30
0.0
 11
59.24999999999869
 21
175.4999999999998
 31
0.0
  0
LINE
  5
FE
330
1F
100
AcDbEntity
  8
GR4_01
 62
     7
100
AcDbLine
 10
67.24999999999872
 20
185.0
 30
0.0
 11
67.24999999999869
 21
175.4999999999998
 31
0.0
  0
LINE
  5
FF
330
1F
100
AcDbEntity
  8
GR4_01
 62
     7
100
AcDbLine
 10
75.24999999999872
 20
185.0
 30
0.0
 11
75.24999999999869
 21
175.4999999999998
 31
0.0
  0
LINE
  5
100
330
1F
100
AcDbEntity
  8
GR4_01
 62
     7
100
AcDbLine
 10
83.24999999999872
 20
185.0
 30
0.0
 11
83.24999999999869
 21
175.4999999999998
 31
0.0
  0
LINE
  5
101
330
1F
100
AcDbEntity
  8
GR4_01
 62
     7
100
AcDbLine
 10
91.24999999999872
 20
185.0
 30
0.0
 11
91.24999999999869
 21
175.4999999999998
 31
0.0
  0
LINE
  5
102
330
1F
100
AcDbEntity
  8
GR4_01
 62
     7
100
AcDbLine
 10
99.24999999999872
 20
185.0
 30
0.0
 11
99.24999999999869
 21
175.4999999999998
 31
0.0
  0
LINE
  5
103
330
1F
100
AcDbEntity
  8
GR4_01
 62
     7
100
AcDbLine
 10
107.2499999999987
 20
185.0
 30
0.0
 11
107.2499999999987
 21
175.4999999999998
 31
0.0
  0
LINE
  5
104
330
1F
100
AcDbEntity
  8
GR4_01
 62
     7
100
AcDbLine
 10
115.2499999999987
 20
185.0
 30
0.0
 11
115.2499999999987
 21
175.4999999999998
 31
0.0
  0
LINE
  5
105
330
1F
100
AcDbEntity
  8
GR4_01
 62
     7
100
AcDbLine
 10
123.2499999999987
 20
185.0
 30
0.0
 11
123.2499999999987
 21
175.4999999999998
 31
0.0
  0
LINE
  5
106
330
1F
100
AcDbEntity
  8
GR4_01
 62
     7
100
AcDbLine
 10
131.2499999999987
 20
185.0
 30
0.0
 11
131.2499999999987
 21
175.4999999999998
 31
0.0
  0
LINE
  5
107
330
1F
100
AcDbEntity
  8
GR4_01
 62
     7
100
AcDbLine
 10
139.2499999999987
 20
185.0
 30
0.0
 11
139.2499999999987
 21
175.4999999999998
 31
0.0
  0
LINE
  5
108
330
1F
100
AcDbEntity
  8
GR4_01
 62
     7
100
AcDbLine
 10
147.2499999999987
 20
185.0
 30
0.0
 11
147.2499999999987
 21
175.4999999999998
 31
0.0
  0
LINE
  5
109
330
1F
100
AcDbEntity
  8
GR4_01
 62
     7
100
AcDbLine
 10
155.2499999999987
 20
185.0
 30
0.0
 11
155.2499999999987
 21
175.4999999999998
 31
0.0
  0
LINE
  5
10A
330
1F
100
AcDbEntity
  8
GR4_01
 62
     7
100
AcDbLine
 10
163.2499999999987
 20
185.0
 30
0.0
 11
163.2499999999987
 21
175.4999999999998
 31
0.0
  0
LINE
  5
10B
330
1F
100
AcDbEntity
  8
GR4_01
 62
     7
100
AcDbLine
 10
171.2499999999987
 20
185.0
 30
0.0
 11
171.2499999999987
 21
175.4999999999998
 31
0.0
  0
LINE
  5
10C
330
1F
100
AcDbEntity
  8
GR4_01
 62
     7
100
AcDbLine
 10
179.2499999999987
 20
185.0
 30
0.0
 11
179.2499999999987
 21
175.4999999999998
 31
0.0
  0
LINE
  5
10D
330
1F
100
AcDbEntity
  8
GR4_01
 62
     7
100
AcDbLine
 10
39.24999999999872
 20
175.4999999999998
 30
0.0
 11
39.24999999999869
 21
165.9999999999995
 31
0.0
  0
LINE
  5
10E
330
1F
100
AcDbEntity
  8
GR4_01
 62
     7
100
AcDbLine
 10
47.24999999999869
 20
175.4999999999998
 30
0.0
 11
47.24999999999872
 21
165.9999999999995
 31
0.0
  0
LINE
  5
10F
330
1F
100
AcDbEntity
  8
GR4_01
 62
     7
100
AcDbLine
 10
55.24999999999866
 20
175.4999999999998
 30
0.0
 11
55.24999999999872
 21
165.9999999999995
 31
0.0
  0
LINE
  5
110
330
1F
100
AcDbEntity
  8
GR4_01
 62
     7
100
AcDbLine
 10
63.24999999999866
 20
175.4999999999998
 30
0.0
 11
63.24999999999869
 21
165.9999999999995
 31
0.0
  0
LINE
  5
111
330
1F
100
AcDbEntity
  8
GR4_01
 62
     7
100
AcDbLine
 10
71.24999999999866
 20
175.4999999999998
 30
0.0
 11
71.24999999999866
 21
165.9999999999995
 31
0.0
  0
LINE
  5
112
330
1F
100
AcDbEntity
  8
GR4_01
 62
     7
100
AcDbLine
 10
79.24999999999864
 20
175.4999999999998
 30
0.0
 11
79.24999999999866
 21
165.9999999999995
 31
0.0
  0
LINE
  5
113
330
1F
100
AcDbEntity
  8
GR4_01
 62
     7
100
AcDbLine
 10
87.24999999999861
 20
175.4999999999998
 30
0.0
 11
87.24999999999866
 21
165.9999999999995
 31
0.0
  0
LINE
  5
114
330
1F
100
AcDbEntity
  8
GR4_01
 62
     7
100
AcDbLine
 10
95.24999999999861
 20
175.4999999999998
 30
0.0
 11
95.24999999999864
 21
165.9999999999995
 31
0.0
  0
LINE
  5
115
330
1F
100
AcDbEntity
  8
GR4_01
 62
     7
100
AcDbLine
 10
103.2499999999986
 20
175.4999999999998
 30
0.0
 11
103.2499999999986
 21
165.9999999999995
 31
0.0
  0
LINE
  5
116
330
1F
100
AcDbEntity
  8
GR4_01
 62
     7
100
AcDbLine
 10
111.2499999999986
 20
175.4999999999998
 30
0.0
 11
111.2499999999986
 21
165.9999999999995
 31
0.0
  0
LINE
  5
117
330
1F
100
AcDbEntity
  8
GR4_01
 62
     7
100
AcDbLine
 10
119.2499999999986
 20
175.4999999999998
 30
0.0
 11
119.2499999999986
 21
165.9999999999995
 31
0.0
  0
LINE
  5
118
330
1F
100
AcDbEntity
  8
GR4_01
 62
     7
100
AcDbLine
 10
127.2499999999986
 20
175.4999999999998
 30
0.0
 11
127.2499999999986
 21
165.9999999999995
 31
0.0
  0
LINE
  5
119
330
1F
100
AcDbEntity
  8
GR4_01
 62
     7
100
AcDbLine
 10
135.2499999999986
 20
175.4999999999998
 30
0.0
 11
135.2499999999986
 21
165.9999999999995
 31
0.0
  0
LINE
  5
11A
330
1F
100
AcDbEntity
  8
GR4_01
 62
     7
100
AcDbLine
 10
143.2499999999986
 20
175.4999999999998
 30
0.0
 11
143.2499999999986
 21
165.9999999999995
 31
0.0
  0
LINE
  5
11B
330
1F
100
AcDbEntity
  8
GR4_01
 62
     7
100
AcDbLine
 10
151.2499999999985
 20
175.4999999999998
 30
0.0
 11
151.2499999999986
 21
165.9999999999995
 31
0.0
  0
LINE
  5
11C
330
1F
100
AcDbEntity
  8
GR4_01
 62
     7
100
AcDbLine
 10
159.2499999999985
 20
175.4999999999998
 30
0.0
 11
159.2499999999986
 21
165.9999999999995
 31
0.0
  0
LINE
  5
11D
330
1F
100
AcDbEntity
  8
GR4_01
 62
     7
100
AcDbLine
 10
167.2499999999985
 20
175.4999999999998
 30
0.0
 11
167.2499999999985
 21
165.9999999999995
 31
0.0
  0
LINE
  5
11E
330
1F
100
AcDbEntity
  8
GR4_01
 62
     7
100
AcDbLine
 10
175.2499999999985
 20
175.4999999999998
 30
0.0
 11
175.2499999999985
 21
165.9999999999995
 31
0.0
  0
TEXT
  5
11F
330
1F
100
AcDbEntity
  8
GR2_01
 62
     7
100
AcDbText
 10
38.0000114440918
 20
182.2767603093928
 30
0.0
 40
1.515151515151515
  1
ＤＣ
 41
0.7615384615384615
  7
ＭＳ_ゴシック
 11
38.0000114440918
 21
181.9999847412109
 31
0.0
100
AcDbText
 73
     1
  0
TEXT
  5
120
330
1F
100
AcDbEntity
  8
GR2_01
 62
     7
100
AcDbText
 10
38.0000114440918
 20
179.7767603093928
 30
0.0
 40
1.515151515151515
  1
２４Ｖ
 41
0.7615384615384615
  7
ＭＳ_ゴシック
 11
38.0000114440918
 21
179.4999847412109
 31
0.0
100
AcDbText
 73
     1
  0
TEXT
  5
121
330
1F
100
AcDbEntity
  8
GR2_01
 62
     7
100
AcDbText
 10
44.2500114440918
 20
182.2767603093928
 30
0.0
 40
1.515151515151515
  1
Ｘ０
 41
0.7615384615384615
  7
ＭＳ_ゴシック
 11
44.2500114440918
 21
181.9999847412109
 31
0.0
100
AcDbText
 73
     1
  0
TEXT
  5
122
330
1F
100
AcDbEntity
  8
GR2_01
 62
     7
100
AcDbText
 10
52.25002670288086
 20
182.2767603093928
 30
0.0
 40
1.515151515151515
  1
Ｘ１
 41
0.7615384615384615
  7
ＭＳ_ゴシック
 11
52.25002670288086
 21
181.9999847412109
 31
0.0
100
AcDbText
 73
     1
  0
TEXT
  5
123
330
1F
100
AcDbEntity
  8
GR2_01
 62
     7
100
AcDbText
 10
48.25002670288086
 20
172.7767603093928
 30
0.0
 40
1.515151515151515
  1
ＣＯＭ　
 41
0.7615384615384615
  7
ＭＳ_ゴシック
 11
48.25002670288086
 21
172.4999847412109
 31
0.0
100
AcDbText
 73
     1
  0
TEXT
  5
124
330
1F
100
AcDbEntity
  8
GR2_01
 62
     7
100
AcDbText
 10
48.2500114440918
 20
170.2767603093928
 30
0.0
 40
1.515151515151515
  1
　２
 41
0.7615384615384615
  7
ＭＳ_ゴシック
 11
48.2500114440918
 21
169.9999847412109
 31
0.0
100
AcDbText
 73
     1
  0
TEXT
  5
125
330
1F
100
AcDbEntity
  8
GR2_01
 62
     7
100
AcDbText
 10
48.1250114440918
 20
241.4318029230291
 30
0.0
 40
1.136363636363636
  1
Ｘ０
 41
0.676923076923077
  7
ＭＳ_ゴシック
 72
     1
 11
49.1250114440918
 21
241.9999847412109
 31
0.0
100
AcDbText
 73
     2
  0
TEXT
  5
126
330
1F
100
AcDbEntity
  8
GR2_01
 62
     7
100
AcDbText
 10
44.17499923706055
 20
240.7075664173473
 30
0.0
 40
1.136363636363636
  1
０Ｖ
 41
0.676923076923077
  7
ＭＳ_ゴシック
 11
44.17499923706055
 21
240.4999847412109
 31
0.0
100
AcDbText
 73
     1
  0
TEXT
  5
127
330
1F
100
AcDbEntity
  8
GR2_01
 62
     7
100
AcDbText
 10
44.17499923706055
 20
242.4575664173473
 30
0.0
 40
1.136363636363636
  1
ＤＣ
 41
0.676923076923077
  7
ＭＳ_ゴシック
 11
44.17499923706055
 21
242.2499847412109
 31
0.0
100
AcDbText
 73
     1
  0
TEXT
  5
128
330
1F
100
AcDbEntity
  8
GR2_01
 62
     7
100
AcDbText
 10
40.2500114440918
 20
172.7767603093928
 30
0.0
 40
1.515151515151515
  1
ＤＣ
 41
0.7615384615384615
  7
ＭＳ_ゴシック
 11
40.2500114440918
 21
172.4999847412109
 31
0.0
100
AcDbText
 73
     1
  0
TEXT
  5
129
330
1F
100
AcDbEntity
  8
GR2_01
 62
     7
100
AcDbText
 10
40.2500114440918
 20
170.2767603093928
 30
0.0
 40
1.515151515151515
  1
０Ｖ
 41
0.7615384615384615
  7
ＭＳ_ゴシック
 11
40.2500114440918
 21
169.9999847412109
 31
0.0
100
AcDbText
 73
     1
  0
TEXT
  5
12A
330
1F
100
AcDbEntity
  8
GR2_01
 62
     7
100
AcDbText
 10
60.25002670288086
 20
182.2767603093928
 30
0.0
 40
1.515151515151515
  1
Ｘ２
 41
0.7615384615384615
  7
ＭＳ_ゴシック
 11
60.25002670288086
 21
181.9999847412109
 31
0.0
100
AcDbText
 73
     1
  0
TEXT
  5
12B
330
1F
100
AcDbEntity
  8
GR2_01
 62
     7
100
AcDbText
 10
68.25003051757812
 20
182.2767603093928
 30
0.0
 40
1.515151515151515
  1
Ｘ３
 41
0.7615384615384615
  7
ＭＳ_ゴシック
 11
68.25003051757812
 21
181.9999847412109
 31
0.0
100
AcDbText
 73
     1
  0
TEXT
  5
12C
330
1F
100
AcDbEntity
  8
GR2_01
 62
     7
100
AcDbText
 10
76.25003051757812
 20
182.2767603093928
 30
0.0
 40
1.515151515151515
  1
Ｘ４
 41
0.7615384615384615
  7
ＭＳ_ゴシック
 11
76.25003051757812
 21
181.9999847412109
 31
0.0
100
AcDbText
 73
     1
  0
TEXT
  5
12D
330
1F
100
AcDbEntity
  8
GR2_01
 62
     7
100
AcDbText
 10
84.25003051757812
 20
182.2767603093928
 30
0.0
 40
1.515151515151515
  1
Ｘ５
 41
0.7615384615384615
  7
ＭＳ_ゴシック
 11
84.25003051757812
 21
181.9999847412109
 31
0.0
100
AcDbText
 73
     1
  0
TEXT
  5
12E
330
1F
100
AcDbEntity
  8
GR2_01
 62
     7
100
AcDbText
 10
92.25003051757812
 20
182.2767603093928
 30
0.0
 40
1.515151515151515
  1
Ｘ６
 41
0.7615384615384615
  7
ＭＳ_ゴシック
 11
92.25003051757812
 21
181.9999847412109
 31
0.0
100
AcDbText
 73
     1
  0
TEXT
  5
12F
330
1F
100
AcDbEntity
  8
GR2_01
 62
     7
100
AcDbText
 10
100.2500305175781
 20
182.2767603093928
 30
0.0
 40
1.515151515151515
  1
Ｘ７
 41
0.7615384615384615
  7
ＭＳ_ゴシック
 11
100.2500305175781
 21
181.9999847412109
 31
0.0
100
AcDbText
 73
     1
  0
TEXT
  5
130
330
1F
100
AcDbEntity
  8
GR2_01
 62
     7
100
AcDbText
 10
108.2500305175781
 20
182.2767603093928
 30
0.0
 40
1.515151515151515
  1
Ｘ８
 41
0.7615384615384615
  7
ＭＳ_ゴシック
 11
108.2500305175781
 21
181.9999847412109
 31
0.0
100
AcDbText
 73
     1
  0
TEXT
  5
131
330
1F
100
AcDbEntity
  8
GR2_01
 62
     7
100
AcDbText
 10
116.2500305175781
 20
182.2767603093928
 30
0.0
 40
1.515151515151515
  1
Ｘ９
 41
0.7615384615384615
  7
ＭＳ_ゴシック
 11
116.2500305175781
 21
181.9999847412109
 31
0.0
100
AcDbText
 73
     1
  0
TEXT
  5
132
330
1F
100
AcDbEntity
  8
GR2_01
 62
     7
100
AcDbText
 10
124.2500305175781
 20
182.2767603093928
 30
0.0
 40
1.515151515151515
  1
ＸＡ
 41
0.7615384615384615
  7
ＭＳ_ゴシック
 11
124.2500305175781
 21
181.9999847412109
 31
0.0
100
AcDbText
 73
     1
  0
TEXT
  5
133
330
1F
100
AcDbEntity
  8
GR2_01
 62
     7
100
AcDbText
 10
132.2500305175781
 20
182.2767603093928
 30
0.0
 40
1.515151515151515
  1
ＸＢ
 41
0.7615384615384615
  7
ＭＳ_ゴシック
 11
132.2500305175781
 21
181.9999847412109
 31
0.0
100
AcDbText
 73
     1
  0
TEXT
  5
134
330
1F
100
AcDbEntity
  8
GR2_01
 62
     7
100
AcDbText
 10
140.2500305175781
 20
182.2767603093928
 30
0.0
 40
1.515151515151515
  1
ＸＣ
 41
0.7615384615384615
  7
ＭＳ_ゴシック
 11
140.2500305175781
 21
181.9999847412109
 31
0.0
100
AcDbText
 73
     1
  0
TEXT
  5
135
330
1F
100
AcDbEntity
  8
GR2_01
 62
     7
100
AcDbText
 10
148.2500152587891
 20
182.2767603093928
 30
0.0
 40
1.515151515151515
  1
ＸＤ
 41
0.7615384615384615
  7
ＭＳ_ゴシック
 11
148.2500152587891
 21
181.9999847412109
 31
0.0
100
AcDbText
 73
     1
  0
TEXT
  5
136
330
1F
100
AcDbEntity
  8
GR2_01
 62
     7
100
AcDbText
 10
156.2500152587891
 20
182.2767603093928
 30
0.0
 40
1.515151515151515
  1
ＸＥ
 41
0.7615384615384615
  7
ＭＳ_ゴシック
 11
156.2500152587891
 21
181.9999847412109
 31
0.0
100
AcDbText
 73
     1
  0
TEXT
  5
137
330
1F
100
AcDbEntity
  8
GR2_01
 62
     7
100
AcDbText
 10
164.2500152587891
 20
182.2767603093928
 30
0.0
 40
1.515151515151515
  1
ＸＦ
 41
0.7615384615384615
  7
ＭＳ_ゴシック
 11
164.2500152587891
 21
181.9999847412109
 31
0.0
100
AcDbText
 73
     1
  0
TEXT
  5
138
330
1F
100
AcDbEntity
  8
GR2_01
 62
     7
100
AcDbText
 10
56.25002670288086
 20
172.7767603093928
 30
0.0
 40
1.515151515151515
  1
ＣＯＭ　
 41
0.7615384615384615
  7
ＭＳ_ゴシック
 11
56.25002670288086
 21
172.4999847412109
 31
0.0
100
AcDbText
 73
     1
  0
TEXT
  5
139
330
1F
100
AcDbEntity
  8
GR2_01
 62
     7
100
AcDbText
 10
56.2500114440918
 20
170.2767603093928
 30
0.0
 40
1.515151515151515
  1
　２
 41
0.7615384615384615
  7
ＭＳ_ゴシック
 11
56.2500114440918
 21
169.9999847412109
 31
0.0
100
AcDbText
 73
     1
  0
TEXT
  5
13A
330
1F
100
AcDbEntity
  8
GR2_01
 62
     7
100
AcDbText
 10
64.25003051757812
 20
172.7767603093928
 30
0.0
 40
1.515151515151515
  1
ＣＯＭ　
 41
0.7615384615384615
  7
ＭＳ_ゴシック
 11
64.25003051757812
 21
172.4999847412109
 31
0.0
100
AcDbText
 73
     1
  0
TEXT
  5
13B
330
1F
100
AcDbEntity
  8
GR2_01
 62
     7
100
AcDbText
 10
64.25001525878906
 20
170.2767603093928
 30
0.0
 40
1.515151515151515
  1
　２
 41
0.7615384615384615
  7
ＭＳ_ゴシック
 11
64.25001525878906
 21
169.9999847412109
 31
0.0
100
AcDbText
 73
     1
  0
TEXT
  5
13C
330
1F
100
AcDbEntity
  8
GR2_01
 62
     7
100
AcDbText
 10
72.25003051757812
 20
172.7767603093928
 30
0.0
 40
1.515151515151515
  1
ＣＯＭ　
 41
0.7615384615384615
  7
ＭＳ_ゴシック
 11
72.25003051757812
 21
172.4999847412109
 31
0.0
100
AcDbText
 73
     1
  0
TEXT
  5
13D
330
1F
100
AcDbEntity
  8
GR2_01
 62
     7
100
AcDbText
 10
72.25001525878906
 20
170.2767603093928
 30
0.0
 40
1.515151515151515
  1
　２
 41
0.7615384615384615
  7
ＭＳ_ゴシック
 11
72.25001525878906
 21
169.9999847412109
 31
0.0
100
AcDbText
 73
     1
  0
TEXT
  5
13E
330
1F
100
AcDbEntity
  8
GR2_01
 62
     7
100
AcDbText
 10
80.25003051757812
 20
172.7767603093928
 30
0.0
 40
1.515151515151515
  1
ＣＯＭ　
 41
0.7615384615384615
  7
ＭＳ_ゴシック
 11
80.25003051757812
 21
172.4999847412109
 31
0.0
100
AcDbText
 73
     1
  0
TEXT
  5
13F
330
1F
100
AcDbEntity
  8
GR2_01
 62
     7
100
AcDbText
 10
80.25001525878906
 20
170.2767603093928
 30
0.0
 40
1.515151515151515
  1
　２
 41
0.7615384615384615
  7
ＭＳ_ゴシック
 11
80.25001525878906
 21
169.9999847412109
 31
0.0
100
AcDbText
 73
     1
  0
TEXT
  5
140
330
1F
100
AcDbEntity
  8
GR2_01
 62
     7
100
AcDbText
 10
88.25003051757812
 20
172.7767603093928
 30
0.0
 40
1.515151515151515
  1
ＣＯＭ　
 41
0.7615384615384615
  7
ＭＳ_ゴシック
 11
88.25003051757812
 21
172.4999847412109
 31
0.0
100
AcDbText
 73
     1
  0
TEXT
  5
141
330
1F
100
AcDbEntity
  8
GR2_01
 62
     7
100
AcDbText
 10
88.25001525878906
 20
170.2767603093928
 30
0.0
 40
1.515151515151515
  1
　２
 41
0.7615384615384615
  7
ＭＳ_ゴシック
 11
88.25001525878906
 21
169.9999847412109
 31
0.0
100
AcDbText
 73
     1
  0
TEXT
  5
142
330
1F
100
AcDbEntity
  8
GR2_01
 62
     7
100
AcDbText
 10
96.25003051757812
 20
172.7767603093928
 30
0.0
 40
1.515151515151515
  1
ＣＯＭ　
 41
0.7615384615384615
  7
ＭＳ_ゴシック
 11
96.25003051757812
 21
172.4999847412109
 31
0.0
100
AcDbText
 73
     1
  0
TEXT
  5
143
330
1F
100
AcDbEntity
  8
GR2_01
 62
     7
100
AcDbText
 10
96.25001525878906
 20
170.2767603093928
 30
0.0
 40
1.515151515151515
  1
　２
 41
0.7615384615384615
  7
ＭＳ_ゴシック
 11
96.25001525878906
 21
169.9999847412109
 31
0.0
100
AcDbText
 73
     1
  0
TEXT
  5
144
330
1F
100
AcDbEntity
  8
GR2_01
 62
     7
100
AcDbText
 10
104.2500305175781
 20
172.7767603093928
 30
0.0
 40
1.515151515151515
  1
ＣＯＭ　
 41
0.7615384615384615
  7
ＭＳ_ゴシック
 11
104.2500305175781
 21
172.4999847412109
 31
0.0
100
AcDbText
 73
     1
  0
TEXT
  5
145
330
1F
100
AcDbEntity
  8
GR2_01
 62
     7
100
AcDbText
 10
104.2500152587891
 20
170.2767603093928
 30
0.0
 40
1.515151515151515
  1
　２
 41
0.7615384615384615
  7
ＭＳ_ゴシック
 11
104.2500152587891
 21
169.9999847412109
 31
0.0
100
AcDbText
 73
     1
  0
TEXT
  5
146
330
1F
100
AcDbEntity
  8
GR2_01
 62
     7
100
AcDbText
 10
112.2500305175781
 20
172.7767603093928
 30
0.0
 40
1.515151515151515
  1
ＣＯＭ　
 41
0.7615384615384615
  7
ＭＳ_ゴシック
 11
112.2500305175781
 21
172.4999847412109
 31
0.0
100
AcDbText
 73
     1
  0
TEXT
  5
147
330
1F
100
AcDbEntity
  8
GR2_01
 62
     7
100
AcDbText
 10
112.2500152587891
 20
170.2767603093928
 30
0.0
 40
1.515151515151515
  1
　２
 41
0.7615384615384615
  7
ＭＳ_ゴシック
 11
112.2500152587891
 21
169.9999847412109
 31
0.0
100
AcDbText
 73
     1
  0
TEXT
  5
148
330
1F
100
AcDbEntity
  8
GR2_01
 62
     7
100
AcDbText
 10
120.2500305175781
 20
172.7767603093928
 30
0.0
 40
1.515151515151515
  1
ＣＯＭ　
 41
0.7615384615384615
  7
ＭＳ_ゴシック
 11
120.2500305175781
 21
172.4999847412109
 31
0.0
100
AcDbText
 73
     1
  0
TEXT
  5
149
330
1F
100
AcDbEntity
  8
GR2_01
 62
     7
100
AcDbText
 10
120.2500152587891
 20
170.2767603093928
 30
0.0
 40
1.515151515151515
  1
　２
 41
0.7615384615384615
  7
ＭＳ_ゴシック
 11
120.2500152587891
 21
169.9999847412109
 31
0.0
100
AcDbText
 73
     1
  0
TEXT
  5
14A
330
1F
100
AcDbEntity
  8
GR2_01
 62
     7
100
AcDbText
 10
128.2500305175781
 20
172.7767603093928
 30
0.0
 40
1.515151515151515
  1
ＣＯＭ　
 41
0.7615384615384615
  7
ＭＳ_ゴシック
 11
128.2500305175781
 21
172.4999847412109
 31
0.0
100
AcDbText
 73
     1
  0
TEXT
  5
14B
330
1F
100
AcDbEntity
  8
GR2_01
 62
     7
100
AcDbText
 10
128.2500152587891
 20
170.2767603093928
 30
0.0
 40
1.515151515151515
  1
　２
 41
0.7615384615384615
  7
ＭＳ_ゴシック
 11
128.2500152587891
 21
169.9999847412109
 31
0.0
100
AcDbText
 73
     1
  0
TEXT
  5
14C
330
1F
100
AcDbEntity
  8
GR2_01
 62
     7
100
AcDbText
 10
136.2500305175781
 20
172.7767603093928
 30
0.0
 40
1.515151515151515
  1
ＣＯＭ　
 41
0.7615384615384615
  7
ＭＳ_ゴシック
 11
136.2500305175781
 21
172.4999847412109
 31
0.0
100
AcDbText
 73
     1
  0
TEXT
  5
14D
330
1F
100
AcDbEntity
  8
GR2_01
 62
     7
100
AcDbText
 10
136.2500152587891
 20
170.2767603093928
 30
0.0
 40
1.515151515151515
  1
　２
 41
0.7615384615384615
  7
ＭＳ_ゴシック
 11
136.2500152587891
 21
169.9999847412109
 31
0.0
100
AcDbText
 73
     1
  0
TEXT
  5
14E
330
1F
100
AcDbEntity
  8
GR2_01
 62
     7
100
AcDbText
 10
144.2500305175781
 20
172.7767603093928
 30
0.0
 40
1.515151515151515
  1
ＣＯＭ　
 41
0.7615384615384615
  7
ＭＳ_ゴシック
 11
144.2500305175781
 21
172.4999847412109
 31
0.0
100
AcDbText
 73
     1
  0
TEXT
  5
14F
330
1F
100
AcDbEntity
  8
GR2_01
 62
     7
100
AcDbText
 10
144.2500152587891
 20
170.2767603093928
 30
0.0
 40
1.515151515151515
  1
　２
 41
0.7615384615384615
  7
ＭＳ_ゴシック
 11
144.2500152587891
 21
169.9999847412109
 31
0.0
100
AcDbText
 73
     1
  0
TEXT
  5
150
330
1F
100
AcDbEntity
  8
GR2_01
 62
     7
100
AcDbText
 10
152.2500152587891
 20
172.7767603093928
 30
0.0
 40
1.515151515151515
  1
ＣＯＭ　
 41
0.7615384615384615
  7
ＭＳ_ゴシック
 11
152.2500152587891
 21
172.4999847412109
 31
0.0
100
AcDbText
 73
     1
  0
TEXT
  5
151
330
1F
100
AcDbEntity
  8
GR2_01
 62
     7
100
AcDbText
 10
152.2500152587891
 20
170.2767603093928
 30
0.0
 40
1.515151515151515
  1
　２
 41
0.7615384615384615
  7
ＭＳ_ゴシック
 11
152.2500152587891
 21
169.9999847412109
 31
0.0
100
AcDbText
 73
     1
  0
TEXT
  5
152
330
1F
100
AcDbEntity
  8
GR2_01
 62
     7
100
AcDbText
 10
160.2500152587891
 20
172.7767603093928
 30
0.0
 40
1.515151515151515
  1
ＣＯＭ　
 41
0.7615384615384615
  7
ＭＳ_ゴシック
 11
160.2500152587891
 21
172.4999847412109
 31
0.0
100
AcDbText
 73
     1
  0
TEXT
  5
153
330
1F
100
AcDbEntity
  8
GR2_01
 62
     7
100
AcDbText
 10
160.2500152587891
 20
170.2767603093928
 30
0.0
 40
1.515151515151515
  1
　２
 41
0.7615384615384615
  7
ＭＳ_ゴシック
 11
160.2500152587891
 21
169.9999847412109
 31
0.0
100
AcDbText
 73
     1
  0
TEXT
  5
154
330
1F
100
AcDbEntity
  8
GR2_01
 62
     7
100
AcDbText
 10
168.2500152587891
 20
172.7767603093928
 30
0.0
 40
1.515151515151515
  1
ＣＯＭ　
 41
0.7615384615384615
  7
ＭＳ_ゴシック
 11
168.2500152587891
 21
172.4999847412109
 31
0.0
100
AcDbText
 73
     1
  0
TEXT
  5
155
330
1F
100
AcDbEntity
  8
GR2_01
 62
     7
100
AcDbText
 10
168.2500152587891
 20
170.2767603093928
 30
0.0
 40
1.515151515151515
  1
　２
 41
0.7615384615384615
  7
ＭＳ_ゴシック
 11
168.2500152587891
 21
169.9999847412109
 31
0.0
100
AcDbText
 73
     1
  0
TEXT
  5
156
330
1F
100
AcDbEntity
  8
GR2_01
 62
     7
100
AcDbText
 10
176.2500152587891
 20
172.7767603093928
 30
0.0
 40
1.515151515151515
  1
ＣＯＭ
 41
0.7615384615384615
  7
ＭＳ_ゴシック
 11
176.2500152587891
 21
172.4999847412109
 31
0.0
100
AcDbText
 73
     1
  0
TEXT
  5
157
330
1F
100
AcDbEntity
  8
GR2_01
 62
     7
100
AcDbText
 10
176.2500152587891
 20
170.2767603093928
 30
0.0
 40
1.515151515151515
  1
　２
 41
0.7615384615384615
  7
ＭＳ_ゴシック
 11
176.2500152587891
 21
169.9999847412109
 31
0.0
100
AcDbText
 73
     1
  0
TEXT
  5
158
330
1F
100
AcDbEntity
  8
GR2_01
 62
     7
100
AcDbText
 10
172.2500152587891
 20
182.2767603093928
 30
0.0
 40
1.515151515151515
  1
ＣＯＭ　
 41
0.7615384615384615
  7
ＭＳ_ゴシック
 11
172.2500152587891
 21
181.9999847412109
 31
0.0
100
AcDbText
 73
     1
  0
TEXT
  5
159
330
1F
100
AcDbEntity
  8
GR2_01
 62
     7
100
AcDbText
 10
172.2500152587891
 20
179.7767603093928
 30
0.0
 40
1.515151515151515
  1
　１
 41
0.7615384615384615
  7
ＭＳ_ゴシック
 11
172.2500152587891
 21
179.4999847412109
 31
0.0
100
AcDbText
 73
     1
  0
LINE
  5
15A
330
1F
100
AcDbEntity
  8
GR4_01
 62
     7
100
AcDbLine
 10
51.09999999999869
 20
245.0000000000001
 30
0.0
 11
51.09999999999869
 21
225.9999999999996
 31
0.0
  0
TEXT
  5
15B
330
1F
100
AcDbEntity
  8
GR2_01
 62
     7
100
AcDbText
 10
52.57500839233398
 20
240.7075664173473
 30
0.0
 40
1.136363636363636
  1
２
 41
0.676923076923077
  7
ＭＳ_ゴシック
 11
52.57500839233398
 21
240.4999847412109
 31
0.0
100
AcDbText
 73
     1
  0
TEXT
  5
15C
330
1F
100
AcDbEntity
  8
GR2_01
 62
     7
100
AcDbText
 10
51.57500839233398
 20
242.4575664173473
 30
0.0
 40
1.136363636363636
  1
ＣＯＭ
 41
0.676923076923077
  7
ＭＳ_ゴシック
 11
51.57500839233398
 21
242.2499847412109
 31
0.0
100
AcDbText
 73
     1
  0
LINE
  5
15D
330
1F
100
AcDbEntity
  8
GR4_01
 62
     7
100
AcDbLine
 10
55.04999999999868
 20
245.0000000000001
 30
0.0
 11
55.04999999999868
 21
225.9999999999996
 31
0.0
  0
TEXT
  5
15E
330
1F
100
AcDbEntity
  8
GR2_01
 62
     7
100
AcDbText
 10
56.02500534057617
 20
241.4318029230291
 30
0.0
 40
1.136363636363636
  1
Ｘ１
 41
0.676923076923077
  7
ＭＳ_ゴシック
 72
     1
 11
57.02500534057617
 21
241.9999847412109
 31
0.0
100
AcDbText
 73
     2
  0
LINE
  5
15F
330
1F
100
AcDbEntity
  8
GR4_01
 62
     7
100
AcDbLine
 10
58.9999999999987
 20
245.0000000000001
 30
0.0
 11
58.9999999999987
 21
225.9999999999996
 31
0.0
  0
TEXT
  5
160
330
1F
100
AcDbEntity
  8
GR2_01
 62
     7
100
AcDbText
 10
60.47500228881836
 20
240.7075664173473
 30
0.0
 40
1.136363636363636
  1
２
 41
0.676923076923077
  7
ＭＳ_ゴシック
 11
60.47500228881836
 21
240.4999847412109
 31
0.0
100
AcDbText
 73
     1
  0
TEXT
  5
161
330
1F
100
AcDbEntity
  8
GR2_01
 62
     7
100
AcDbText
 10
59.47500228881836
 20
242.4575664173473
 30
0.0
 40
1.136363636363636
  1
ＣＯＭ
 41
0.676923076923077
  7
ＭＳ_ゴシック
 11
59.47500228881836
 21
242.2499847412109
 31
0.0
100
AcDbText
 73
     1
  0
LINE
  5
162
330
1F
100
AcDbEntity
  8
GR4_01
 62
     7
100
AcDbLine
 10
62.94999999999869
 20
245.0000000000001
 30
0.0
 11
62.94999999999869
 21
225.9999999999996
 31
0.0
  0
TEXT
  5
163
330
1F
100
AcDbEntity
  8
GR2_01
 62
     7
100
AcDbText
 10
63.92501831054688
 20
241.4318029230291
 30
0.0
 40
1.136363636363636
  1
Ｘ２
 41
0.676923076923077
  7
ＭＳ_ゴシック
 72
     1
 11
64.92501831054688
 21
241.9999847412109
 31
0.0
100
AcDbText
 73
     2
  0
LINE
  5
164
330
1F
100
AcDbEntity
  8
GR4_01
 62
     7
100
AcDbLine
 10
66.8999999999987
 20
245.0000000000001
 30
0.0
 11
66.8999999999987
 21
225.9999999999996
 31
0.0
  0
TEXT
  5
165
330
1F
100
AcDbEntity
  8
GR2_01
 62
     7
100
AcDbText
 10
68.37501525878906
 20
240.7075664173473
 30
0.0
 40
1.136363636363636
  1
２
 41
0.676923076923077
  7
ＭＳ_ゴシック
 11
68.37501525878906
 21
240.4999847412109
 31
0.0
100
AcDbText
 73
     1
  0
TEXT
  5
166
330
1F
100
AcDbEntity
  8
GR2_01
 62
     7
100
AcDbText
 10
67.37501525878906
 20
242.4575664173473
 30
0.0
 40
1.136363636363636
  1
ＣＯＭ
 41
0.676923076923077
  7
ＭＳ_ゴシック
 11
67.37501525878906
 21
242.2499847412109
 31
0.0
100
AcDbText
 73
     1
  0
LINE
  5
167
330
1F
100
AcDbEntity
  8
GR4_01
 62
     7
100
AcDbLine
 10
70.84999999999869
 20
245.0000000000001
 30
0.0
 11
70.84999999999869
 21
225.9999999999996
 31
0.0
  0
TEXT
  5
168
330
1F
100
AcDbEntity
  8
GR2_01
 62
     7
100
AcDbText
 10
71.82501220703125
 20
241.4318029230291
 30
0.0
 40
1.136363636363636
  1
Ｘ３
 41
0.676923076923077
  7
ＭＳ_ゴシック
 72
     1
 11
72.82501220703125
 21
241.9999847412109
 31
0.0
100
AcDbText
 73
     2
  0
LINE
  5
169
330
1F
100
AcDbEntity
  8
GR4_01
 62
     7
100
AcDbLine
 10
74.79999999999868
 20
245.0000000000001
 30
0.0
 11
74.79999999999868
 21
225.9999999999996
 31
0.0
  0
TEXT
  5
16A
330
1F
100
AcDbEntity
  8
GR2_01
 62
     7
100
AcDbText
 10
76.27500915527344
 20
240.7075664173473
 30
0.0
 40
1.136363636363636
  1
２
 41
0.676923076923077
  7
ＭＳ_ゴシック
 11
76.27500915527344
 21
240.4999847412109
 31
0.0
100
AcDbText
 73
     1
  0
TEXT
  5
16B
330
1F
100
AcDbEntity
  8
GR2_01
 62
     7
100
AcDbText
 10
75.27500915527344
 20
242.4575664173473
 30
0.0
 40
1.136363636363636
  1
ＣＯＭ
 41
0.676923076923077
  7
ＭＳ_ゴシック
 11
75.27500915527344
 21
242.2499847412109
 31
0.0
100
AcDbText
 73
     1
  0
LINE
  5
16C
330
1F
100
AcDbEntity
  8
GR4_01
 62
     7
100
AcDbLine
 10
78.74999999999866
 20
245.0000000000001
 30
0.0
 11
78.74999999999866
 21
225.9999999999996
 31
0.0
  0
TEXT
  5
16D
330
1F
100
AcDbEntity
  8
GR2_01
 62
     7
100
AcDbText
 10
79.72500610351562
 20
241.4318029230291
 30
0.0
 40
1.136363636363636
  1
Ｘ４
 41
0.676923076923077
  7
ＭＳ_ゴシック
 72
     1
 11
80.72500610351562
 21
241.9999847412109
 31
0.0
100
AcDbText
 73
     2
  0
LINE
  5
16E
330
1F
100
AcDbEntity
  8
GR4_01
 62
     7
100
AcDbLine
 10
82.69999999999865
 20
245.0000000000001
 30
0.0
 11
82.69999999999865
 21
225.9999999999996
 31
0.0
  0
TEXT
  5
16F
330
1F
100
AcDbEntity
  8
GR2_01
 62
     7
100
AcDbText
 10
84.17500305175781
 20
240.7075664173473
 30
0.0
 40
1.136363636363636
  1
２
 41
0.676923076923077
  7
ＭＳ_ゴシック
 11
84.17500305175781
 21
240.4999847412109
 31
0.0
100
AcDbText
 73
     1
  0
TEXT
  5
170
330
1F
100
AcDbEntity
  8
GR2_01
 62
     7
100
AcDbText
 10
83.17500305175781
 20
242.4575664173473
 30
0.0
 40
1.136363636363636
  1
ＣＯＭ
 41
0.676923076923077
  7
ＭＳ_ゴシック
 11
83.17500305175781
 21
242.2499847412109
 31
0.0
100
AcDbText
 73
     1
  0
LINE
  5
171
330
1F
100
AcDbEntity
  8
GR4_01
 62
     7
100
AcDbLine
 10
86.64999999999864
 20
245.0000000000001
 30
0.0
 11
86.64999999999864
 21
225.9999999999996
 31
0.0
  0
TEXT
  5
172
330
1F
100
AcDbEntity
  8
GR2_01
 62
     7
100
AcDbText
 10
87.62501525878906
 20
241.4318029230291
 30
0.0
 40
1.136363636363636
  1
Ｘ５
 41
0.676923076923077
  7
ＭＳ_ゴシック
 72
     1
 11
88.62501525878906
 21
241.9999847412109
 31
0.0
100
AcDbText
 73
     2
  0
LINE
  5
173
330
1F
100
AcDbEntity
  8
GR4_01
 62
     7
100
AcDbLine
 10
90.59999999999866
 20
245.0000000000001
 30
0.0
 11
90.59999999999866
 21
225.9999999999996
 31
0.0
  0
TEXT
  5
174
330
1F
100
AcDbEntity
  8
GR2_01
 62
     7
100
AcDbText
 10
92.07501220703125
 20
240.7075664173473
 30
0.0
 40
1.136363636363636
  1
２
 41
0.676923076923077
  7
ＭＳ_ゴシック
 11
92.07501220703125
 21
240.4999847412109
 31
0.0
100
AcDbText
 73
     1
  0
TEXT
  5
175
330
1F
100
AcDbEntity
  8
GR2_01
 62
     7
100
AcDbText
 10
91.07501220703125
 20
242.4575664173473
 30
0.0
 40
1.136363636363636
  1
ＣＯＭ
 41
0.676923076923077
  7
ＭＳ_ゴシック
 11
91.07501220703125
 21
242.2499847412109
 31
0.0
100
AcDbText
 73
     1
  0
LINE
  5
176
330
1F
100
AcDbEntity
  8
GR4_01
 62
     7
100
AcDbLine
 10
94.54999999999865
 20
245.0000000000001
 30
0.0
 11
94.54999999999865
 21
225.9999999999996
 31
0.0
  0
TEXT
  5
177
330
1F
100
AcDbEntity
  8
GR2_01
 62
     7
100
AcDbText
 10
95.52500915527344
 20
241.4318029230291
 30
0.0
 40
1.136363636363636
  1
Ｘ６
 41
0.676923076923077
  7
ＭＳ_ゴシック
 72
     1
 11
96.52500915527344
 21
241.9999847412109
 31
0.0
100
AcDbText
 73
     2
  0
LINE
  5
178
330
1F
100
AcDbEntity
  8
GR4_01
 62
     7
100
AcDbLine
 10
98.49999999999866
 20
245.0000000000001
 30
0.0
 11
98.49999999999866
 21
225.9999999999996
 31
0.0
  0
TEXT
  5
179
330
1F
100
AcDbEntity
  8
GR2_01
 62
     7
100
AcDbText
 10
99.97500610351562
 20
240.7075664173473
 30
0.0
 40
1.136363636363636
  1
２
 41
0.676923076923077
  7
ＭＳ_ゴシック
 11
99.97500610351562
 21
240.4999847412109
 31
0.0
100
AcDbText
 73
     1
  0
TEXT
  5
17A
330
1F
100
AcDbEntity
  8
GR2_01
 62
     7
100
AcDbText
 10
98.97500610351562
 20
242.4575664173473
 30
0.0
 40
1.136363636363636
  1
ＣＯＭ
 41
0.676923076923077
  7
ＭＳ_ゴシック
 11
98.97500610351562
 21
242.2499847412109
 31
0.0
100
AcDbText
 73
     1
  0
LINE
  5
17B
330
1F
100
AcDbEntity
  8
GR4_01
 62
     7
100
AcDbLine
 10
102.4499999999987
 20
245.0000000000001
 30
0.0
 11
102.4499999999987
 21
225.9999999999996
 31
0.0
  0
TEXT
  5
17C
330
1F
100
AcDbEntity
  8
GR2_01
 62
     7
100
AcDbText
 10
103.4250183105469
 20
241.4318029230291
 30
0.0
 40
1.136363636363636
  1
Ｘ７
 41
0.676923076923077
  7
ＭＳ_ゴシック
 72
     1
 11
104.4250183105469
 21
241.9999847412109
 31
0.0
100
AcDbText
 73
     2
  0
LINE
  5
17D
330
1F
100
AcDbEntity
  8
GR4_01
 62
     7
100
AcDbLine
 10
106.3999999999986
 20
245.0000000000001
 30
0.0
 11
106.3999999999986
 21
225.9999999999996
 31
0.0
  0
TEXT
  5
17E
330
1F
100
AcDbEntity
  8
GR2_01
 62
     7
100
AcDbText
 10
107.8750152587891
 20
240.7075664173473
 30
0.0
 40
1.136363636363636
  1
２
 41
0.676923076923077
  7
ＭＳ_ゴシック
 11
107.8750152587891
 21
240.4999847412109
 31
0.0
100
AcDbText
 73
     1
  0
TEXT
  5
17F
330
1F
100
AcDbEntity
  8
GR2_01
 62
     7
100
AcDbText
 10
106.8750152587891
 20
242.4575664173473
 30
0.0
 40
1.136363636363636
  1
ＣＯＭ
 41
0.676923076923077
  7
ＭＳ_ゴシック
 11
106.8750152587891
 21
242.2499847412109
 31
0.0
100
AcDbText
 73
     1
  0
LINE
  5
180
330
1F
100
AcDbEntity
  8
GR4_01
 62
     7
100
AcDbLine
 10
110.3499999999986
 20
245.0000000000001
 30
0.0
 11
110.3499999999986
 21
225.9999999999996
 31
0.0
  0
TEXT
  5
181
330
1F
100
AcDbEntity
  8
GR2_01
 62
     7
100
AcDbText
 10
111.3250122070312
 20
241.4318029230291
 30
0.0
 40
1.136363636363636
  1
Ｘ８
 41
0.676923076923077
  7
ＭＳ_ゴシック
 72
     1
 11
112.3250122070312
 21
241.9999847412109
 31
0.0
100
AcDbText
 73
     2
  0
LINE
  5
182
330
1F
100
AcDbEntity
  8
GR4_01
 62
     7
100
AcDbLine
 10
114.2999999999986
 20
245.0000000000001
 30
0.0
 11
114.2999999999986
 21
225.9999999999996
 31
0.0
  0
TEXT
  5
183
330
1F
100
AcDbEntity
  8
GR2_01
 62
     7
100
AcDbText
 10
115.7750091552734
 20
240.7075664173473
 30
0.0
 40
1.136363636363636
  1
２
 41
0.676923076923077
  7
ＭＳ_ゴシック
 11
115.7750091552734
 21
240.4999847412109
 31
0.0
100
AcDbText
 73
     1
  0
TEXT
  5
184
330
1F
100
AcDbEntity
  8
GR2_01
 62
     7
100
AcDbText
 10
114.7750091552734
 20
242.4575664173473
 30
0.0
 40
1.136363636363636
  1
ＣＯＭ
 41
0.676923076923077
  7
ＭＳ_ゴシック
 11
114.7750091552734
 21
242.2499847412109
 31
0.0
100
AcDbText
 73
     1
  0
LINE
  5
185
330
1F
100
AcDbEntity
  8
GR4_01
 62
     7
100
AcDbLine
 10
118.2499999999986
 20
245.0000000000001
 30
0.0
 11
118.2499999999986
 21
225.9999999999996
 31
0.0
  0
TEXT
  5
186
330
1F
100
AcDbEntity
  8
GR2_01
 62
     7
100
AcDbText
 10
119.2250213623047
 20
241.4318029230291
 30
0.0
 40
1.136363636363636
  1
Ｘ９
 41
0.676923076923077
  7
ＭＳ_ゴシック
 72
     1
 11
120.2250213623047
 21
241.9999847412109
 31
0.0
100
AcDbText
 73
     2
  0
LINE
  5
187
330
1F
100
AcDbEntity
  8
GR4_01
 62
     7
100
AcDbLine
 10
122.1999999999987
 20
245.0000000000001
 30
0.0
 11
122.1999999999987
 21
225.9999999999996
 31
0.0
  0
TEXT
  5
188
330
1F
100
AcDbEntity
  8
GR2_01
 62
     7
100
AcDbText
 10
123.6750183105469
 20
240.7075664173473
 30
0.0
 40
1.136363636363636
  1
２
 41
0.676923076923077
  7
ＭＳ_ゴシック
 11
123.6750183105469
 21
240.4999847412109
 31
0.0
100
AcDbText
 73
     1
  0
TEXT
  5
189
330
1F
100
AcDbEntity
  8
GR2_01
 62
     7
100
AcDbText
 10
122.6750183105469
 20
242.4575664173473
 30
0.0
 40
1.136363636363636
  1
ＣＯＭ
 41
0.676923076923077
  7
ＭＳ_ゴシック
 11
122.6750183105469
 21
242.2499847412109
 31
0.0
100
AcDbText
 73
     1
  0
LINE
  5
18A
330
1F
100
AcDbEntity
  8
GR4_01
 62
     7
100
AcDbLine
 10
126.1499999999986
 20
245.0000000000001
 30
0.0
 11
126.1499999999986
 21
225.9999999999996
 31
0.0
  0
TEXT
  5
18B
330
1F
100
AcDbEntity
  8
GR2_01
 62
     7
100
AcDbText
 10
127.1250152587891
 20
241.4318029230291
 30
0.0
 40
1.136363636363636
  1
ＸＡ
 41
0.676923076923077
  7
ＭＳ_ゴシック
 72
     1
 11
128.1250152587891
 21
241.9999847412109
 31
0.0
100
AcDbText
 73
     2
  0
LINE
  5
18C
330
1F
100
AcDbEntity
  8
GR4_01
 62
     7
100
AcDbLine
 10
130.0999999999986
 20
245.0000000000001
 30
0.0
 11
130.0999999999986
 21
225.9999999999996
 31
0.0
  0
TEXT
  5
18D
330
1F
100
AcDbEntity
  8
GR2_01
 62
     7
100
AcDbText
 10
131.5750122070312
 20
240.7075664173473
 30
0.0
 40
1.136363636363636
  1
２
 41
0.676923076923077
  7
ＭＳ_ゴシック
 11
131.5750122070312
 21
240.4999847412109
 31
0.0
100
AcDbText
 73
     1
  0
TEXT
  5
18E
330
1F
100
AcDbEntity
  8
GR2_01
 62
     7
100
AcDbText
 10
130.5750122070312
 20
242.4575664173473
 30
0.0
 40
1.136363636363636
  1
ＣＯＭ
 41
0.676923076923077
  7
ＭＳ_ゴシック
 11
130.5750122070312
 21
242.2499847412109
 31
0.0
100
AcDbText
 73
     1
  0
LINE
  5
18F
330
1F
100
AcDbEntity
  8
GR4_01
 62
     7
100
AcDbLine
 10
134.0499999999986
 20
245.0000000000001
 30
0.0
 11
134.0499999999986
 21
225.9999999999996
 31
0.0
  0
TEXT
  5
190
330
1F
100
AcDbEntity
  8
GR2_01
 62
     7
100
AcDbText
 10
135.0250091552734
 20
241.4318029230291
 30
0.0
 40
1.136363636363636
  1
ＸＢ
 41
0.676923076923077
  7
ＭＳ_ゴシック
 72
     1
 11
136.0250091552734
 21
241.9999847412109
 31
0.0
100
AcDbText
 73
     2
  0
LINE
  5
191
330
1F
100
AcDbEntity
  8
GR4_01
 62
     7
100
AcDbLine
 10
137.9999999999986
 20
245.0000000000001
 30
0.0
 11
137.9999999999986
 21
225.9999999999996
 31
0.0
  0
TEXT
  5
192
330
1F
100
AcDbEntity
  8
GR2_01
 62
     7
100
AcDbText
 10
139.4750061035156
 20
240.7075664173473
 30
0.0
 40
1.136363636363636
  1
２
 41
0.676923076923077
  7
ＭＳ_ゴシック
 11
139.4750061035156
 21
240.4999847412109
 31
0.0
100
AcDbText
 73
     1
  0
TEXT
  5
193
330
1F
100
AcDbEntity
  8
GR2_01
 62
     7
100
AcDbText
 10
138.4750061035156
 20
242.4575664173473
 30
0.0
 40
1.136363636363636
  1
ＣＯＭ
 41
0.676923076923077
  7
ＭＳ_ゴシック
 11
138.4750061035156
 21
242.2499847412109
 31
0.0
100
AcDbText
 73
     1
  0
LINE
  5
194
330
1F
100
AcDbEntity
  8
GR4_01
 62
     7
100
AcDbLine
 10
141.9499999999986
 20
245.0000000000001
 30
0.0
 11
141.9499999999986
 21
225.9999999999996
 31
0.0
  0
TEXT
  5
195
330
1F
100
AcDbEntity
  8
GR2_01
 62
     7
100
AcDbText
 10
142.9250183105469
 20
241.4318029230291
 30
0.0
 40
1.136363636363636
  1
ＸＣ
 41
0.676923076923077
  7
ＭＳ_ゴシック
 72
     1
 11
143.9250183105469
 21
241.9999847412109
 31
0.0
100
AcDbText
 73
     2
  0
LINE
  5
196
330
1F
100
AcDbEntity
  8
GR4_01
 62
     7
100
AcDbLine
 10
145.8999999999986
 20
245.0000000000001
 30
0.0
 11
145.8999999999986
 21
225.9999999999996
 31
0.0
  0
TEXT
  5
197
330
1F
100
AcDbEntity
  8
GR2_01
 62
     7
100
AcDbText
 10
147.3750152587891
 20
240.7075664173473
 30
0.0
 40
1.136363636363636
  1
２
 41
0.676923076923077
  7
ＭＳ_ゴシック
 11
147.3750152587891
 21
240.4999847412109
 31
0.0
100
AcDbText
 73
     1
  0
TEXT
  5
198
330
1F
100
AcDbEntity
  8
GR2_01
 62
     7
100
AcDbText
 10
146.3750152587891
 20
242.4575664173473
 30
0.0
 40
1.136363636363636
  1
ＣＯＭ
 41
0.676923076923077
  7
ＭＳ_ゴシック
 11
146.3750152587891
 21
242.2499847412109
 31
0.0
100
AcDbText
 73
     1
  0
LINE
  5
199
330
1F
100
AcDbEntity
  8
GR4_01
 62
     7
100
AcDbLine
 10
149.8499999999986
 20
245.0000000000001
 30
0.0
 11
149.8499999999986
 21
225.9999999999996
 31
0.0
  0
TEXT
  5
19A
330
1F
100
AcDbEntity
  8
GR2_01
 62
     7
100
AcDbText
 10
150.8249969482422
 20
241.4318029230291
 30
0.0
 40
1.136363636363636
  1
ＸＤ
 41
0.676923076923077
  7
ＭＳ_ゴシック
 72
     1
 11
151.8249969482422
 21
241.9999847412109
 31
0.0
100
AcDbText
 73
     2
  0
LINE
  5
19B
330
1F
100
AcDbEntity
  8
GR4_01
 62
     7
100
AcDbLine
 10
153.7999999999986
 20
245.0000000000001
 30
0.0
 11
153.7999999999986
 21
225.9999999999996
 31
0.0
  0
TEXT
  5
19C
330
1F
100
AcDbEntity
  8
GR2_01
 62
     7
100
AcDbText
 10
155.2750091552734
 20
240.7075664173473
 30
0.0
 40
1.136363636363636
  1
２
 41
0.676923076923077
  7
ＭＳ_ゴシック
 11
155.2750091552734
 21
240.4999847412109
 31
0.0
100
AcDbText
 73
     1
  0
TEXT
  5
19D
330
1F
100
AcDbEntity
  8
GR2_01
 62
     7
100
AcDbText
 10
154.2750091552734
 20
242.4575664173473
 30
0.0
 40
1.136363636363636
  1
ＣＯＭ
 41
0.676923076923077
  7
ＭＳ_ゴシック
 11
154.2750091552734
 21
242.2499847412109
 31
0.0
100
AcDbText
 73
     1
  0
LINE
  5
19E
330
1F
100
AcDbEntity
  8
GR4_01
 62
     7
100
AcDbLine
 10
157.7499999999986
 20
245.0000000000001
 30
0.0
 11
157.7499999999986
 21
225.9999999999996
 31
0.0
  0
TEXT
  5
19F
330
1F
100
AcDbEntity
  8
GR2_01
 62
     7
100
AcDbText
 10
158.7250213623047
 20
241.4318029230291
 30
0.0
 40
1.136363636363636
  1
ＸＥ
 41
0.676923076923077
  7
ＭＳ_ゴシック
 72
     1
 11
159.7250213623047
 21
241.9999847412109
 31
0.0
100
AcDbText
 73
     2
  0
LINE
  5
1A0
330
1F
100
AcDbEntity
  8
GR4_01
 62
     7
100
AcDbLine
 10
161.6999999999986
 20
245.0000000000001
 30
0.0
 11
161.6999999999986
 21
225.9999999999996
 31
0.0
  0
TEXT
  5
1A1
330
1F
100
AcDbEntity
  8
GR2_01
 62
     7
100
AcDbText
 10
163.1750030517578
 20
240.7075664173473
 30
0.0
 40
1.136363636363636
  1
２
 41
0.676923076923077
  7
ＭＳ_ゴシック
 11
163.1750030517578
 21
240.4999847412109
 31
0.0
100
AcDbText
 73
     1
  0
TEXT
  5
1A2
330
1F
100
AcDbEntity
  8
GR2_01
 62
     7
100
AcDbText
 10
162.1750030517578
 20
242.4575664173473
 30
0.0
 40
1.136363636363636
  1
ＣＯＭ
 41
0.676923076923077
  7
ＭＳ_ゴシック
 11
162.1750030517578
 21
242.2499847412109
 31
0.0
100
AcDbText
 73
     1
  0
LINE
  5
1A3
330
1F
100
AcDbEntity
  8
GR4_01
 62
     7
100
AcDbLine
 10
165.6499999999986
 20
245.0000000000001
 30
0.0
 11
165.6499999999986
 21
225.9999999999996
 31
0.0
  0
TEXT
  5
1A4
330
1F
100
AcDbEntity
  8
GR2_01
 62
     7
100
AcDbText
 10
166.6250152587891
 20
241.4318029230291
 30
0.0
 40
1.136363636363636
  1
ＸＦ
 41
0.676923076923077
  7
ＭＳ_ゴシック
 72
     1
 11
167.6250152587891
 21
241.9999847412109
 31
0.0
100
AcDbText
 73
     2
  0
LINE
  5
1A5
330
1F
100
AcDbEntity
  8
GR4_01
 62
     7
100
AcDbLine
 10
169.5999999999986
 20
245.0000000000001
 30
0.0
 11
169.5999999999986
 21
225.9999999999996
 31
0.0
  0
TEXT
  5
1A6
330
1F
100
AcDbEntity
  8
GR2_01
 62
     7
100
AcDbText
 10
171.0749969482422
 20
240.7075664173473
 30
0.0
 40
1.136363636363636
  1
２
 41
0.676923076923077
  7
ＭＳ_ゴシック
 11
171.0749969482422
 21
240.4999847412109
 31
0.0
100
AcDbText
 73
     1
  0
TEXT
  5
1A7
330
1F
100
AcDbEntity
  8
GR2_01
 62
     7
100
AcDbText
 10
170.0749969482422
 20
242.4575664173473
 30
0.0
 40
1.136363636363636
  1
ＣＯＭ
 41
0.676923076923077
  7
ＭＳ_ゴシック
 11
170.0749969482422
 21
242.2499847412109
 31
0.0
100
AcDbText
 73
     1
  0
LINE
  5
1A8
330
1F
100
AcDbEntity
  8
GR4_01
 62
     7
100
AcDbLine
 10
173.5499999999985
 20
245.0000000000001
 30
0.0
 11
173.5499999999985
 21
225.9999999999996
 31
0.0
  0
LINE
  5
1A9
330
1F
100
AcDbEntity
  8
GR4_01
 62
     7
100
AcDbLine
 10
177.4999999999986
 20
245.0000000000001
 30
0.0
 11
177.4999999999986
 21
225.9999999999996
 31
0.0
  0
TEXT
  5
1AA
330
1F
100
AcDbEntity
  8
GR2_01
 62
     7
100
AcDbText
 10
178.9749908447266
 20
240.7075664173473
 30
0.0
 40
1.136363636363636
  1
２
 41
0.676923076923077
  7
ＭＳ_ゴシック
 11
178.9749908447266
 21
240.4999847412109
 31
0.0
100
AcDbText
 73
     1
  0
TEXT
  5
1AB
330
1F
100
AcDbEntity
  8
GR2_01
 62
     7
100
AcDbText
 10
177.9749908447266
 20
242.4575664173473
 30
0.0
 40
1.136363636363636
  1
ＣＯＭ
 41
0.676923076923077
  7
ＭＳ_ゴシック
 11
177.9749908447266
 21
242.2499847412109
 31
0.0
100
AcDbText
 73
     1
  0
TEXT
  5
1AC
330
1F
100
AcDbEntity
  8
GR2_01
 62
     7
100
AcDbText
 10
175.0250091552734
 20
240.7075664173473
 30
0.0
 40
1.136363636363636
  1
１
 41
0.676923076923077
  7
ＭＳ_ゴシック
 11
175.0250091552734
 21
240.4999847412109
 31
0.0
100
AcDbText
 73
     1
  0
TEXT
  5
1AD
330
1F
100
AcDbEntity
  8
GR2_01
 62
     7
100
AcDbText
 10
174.0250091552734
 20
242.4575664173473
 30
0.0
 40
1.136363636363636
  1
ＣＯＭ
 41
0.676923076923077
  7
ＭＳ_ゴシック
 11
174.0250091552734
 21
242.2499847412109
 31
0.0
100
AcDbText
 73
     1
  0
TEXT
  5
1AE
330
1F
100
AcDbEntity
  8
GR2_01
 62
     7
100
AcDbText
 10
180.729427206203
 20
176.0479401350021
 30
0.0
 40
0.9090909452149363
  1
８４５３６６０６－００４
 50
90.0
 41
0.5923076586845607
  7
ＭＳ_ゴシック
 72
     1
 11
180.8954925537109
 21
180.2479400634766
 31
0.0
100
AcDbText
 73
     1
  0
HATCH
  5
1AF
330
1F
100
AcDbEntity
  8
GR2_01
 62
     7
100
AcDbHatch
 10
0.0
 20
0.0
 30
0.0
210
0.0
220
0.0
230
1.0
  2
_USER
 70
     0
 71
     0
 91
        1
 92
        0
 93
        4
 72
     1
 10
39.24999999999872
 20
175.4999999999997
 11
36.99999999999943
 21
175.4999999999997
 72
     1
 10
36.99999999999943
 20
175.4999999999997
 11
36.99999999999886
 21
165.9999999999995
 72
     1
 10
36.99999999999909
 20
165.9999999999995
 11
39.2499999999987
 21
165.9999999999995
 72
     1
 10
39.24999999999869
 20
165.9999999999995
 11
39.24999999999872
 21
175.4999999999997
 97
        0
 75
     0
 76
     0
 52
45.0
 41
0.3
 77
     0
 78
     1
 53
45.0
 43
0.0
 44
0.0
 45
-0.2121320343559642
 46
0.2121320343559643
 79
     0
 98
        0
  0
LINE
  5
1B0
330
1F
100
AcDbEntity
  8
GR4_01
 62
     7
100
AcDbLine
 10
36.99999999999966
 20
104.0
 30
0.0
 11
181.4999999999988
 21
104.0
 31
0.0
  0
LINE
  5
1B1
330
1F
100
AcDbEntity
  8
GR4_01
 62
     7
100
AcDbLine
 10
36.99999999999909
 20
84.99999999999942
 30
0.0
 11
181.4999999999995
 21
84.99999999999942
 31
0.0
  0
LINE
  5
1B2
330
1F
100
AcDbEntity
  8
GR4_01
 62
     7
100
AcDbLine
 10
181.4999999999985
 20
104.0000000000002
 30
0.0
 11
181.4999999999996
 21
84.99999999999964
 31
0.0
  0
LINE
  5
1B3
330
1F
100
AcDbEntity
  8
GR4_01
 62
     7
100
AcDbLine
 10
37.0
 20
104.0000000000002
 30
0.0
 11
36.99999999999886
 21
84.99999999999982
 31
0.0
  0
LINE
  5
1B4
330
1F
100
AcDbEntity
  8
GR4_01
 62
     7
100
AcDbLine
 10
36.99999999999932
 20
94.49999999999964
 30
0.0
 11
181.4999999999994
 21
94.49999999999964
 31
0.0
  0
LINE
  5
1B5
330
1F
100
AcDbEntity
  8
GR4_01
 62
     7
100
AcDbLine
 10
43.24999999999872
 20
104.0
 30
0.0
 11
43.24999999999869
 21
94.4999999999997
 31
0.0
  0
LINE
  5
1B6
330
1F
100
AcDbEntity
  8
GR4_01
 62
     7
100
AcDbLine
 10
51.24999999999872
 20
104.0
 30
0.0
 11
51.24999999999869
 21
94.4999999999997
 31
0.0
  0
LINE
  5
1B7
330
1F
100
AcDbEntity
  8
GR4_01
 62
     7
100
AcDbLine
 10
59.24999999999872
 20
104.0
 30
0.0
 11
59.24999999999869
 21
94.4999999999997
 31
0.0
  0
LINE
  5
1B8
330
1F
100
AcDbEntity
  8
GR4_01
 62
     7
100
AcDbLine
 10
67.24999999999872
 20
104.0
 30
0.0
 11
67.24999999999869
 21
94.4999999999997
 31
0.0
  0
LINE
  5
1B9
330
1F
100
AcDbEntity
  8
GR4_01
 62
     7
100
AcDbLine
 10
75.24999999999872
 20
104.0
 30
0.0
 11
75.24999999999869
 21
94.4999999999997
 31
0.0
  0
LINE
  5
1BA
330
1F
100
AcDbEntity
  8
GR4_01
 62
     7
100
AcDbLine
 10
83.24999999999872
 20
104.0
 30
0.0
 11
83.24999999999869
 21
94.4999999999997
 31
0.0
  0
LINE
  5
1BB
330
1F
100
AcDbEntity
  8
GR4_01
 62
     7
100
AcDbLine
 10
91.24999999999872
 20
104.0
 30
0.0
 11
91.24999999999869
 21
94.4999999999997
 31
0.0
  0
LINE
  5
1BC
330
1F
100
AcDbEntity
  8
GR4_01
 62
     7
100
AcDbLine
 10
99.24999999999872
 20
104.0
 30
0.0
 11
99.24999999999869
 21
94.4999999999997
 31
0.0
  0
LINE
  5
1BD
330
1F
100
AcDbEntity
  8
GR4_01
 62
     7
100
AcDbLine
 10
107.2499999999987
 20
104.0
 30
0.0
 11
107.2499999999987
 21
94.4999999999997
 31
0.0
  0
LINE
  5
1BE
330
1F
100
AcDbEntity
  8
GR4_01
 62
     7
100
AcDbLine
 10
115.2499999999987
 20
104.0
 30
0.0
 11
115.2499999999987
 21
94.4999999999997
 31
0.0
  0
LINE
  5
1BF
330
1F
100
AcDbEntity
  8
GR4_01
 62
     7
100
AcDbLine
 10
123.2499999999987
 20
104.0
 30
0.0
 11
123.2499999999987
 21
94.4999999999997
 31
0.0
  0
LINE
  5
1C0
330
1F
100
AcDbEntity
  8
GR4_01
 62
     7
100
AcDbLine
 10
131.2499999999987
 20
104.0
 30
0.0
 11
131.2499999999987
 21
94.4999999999997
 31
0.0
  0
LINE
  5
1C1
330
1F
100
AcDbEntity
  8
GR4_01
 62
     7
100
AcDbLine
 10
139.2499999999987
 20
104.0
 30
0.0
 11
139.2499999999987
 21
94.4999999999997
 31
0.0
  0
LINE
  5
1C2
330
1F
100
AcDbEntity
  8
GR4_01
 62
     7
100
AcDbLine
 10
147.2499999999987
 20
104.0
 30
0.0
 11
147.2499999999987
 21
94.4999999999997
 31
0.0
  0
LINE
  5
1C3
330
1F
100
AcDbEntity
  8
GR4_01
 62
     7
100
AcDbLine
 10
155.2499999999987
 20
104.0
 30
0.0
 11
155.2499999999987
 21
94.4999999999997
 31
0.0
  0
LINE
  5
1C4
330
1F
100
AcDbEntity
  8
GR4_01
 62
     7
100
AcDbLine
 10
163.2499999999987
 20
104.0
 30
0.0
 11
163.2499999999987
 21
94.4999999999997
 31
0.0
  0
LINE
  5
1C5
330
1F
100
AcDbEntity
  8
GR4_01
 62
     7
100
AcDbLine
 10
171.2499999999987
 20
104.0
 30
0.0
 11
171.2499999999987
 21
94.4999999999997
 31
0.0
  0
LINE
  5
1C6
330
1F
100
AcDbEntity
  8
GR4_01
 62
     7
100
AcDbLine
 10
179.2499999999987
 20
104.0
 30
0.0
 11
179.2499999999987
 21
94.4999999999997
 31
0.0
  0
LINE
  5
1C7
330
1F
100
AcDbEntity
  8
GR4_01
 62
     7
100
AcDbLine
 10
39.24999999999872
 20
94.4999999999997
 30
0.0
 11
39.24999999999869
 21
84.99999999999947
 31
0.0
  0
LINE
  5
1C8
330
1F
100
AcDbEntity
  8
GR4_01
 62
     7
100
AcDbLine
 10
47.24999999999869
 20
94.4999999999997
 30
0.0
 11
47.24999999999872
 21
84.99999999999947
 31
0.0
  0
LINE
  5
1C9
330
1F
100
AcDbEntity
  8
GR4_01
 62
     7
100
AcDbLine
 10
55.24999999999866
 20
94.4999999999997
 30
0.0
 11
55.24999999999872
 21
84.99999999999947
 31
0.0
  0
LINE
  5
1CA
330
1F
100
AcDbEntity
  8
GR4_01
 62
     7
100
AcDbLine
 10
63.24999999999866
 20
94.4999999999997
 30
0.0
 11
63.24999999999869
 21
84.99999999999947
 31
0.0
  0
LINE
  5
1CB
330
1F
100
AcDbEntity
  8
GR4_01
 62
     7
100
AcDbLine
 10
71.24999999999866
 20
94.4999999999997
 30
0.0
 11
71.24999999999866
 21
84.99999999999947
 31
0.0
  0
LINE
  5
1CC
330
1F
100
AcDbEntity
  8
GR4_01
 62
     7
100
AcDbLine
 10
79.24999999999864
 20
94.4999999999997
 30
0.0
 11
79.24999999999866
 21
84.99999999999947
 31
0.0
  0
LINE
  5
1CD
330
1F
100
AcDbEntity
  8
GR4_01
 62
     7
100
AcDbLine
 10
87.24999999999861
 20
94.4999999999997
 30
0.0
 11
87.24999999999866
 21
84.99999999999947
 31
0.0
  0
LINE
  5
1CE
330
1F
100
AcDbEntity
  8
GR4_01
 62
     7
100
AcDbLine
 10
95.24999999999861
 20
94.4999999999997
 30
0.0
 11
95.24999999999864
 21
84.99999999999947
 31
0.0
  0
LINE
  5
1CF
330
1F
100
AcDbEntity
  8
GR4_01
 62
     7
100
AcDbLine
 10
103.2499999999986
 20
94.4999999999997
 30
0.0
 11
103.2499999999986
 21
84.99999999999947
 31
0.0
  0
LINE
  5
1D0
330
1F
100
AcDbEntity
  8
GR4_01
 62
     7
100
AcDbLine
 10
111.2499999999986
 20
94.4999999999997
 30
0.0
 11
111.2499999999986
 21
84.99999999999947
 31
0.0
  0
LINE
  5
1D1
330
1F
100
AcDbEntity
  8
GR4_01
 62
     7
100
AcDbLine
 10
119.2499999999986
 20
94.4999999999997
 30
0.0
 11
119.2499999999986
 21
84.99999999999947
 31
0.0
  0
LINE
  5
1D2
330
1F
100
AcDbEntity
  8
GR4_01
 62
     7
100
AcDbLine
 10
127.2499999999986
 20
94.4999999999997
 30
0.0
 11
127.2499999999986
 21
84.99999999999947
 31
0.0
  0
LINE
  5
1D3
330
1F
100
AcDbEntity
  8
GR4_01
 62
     7
100
AcDbLine
 10
135.2499999999986
 20
94.4999999999997
 30
0.0
 11
135.2499999999986
 21
84.99999999999947
 31
0.0
  0
LINE
  5
1D4
330
1F
100
AcDbEntity
  8
GR4_01
 62
     7
100
AcDbLine
 10
143.2499999999986
 20
94.4999999999997
 30
0.0
 11
143.2499999999986
 21
84.99999999999947
 31
0.0
  0
LINE
  5
1D5
330
1F
100
AcDbEntity
  8
GR4_01
 62
     7
100
AcDbLine
 10
151.2499999999985
 20
94.4999999999997
 30
0.0
 11
151.2499999999986
 21
84.99999999999947
 31
0.0
  0
LINE
  5
1D6
330
1F
100
AcDbEntity
  8
GR4_01
 62
     7
100
AcDbLine
 10
159.2499999999985
 20
94.4999999999997
 30
0.0
 11
159.2499999999986
 21
84.99999999999947
 31
0.0
  0
LINE
  5
1D7
330
1F
100
AcDbEntity
  8
GR4_01
 62
     7
100
AcDbLine
 10
167.2499999999985
 20
94.4999999999997
 30
0.0
 11
167.2499999999985
 21
84.99999999999947
 31
0.0
  0
LINE
  5
1D8
330
1F
100
AcDbEntity
  8
GR4_01
 62
     7
100
AcDbLine
 10
175.2499999999985
 20
94.4999999999997
 30
0.0
 11
175.2499999999985
 21
84.99999999999947
 31
0.0
  0
TEXT
  5
1D9
330
1F
100
AcDbEntity
  8
GR2_01
 62
     7
100
AcDbText
 10
38.0000114440918
 20
101.2767603093928
 30
0.0
 40
1.515151515151515
  1
ＤＣ
 41
0.7615384615384615
  7
ＭＳ_ゴシック
 11
38.0000114440918
 21
100.9999847412109
 31
0.0
100
AcDbText
 73
     1
  0
TEXT
  5
1DA
330
1F
100
AcDbEntity
  8
GR2_01
 62
     7
100
AcDbText
 10
38.0000114440918
 20
98.77676030939276
 30
0.0
 40
1.515151515151515
  1
２４Ｖ
 41
0.7615384615384615
  7
ＭＳ_ゴシック
 11
38.0000114440918
 21
98.49998474121094
 31
0.0
100
AcDbText
 73
     1
  0
TEXT
  5
1DB
330
1F
100
AcDbEntity
  8
GR2_01
 62
     7
100
AcDbText
 10
44.2500114440918
 20
101.2767603093928
 30
0.0
 40
1.515151515151515
  1
Ｘ０
 41
0.7615384615384615
  7
ＭＳ_ゴシック
 11
44.2500114440918
 21
100.9999847412109
 31
0.0
100
AcDbText
 73
     1
  0
TEXT
  5
1DC
330
1F
100
AcDbEntity
  8
GR2_01
 62
     7
100
AcDbText
 10
52.25002670288086
 20
101.2767603093928
 30
0.0
 40
1.515151515151515
  1
Ｘ１
 41
0.7615384615384615
  7
ＭＳ_ゴシック
 11
52.25002670288086
 21
100.9999847412109
 31
0.0
100
AcDbText
 73
     1
  0
TEXT
  5
1DD
330
1F
100
AcDbEntity
  8
GR2_01
 62
     7
100
AcDbText
 10
48.25002670288086
 20
91.77676030939276
 30
0.0
 40
1.515151515151515
  1
ＣＯＭ　
 41
0.7615384615384615
  7
ＭＳ_ゴシック
 11
48.25002670288086
 21
91.49998474121094
 31
0.0
100
AcDbText
 73
     1
  0
TEXT
  5
1DE
330
1F
100
AcDbEntity
  8
GR2_01
 62
     7
100
AcDbText
 10
48.2500114440918
 20
89.27676030939276
 30
0.0
 40
1.515151515151515
  1
　２
 41
0.7615384615384615
  7
ＭＳ_ゴシック
 11
48.2500114440918
 21
88.99998474121094
 31
0.0
100
AcDbText
 73
     1
  0
TEXT
  5
1DF
330
1F
100
AcDbEntity
  8
GR2_01
 62
     7
100
AcDbText
 10
40.2500114440918
 20
91.77676030939276
 30
0.0
 40
1.515151515151515
  1
ＤＣ
 41
0.7615384615384615
  7
ＭＳ_ゴシック
 11
40.2500114440918
 21
91.49998474121094
 31
0.0
100
AcDbText
 73
     1
  0
TEXT
  5
1E0
330
1F
100
AcDbEntity
  8
GR2_01
 62
     7
100
AcDbText
 10
40.2500114440918
 20
89.27676030939276
 30
0.0
 40
1.515151515151515
  1
０Ｖ
 41
0.7615384615384615
  7
ＭＳ_ゴシック
 11
40.2500114440918
 21
88.99998474121094
 31
0.0
100
AcDbText
 73
     1
  0
TEXT
  5
1E1
330
1F
100
AcDbEntity
  8
GR2_01
 62
     7
100
AcDbText
 10
60.25002670288086
 20
101.2767603093928
 30
0.0
 40
1.515151515151515
  1
Ｘ２
 41
0.7615384615384615
  7
ＭＳ_ゴシック
 11
60.25002670288086
 21
100.9999847412109
 31
0.0
100
AcDbText
 73
     1
  0
TEXT
  5
1E2
330
1F
100
AcDbEntity
  8
GR2_01
 62
     7
100
AcDbText
 10
68.25003051757812
 20
101.2767603093928
 30
0.0
 40
1.515151515151515
  1
Ｘ３
 41
0.7615384615384615
  7
ＭＳ_ゴシック
 11
68.25003051757812
 21
100.9999847412109
 31
0.0
100
AcDbText
 73
     1
  0
TEXT
  5
1E3
330
1F
100
AcDbEntity
  8
GR2_01
 62
     7
100
AcDbText
 10
76.25003051757812
 20
101.2767603093928
 30
0.0
 40
1.515151515151515
  1
Ｘ４
 41
0.7615384615384615
  7
ＭＳ_ゴシック
 11
76.25003051757812
 21
100.9999847412109
 31
0.0
100
AcDbText
 73
     1
  0
TEXT
  5
1E4
330
1F
100
AcDbEntity
  8
GR2_01
 62
     7
100
AcDbText
 10
84.25003051757812
 20
101.2767603093928
 30
0.0
 40
1.515151515151515
  1
Ｘ５
 41
0.7615384615384615
  7
ＭＳ_ゴシック
 11
84.25003051757812
 21
100.9999847412109
 31
0.0
100
AcDbText
 73
     1
  0
TEXT
  5
1E5
330
1F
100
AcDbEntity
  8
GR2_01
 62
     7
100
AcDbText
 10
92.25003051757812
 20
101.2767603093928
 30
0.0
 40
1.515151515151515
  1
Ｘ６
 41
0.7615384615384615
  7
ＭＳ_ゴシック
 11
92.25003051757812
 21
100.9999847412109
 31
0.0
100
AcDbText
 73
     1
  0
TEXT
  5
1E6
330
1F
100
AcDbEntity
  8
GR2_01
 62
     7
100
AcDbText
 10
100.2500305175781
 20
101.2767603093928
 30
0.0
 40
1.515151515151515
  1
Ｘ７
 41
0.7615384615384615
  7
ＭＳ_ゴシック
 11
100.2500305175781
 21
100.9999847412109
 31
0.0
100
AcDbText
 73
     1
  0
TEXT
  5
1E7
330
1F
100
AcDbEntity
  8
GR2_01
 62
     7
100
AcDbText
 10
108.2500305175781
 20
101.2767603093928
 30
0.0
 40
1.515151515151515
  1
Ｘ８
 41
0.7615384615384615
  7
ＭＳ_ゴシック
 11
108.2500305175781
 21
100.9999847412109
 31
0.0
100
AcDbText
 73
     1
  0
TEXT
  5
1E8
330
1F
100
AcDbEntity
  8
GR2_01
 62
     7
100
AcDbText
 10
116.2500305175781
 20
101.2767603093928
 30
0.0
 40
1.515151515151515
  1
Ｘ９
 41
0.7615384615384615
  7
ＭＳ_ゴシック
 11
116.2500305175781
 21
100.9999847412109
 31
0.0
100
AcDbText
 73
     1
  0
TEXT
  5
1E9
330
1F
100
AcDbEntity
  8
GR2_01
 62
     7
100
AcDbText
 10
124.2500305175781
 20
101.2767603093928
 30
0.0
 40
1.515151515151515
  1
ＸＡ
 41
0.7615384615384615
  7
ＭＳ_ゴシック
 11
124.2500305175781
 21
100.9999847412109
 31
0.0
100
AcDbText
 73
     1
  0
TEXT
  5
1EA
330
1F
100
AcDbEntity
  8
GR2_01
 62
     7
100
AcDbText
 10
132.2500305175781
 20
101.2767603093928
 30
0.0
 40
1.515151515151515
  1
ＸＢ
 41
0.7615384615384615
  7
ＭＳ_ゴシック
 11
132.2500305175781
 21
100.9999847412109
 31
0.0
100
AcDbText
 73
     1
  0
TEXT
  5
1EB
330
1F
100
AcDbEntity
  8
GR2_01
 62
     7
100
AcDbText
 10
140.2500305175781
 20
101.2767603093928
 30
0.0
 40
1.515151515151515
  1
ＸＣ
 41
0.7615384615384615
  7
ＭＳ_ゴシック
 11
140.2500305175781
 21
100.9999847412109
 31
0.0
100
AcDbText
 73
     1
  0
TEXT
  5
1EC
330
1F
100
AcDbEntity
  8
GR2_01
 62
     7
100
AcDbText
 10
148.2500152587891
 20
101.2767603093928
 30
0.0
 40
1.515151515151515
  1
ＸＤ
 41
0.7615384615384615
  7
ＭＳ_ゴシック
 11
148.2500152587891
 21
100.9999847412109
 31
0.0
100
AcDbText
 73
     1
  0
TEXT
  5
1ED
330
1F
100
AcDbEntity
  8
GR2_01
 62
     7
100
AcDbText
 10
156.2500152587891
 20
101.2767603093928
 30
0.0
 40
1.515151515151515
  1
ＸＥ
 41
0.7615384615384615
  7
ＭＳ_ゴシック
 11
156.2500152587891
 21
100.9999847412109
 31
0.0
100
AcDbText
 73
     1
  0
TEXT
  5
1EE
330
1F
100
AcDbEntity
  8
GR2_01
 62
     7
100
AcDbText
 10
164.2500152587891
 20
101.2767603093928
 30
0.0
 40
1.515151515151515
  1
ＸＦ
 41
0.7615384615384615
  7
ＭＳ_ゴシック
 11
164.2500152587891
 21
100.9999847412109
 31
0.0
100
AcDbText
 73
     1
  0
TEXT
  5
1EF
330
1F
100
AcDbEntity
  8
GR2_01
 62
     7
100
AcDbText
 10
56.25002670288086
 20
91.77676030939276
 30
0.0
 40
1.515151515151515
  1
ＣＯＭ　
 41
0.7615384615384615
  7
ＭＳ_ゴシック
 11
56.25002670288086
 21
91.49998474121094
 31
0.0
100
AcDbText
 73
     1
  0
TEXT
  5
1F0
330
1F
100
AcDbEntity
  8
GR2_01
 62
     7
100
AcDbText
 10
56.2500114440918
 20
89.27676030939276
 30
0.0
 40
1.515151515151515
  1
　２
 41
0.7615384615384615
  7
ＭＳ_ゴシック
 11
56.2500114440918
 21
88.99998474121094
 31
0.0
100
AcDbText
 73
     1
  0
TEXT
  5
1F1
330
1F
100
AcDbEntity
  8
GR2_01
 62
     7
100
AcDbText
 10
64.25003051757812
 20
91.77676030939276
 30
0.0
 40
1.515151515151515
  1
ＣＯＭ　
 41
0.7615384615384615
  7
ＭＳ_ゴシック
 11
64.25003051757812
 21
91.49998474121094
 31
0.0
100
AcDbText
 73
     1
  0
TEXT
  5
1F2
330
1F
100
AcDbEntity
  8
GR2_01
 62
     7
100
AcDbText
 10
64.25001525878906
 20
89.27676030939276
 30
0.0
 40
1.515151515151515
  1
　２
 41
0.7615384615384615
  7
ＭＳ_ゴシック
 11
64.25001525878906
 21
88.99998474121094
 31
0.0
100
AcDbText
 73
     1
  0
TEXT
  5
1F3
330
1F
100
AcDbEntity
  8
GR2_01
 62
     7
100
AcDbText
 10
72.25003051757812
 20
91.77676030939276
 30
0.0
 40
1.515151515151515
  1
ＣＯＭ　
 41
0.7615384615384615
  7
ＭＳ_ゴシック
 11
72.25003051757812
 21
91.49998474121094
 31
0.0
100
AcDbText
 73
     1
  0
TEXT
  5
1F4
330
1F
100
AcDbEntity
  8
GR2_01
 62
     7
100
AcDbText
 10
72.25001525878906
 20
89.27676030939276
 30
0.0
 40
1.515151515151515
  1
　２
 41
0.7615384615384615
  7
ＭＳ_ゴシック
 11
72.25001525878906
 21
88.99998474121094
 31
0.0
100
AcDbText
 73
     1
  0
TEXT
  5
1F5
330
1F
100
AcDbEntity
  8
GR2_01
 62
     7
100
AcDbText
 10
80.25003051757812
 20
91.77676030939276
 30
0.0
 40
1.515151515151515
  1
ＣＯＭ　
 41
0.7615384615384615
  7
ＭＳ_ゴシック
 11
80.25003051757812
 21
91.49998474121094
 31
0.0
100
AcDbText
 73
     1
  0
TEXT
  5
1F6
330
1F
100
AcDbEntity
  8
GR2_01
 62
     7
100
AcDbText
 10
80.25001525878906
 20
89.27676030939276
 30
0.0
 40
1.515151515151515
  1
　２
 41
0.7615384615384615
  7
ＭＳ_ゴシック
 11
80.25001525878906
 21
88.99998474121094
 31
0.0
100
AcDbText
 73
     1
  0
TEXT
  5
1F7
330
1F
100
AcDbEntity
  8
GR2_01
 62
     7
100
AcDbText
 10
88.25003051757812
 20
91.77676030939276
 30
0.0
 40
1.515151515151515
  1
ＣＯＭ　
 41
0.7615384615384615
  7
ＭＳ_ゴシック
 11
88.25003051757812
 21
91.49998474121094
 31
0.0
100
AcDbText
 73
     1
  0
TEXT
  5
1F8
330
1F
100
AcDbEntity
  8
GR2_01
 62
     7
100
AcDbText
 10
88.25001525878906
 20
89.27676030939276
 30
0.0
 40
1.515151515151515
  1
　２
 41
0.7615384615384615
  7
ＭＳ_ゴシック
 11
88.25001525878906
 21
88.99998474121094
 31
0.0
100
AcDbText
 73
     1
  0
TEXT
  5
1F9
330
1F
100
AcDbEntity
  8
GR2_01
 62
     7
100
AcDbText
 10
96.25003051757812
 20
91.77676030939276
 30
0.0
 40
1.515151515151515
  1
ＣＯＭ　
 41
0.7615384615384615
  7
ＭＳ_ゴシック
 11
96.25003051757812
 21
91.49998474121094
 31
0.0
100
AcDbText
 73
     1
  0
TEXT
  5
1FA
330
1F
100
AcDbEntity
  8
GR2_01
 62
     7
100
AcDbText
 10
96.25001525878906
 20
89.27676030939276
 30
0.0
 40
1.515151515151515
  1
　２
 41
0.7615384615384615
  7
ＭＳ_ゴシック
 11
96.25001525878906
 21
88.99998474121094
 31
0.0
100
AcDbText
 73
     1
  0
TEXT
  5
1FB
330
1F
100
AcDbEntity
  8
GR2_01
 62
     7
100
AcDbText
 10
104.2500305175781
 20
91.77676030939276
 30
0.0
 40
1.515151515151515
  1
ＣＯＭ　
 41
0.7615384615384615
  7
ＭＳ_ゴシック
 11
104.2500305175781
 21
91.49998474121094
 31
0.0
100
AcDbText
 73
     1
  0
TEXT
  5
1FC
330
1F
100
AcDbEntity
  8
GR2_01
 62
     7
100
AcDbText
 10
104.2500152587891
 20
89.27676030939276
 30
0.0
 40
1.515151515151515
  1
　２
 41
0.7615384615384615
  7
ＭＳ_ゴシック
 11
104.2500152587891
 21
88.99998474121094
 31
0.0
100
AcDbText
 73
     1
  0
TEXT
  5
1FD
330
1F
100
AcDbEntity
  8
GR2_01
 62
     7
100
AcDbText
 10
112.2500305175781
 20
91.77676030939276
 30
0.0
 40
1.515151515151515
  1
ＣＯＭ　
 41
0.7615384615384615
  7
ＭＳ_ゴシック
 11
112.2500305175781
 21
91.49998474121094
 31
0.0
100
AcDbText
 73
     1
  0
TEXT
  5
1FE
330
1F
100
AcDbEntity
  8
GR2_01
 62
     7
100
AcDbText
 10
112.2500152587891
 20
89.27676030939276
 30
0.0
 40
1.515151515151515
  1
　２
 41
0.7615384615384615
  7
ＭＳ_ゴシック
 11
112.2500152587891
 21
88.99998474121094
 31
0.0
100
AcDbText
 73
     1
  0
TEXT
  5
1FF
330
1F
100
AcDbEntity
  8
GR2_01
 62
     7
100
AcDbText
 10
120.2500305175781
 20
91.77676030939276
 30
0.0
 40
1.515151515151515
  1
ＣＯＭ　
 41
0.7615384615384615
  7
ＭＳ_ゴシック
 11
120.2500305175781
 21
91.49998474121094
 31
0.0
100
AcDbText
 73
     1
  0
TEXT
  5
200
330
1F
100
AcDbEntity
  8
GR2_01
 62
     7
100
AcDbText
 10
120.2500152587891
 20
89.27676030939276
 30
0.0
 40
1.515151515151515
  1
　２
 41
0.7615384615384615
  7
ＭＳ_ゴシック
 11
120.2500152587891
 21
88.99998474121094
 31
0.0
100
AcDbText
 73
     1
  0
TEXT
  5
201
330
1F
100
AcDbEntity
  8
GR2_01
 62
     7
100
AcDbText
 10
128.2500305175781
 20
91.77676030939276
 30
0.0
 40
1.515151515151515
  1
ＣＯＭ　
 41
0.7615384615384615
  7
ＭＳ_ゴシック
 11
128.2500305175781
 21
91.49998474121094
 31
0.0
100
AcDbText
 73
     1
  0
TEXT
  5
202
330
1F
100
AcDbEntity
  8
GR2_01
 62
     7
100
AcDbText
 10
128.2500152587891
 20
89.27676030939276
 30
0.0
 40
1.515151515151515
  1
　２
 41
0.7615384615384615
  7
ＭＳ_ゴシック
 11
128.2500152587891
 21
88.99998474121094
 31
0.0
100
AcDbText
 73
     1
  0
TEXT
  5
203
330
1F
100
AcDbEntity
  8
GR2_01
 62
     7
100
AcDbText
 10
136.2500305175781
 20
91.77676030939276
 30
0.0
 40
1.515151515151515
  1
ＣＯＭ　
 41
0.7615384615384615
  7
ＭＳ_ゴシック
 11
136.2500305175781
 21
91.49998474121094
 31
0.0
100
AcDbText
 73
     1
  0
TEXT
  5
204
330
1F
100
AcDbEntity
  8
GR2_01
 62
     7
100
AcDbText
 10
136.2500152587891
 20
89.27676030939276
 30
0.0
 40
1.515151515151515
  1
　２
 41
0.7615384615384615
  7
ＭＳ_ゴシック
 11
136.2500152587891
 21
88.99998474121094
 31
0.0
100
AcDbText
 73
     1
  0
TEXT
  5
205
330
1F
100
AcDbEntity
  8
GR2_01
 62
     7
100
AcDbText
 10
144.2500305175781
 20
91.77676030939276
 30
0.0
 40
1.515151515151515
  1
ＣＯＭ　
 41
0.7615384615384615
  7
ＭＳ_ゴシック
 11
144.2500305175781
 21
91.49998474121094
 31
0.0
100
AcDbText
 73
     1
  0
TEXT
  5
206
330
1F
100
AcDbEntity
  8
GR2_01
 62
     7
100
AcDbText
 10
144.2500152587891
 20
89.27676030939276
 30
0.0
 40
1.515151515151515
  1
　２
 41
0.7615384615384615
  7
ＭＳ_ゴシック
 11
144.2500152587891
 21
88.99998474121094
 31
0.0
100
AcDbText
 73
     1
  0
TEXT
  5
207
330
1F
100
AcDbEntity
  8
GR2_01
 62
     7
100
AcDbText
 10
152.2500152587891
 20
91.77676030939276
 30
0.0
 40
1.515151515151515
  1
ＣＯＭ　
 41
0.7615384615384615
  7
ＭＳ_ゴシック
 11
152.2500152587891
 21
91.49998474121094
 31
0.0
100
AcDbText
 73
     1
  0
TEXT
  5
208
330
1F
100
AcDbEntity
  8
GR2_01
 62
     7
100
AcDbText
 10
152.2500152587891
 20
89.27676030939276
 30
0.0
 40
1.515151515151515
  1
　２
 41
0.7615384615384615
  7
ＭＳ_ゴシック
 11
152.2500152587891
 21
88.99998474121094
 31
0.0
100
AcDbText
 73
     1
  0
TEXT
  5
209
330
1F
100
AcDbEntity
  8
GR2_01
 62
     7
100
AcDbText
 10
160.2500152587891
 20
91.77676030939276
 30
0.0
 40
1.515151515151515
  1
ＣＯＭ　
 41
0.7615384615384615
  7
ＭＳ_ゴシック
 11
160.2500152587891
 21
91.49998474121094
 31
0.0
100
AcDbText
 73
     1
  0
TEXT
  5
20A
330
1F
100
AcDbEntity
  8
GR2_01
 62
     7
100
AcDbText
 10
160.2500152587891
 20
89.27676030939276
 30
0.0
 40
1.515151515151515
  1
　２
 41
0.7615384615384615
  7
ＭＳ_ゴシック
 11
160.2500152587891
 21
88.99998474121094
 31
0.0
100
AcDbText
 73
     1
  0
TEXT
  5
20B
330
1F
100
AcDbEntity
  8
GR2_01
 62
     7
100
AcDbText
 10
168.2500152587891
 20
91.77676030939276
 30
0.0
 40
1.515151515151515
  1
ＣＯＭ　
 41
0.7615384615384615
  7
ＭＳ_ゴシック
 11
168.2500152587891
 21
91.49998474121094
 31
0.0
100
AcDbText
 73
     1
  0
TEXT
  5
20C
330
1F
100
AcDbEntity
  8
GR2_01
 62
     7
100
AcDbText
 10
168.2500152587891
 20
89.27676030939276
 30
0.0
 40
1.515151515151515
  1
　２
 41
0.7615384615384615
  7
ＭＳ_ゴシック
 11
168.2500152587891
 21
88.99998474121094
 31
0.0
100
AcDbText
 73
     1
  0
TEXT
  5
20D
330
1F
100
AcDbEntity
  8
GR2_01
 62
     7
100
AcDbText
 10
176.2500152587891
 20
91.77676030939276
 30
0.0
 40
1.515151515151515
  1
ＣＯＭ
 41
0.7615384615384615
  7
ＭＳ_ゴシック
 11
176.2500152587891
 21
91.49998474121094
 31
0.0
100
AcDbText
 73
     1
  0
TEXT
  5
20E
330
1F
100
AcDbEntity
  8
GR2_01
 62
     7
100
AcDbText
 10
176.2500152587891
 20
89.27676030939276
 30
0.0
 40
1.515151515151515
  1
　２
 41
0.7615384615384615
  7
ＭＳ_ゴシック
 11
176.2500152587891
 21
88.99998474121094
 31
0.0
100
AcDbText
 73
     1
  0
TEXT
  5
20F
330
1F
100
AcDbEntity
  8
GR2_01
 62
     7
100
AcDbText
 10
172.2500152587891
 20
101.2767603093928
 30
0.0
 40
1.515151515151515
  1
ＣＯＭ　
 41
0.7615384615384615
  7
ＭＳ_ゴシック
 11
172.2500152587891
 21
100.9999847412109
 31
0.0
100
AcDbText
 73
     1
  0
TEXT
  5
210
330
1F
100
AcDbEntity
  8
GR2_01
 62
     7
100
AcDbText
 10
172.2500152587891
 20
98.77676030939276
 30
0.0
 40
1.515151515151515
  1
　１
 41
0.7615384615384615
  7
ＭＳ_ゴシック
 11
172.2500152587891
 21
98.49998474121094
 31
0.0
100
AcDbText
 73
     1
  0
TEXT
  5
211
330
1F
100
AcDbEntity
  8
GR2_01
 62
     7
100
AcDbText
 10
180.729427206203
 20
95.04794013500214
 30
0.0
 40
0.9090909452149363
  1
８４５３６６０６－００４
 50
90.0
 41
0.5923076586845607
  7
ＭＳ_ゴシック
 72
     1
 11
180.8954925537109
 21
99.24794006347656
 31
0.0
100
AcDbText
 73
     1
  0
HATCH
  5
212
330
1F
100
AcDbEntity
  8
GR2_01
 62
     7
100
AcDbHatch
 10
0.0
 20
0.0
 30
0.0
210
0.0
220
0.0
230
1.0
  2
_USER
 70
     0
 71
     0
 91
        1
 92
        0
 93
        4
 72
     1
 10
39.24999999999872
 20
94.49999999999964
 11
36.99999999999943
 21
94.49999999999964
 72
     1
 10
36.99999999999943
 20
94.49999999999964
 11
36.99999999999886
 21
84.99999999999945
 72
     1
 10
36.99999999999909
 20
84.99999999999942
 11
39.2499999999987
 21
84.99999999999945
 72
     1
 10
39.24999999999869
 20
84.99999999999947
 11
39.24999999999872
 21
94.49999999999964
 97
        0
 75
     0
 76
     0
 52
45.0
 41
0.3
 77
     0
 78
     1
 53
45.0
 43
0.0
 44
0.0
 45
-0.2121320343559642
 46
0.2121320343559643
 79
     0
 98
        0
  0
LINE
  5
213
330
1F
100
AcDbEntity
  8
GR4_01
 62
     7
100
AcDbLine
 10
36.99999999999967
 20
123.0000000000004
 30
0.0
 11
181.4999999999988
 21
123.0000000000004
 31
0.0
  0
LINE
  5
214
330
1F
100
AcDbEntity
  8
GR4_01
 62
     7
100
AcDbLine
 10
36.9999999999991
 20
104.0
 30
0.0
 11
181.4999999999995
 21
104.0
 31
0.0
  0
LINE
  5
215
330
1F
100
AcDbEntity
  8
GR4_01
 62
     7
100
AcDbLine
 10
181.4999999999985
 20
123.0000000000006
 30
0.0
 11
181.4999999999996
 21
104.0000000000002
 31
0.0
  0
LINE
  5
216
330
1F
100
AcDbEntity
  8
GR4_01
 62
     7
100
AcDbLine
 10
37.00000000000001
 20
123.0000000000006
 30
0.0
 11
36.99999999999887
 21
104.0000000000003
 31
0.0
  0
LINE
  5
217
330
1F
100
AcDbEntity
  8
GR4_01
 62
     7
100
AcDbLine
 10
39.2499999999987
 20
118.0000000000004
 30
0.0
 11
181.4999999999988
 21
118.0000000000004
 31
0.0
  0
LINE
  5
218
330
1F
100
AcDbEntity
  8
GR4_01
 62
     7
100
AcDbLine
 10
39.2499999999987
 20
123.0000000000004
 30
0.0
 11
39.2499999999987
 21
104.0
 31
0.0
  0
LINE
  5
219
330
1F
100
AcDbEntity
  8
GR4_01
 62
     7
100
AcDbLine
 10
43.19999999999872
 20
123.0000000000004
 30
0.0
 11
43.19999999999872
 21
104.0
 31
0.0
  0
LINE
  5
21A
330
1F
100
AcDbEntity
  8
GR4_01
 62
     7
100
AcDbLine
 10
47.14999999999871
 20
123.0000000000004
 30
0.0
 11
47.14999999999871
 21
104.0
 31
0.0
  0
TEXT
  5
21B
330
1F
100
AcDbEntity
  8
GR2_01
 62
     7
100
AcDbText
 10
39.72500228881836
 20
118.7075664173473
 30
0.0
 40
1.136363636363636
  1
２４Ｖ
 41
0.676923076923077
  7
ＭＳ_ゴシック
 11
39.72500228881836
 21
118.4999847412109
 31
0.0
100
AcDbText
 73
     1
  0
TEXT
  5
21C
330
1F
100
AcDbEntity
  8
GR2_01
 62
     7
100
AcDbText
 10
39.72500228881836
 20
120.4575664173473
 30
0.0
 40
1.136363636363636
  1
ＤＣ　
 41
0.676923076923077
  7
ＭＳ_ゴシック
 11
39.72500228881836
 21
120.2499847412109
 31
0.0
100
AcDbText
 73
     1
  0
TEXT
  5
21D
330
1F
100
AcDbEntity
  8
GR2_01
 62
     7
100
AcDbText
 10
38.61692223618738
 20
105.7999845743179
 30
0.0
 40
1.060606042544047
  1
ＦＡ－ＴＨ１６Ｘ４８Ｄ３１Ｌ
 50
90.0
 41
0.7978022286805858
  7
ＭＳ_ゴシック
 72
     1
 11
38.81066513061523
 21
113.4999847412109
 31
0.0
100
AcDbText
 73
     1
  0
TEXT
  5
21E
330
1F
100
AcDbEntity
  8
GR2_01
 62
     7
100
AcDbText
 10
48.1250114440918
 20
119.4318029230291
 30
0.0
 40
1.136363636363636
  1
Ｘ０
 41
0.676923076923077
  7
ＭＳ_ゴシック
 72
     1
 11
49.1250114440918
 21
119.9999847412109
 31
0.0
100
AcDbText
 73
     2
  0
TEXT
  5
21F
330
1F
100
AcDbEntity
  8
GR2_01
 62
     7
100
AcDbText
 10
44.17499923706055
 20
118.7075664173473
 30
0.0
 40
1.136363636363636
  1
０Ｖ
 41
0.676923076923077
  7
ＭＳ_ゴシック
 11
44.17499923706055
 21
118.4999847412109
 31
0.0
100
AcDbText
 73
     1
  0
TEXT
  5
220
330
1F
100
AcDbEntity
  8
GR2_01
 62
     7
100
AcDbText
 10
44.17499923706055
 20
120.4575664173473
 30
0.0
 40
1.136363636363636
  1
ＤＣ
 41
0.676923076923077
  7
ＭＳ_ゴシック
 11
44.17499923706055
 21
120.2499847412109
 31
0.0
100
AcDbText
 73
     1
  0
LINE
  5
221
330
1F
100
AcDbEntity
  8
GR4_01
 62
     7
100
AcDbLine
 10
51.09999999999869
 20
123.0000000000004
 30
0.0
 11
51.09999999999869
 21
104.0
 31
0.0
  0
TEXT
  5
222
330
1F
100
AcDbEntity
  8
GR2_01
 62
     7
100
AcDbText
 10
52.57500839233398
 20
118.7075664173473
 30
0.0
 40
1.136363636363636
  1
２
 41
0.676923076923077
  7
ＭＳ_ゴシック
 11
52.57500839233398
 21
118.4999847412109
 31
0.0
100
AcDbText
 73
     1
  0
TEXT
  5
223
330
1F
100
AcDbEntity
  8
GR2_01
 62
     7
100
AcDbText
 10
51.57500839233398
 20
120.4575664173473
 30
0.0
 40
1.136363636363636
  1
ＣＯＭ
 41
0.676923076923077
  7
ＭＳ_ゴシック
 11
51.57500839233398
 21
120.2499847412109
 31
0.0
100
AcDbText
 73
     1
  0
LINE
  5
224
330
1F
100
AcDbEntity
  8
GR4_01
 62
     7
100
AcDbLine
 10
55.04999999999868
 20
123.0000000000004
 30
0.0
 11
55.04999999999868
 21
104.0
 31
0.0
  0
TEXT
  5
225
330
1F
100
AcDbEntity
  8
GR2_01
 62
     7
100
AcDbText
 10
56.02500534057617
 20
119.4318029230291
 30
0.0
 40
1.136363636363636
  1
Ｘ１
 41
0.676923076923077
  7
ＭＳ_ゴシック
 72
     1
 11
57.02500534057617
 21
119.9999847412109
 31
0.0
100
AcDbText
 73
     2
  0
LINE
  5
226
330
1F
100
AcDbEntity
  8
GR4_01
 62
     7
100
AcDbLine
 10
58.9999999999987
 20
123.0000000000004
 30
0.0
 11
58.9999999999987
 21
104.0
 31
0.0
  0
TEXT
  5
227
330
1F
100
AcDbEntity
  8
GR2_01
 62
     7
100
AcDbText
 10
60.47500228881836
 20
118.7075664173473
 30
0.0
 40
1.136363636363636
  1
２
 41
0.676923076923077
  7
ＭＳ_ゴシック
 11
60.47500228881836
 21
118.4999847412109
 31
0.0
100
AcDbText
 73
     1
  0
TEXT
  5
228
330
1F
100
AcDbEntity
  8
GR2_01
 62
     7
100
AcDbText
 10
59.47500228881836
 20
120.4575664173473
 30
0.0
 40
1.136363636363636
  1
ＣＯＭ
 41
0.676923076923077
  7
ＭＳ_ゴシック
 11
59.47500228881836
 21
120.2499847412109
 31
0.0
100
AcDbText
 73
     1
  0
LINE
  5
229
330
1F
100
AcDbEntity
  8
GR4_01
 62
     7
100
AcDbLine
 10
62.94999999999869
 20
123.0000000000004
 30
0.0
 11
62.94999999999869
 21
104.0
 31
0.0
  0
TEXT
  5
22A
330
1F
100
AcDbEntity
  8
GR2_01
 62
     7
100
AcDbText
 10
63.92501831054688
 20
119.4318029230291
 30
0.0
 40
1.136363636363636
  1
Ｘ２
 41
0.676923076923077
  7
ＭＳ_ゴシック
 72
     1
 11
64.92501831054688
 21
119.9999847412109
 31
0.0
100
AcDbText
 73
     2
  0
LINE
  5
22B
330
1F
100
AcDbEntity
  8
GR4_01
 62
     7
100
AcDbLine
 10
66.8999999999987
 20
123.0000000000004
 30
0.0
 11
66.8999999999987
 21
104.0
 31
0.0
  0
TEXT
  5
22C
330
1F
100
AcDbEntity
  8
GR2_01
 62
     7
100
AcDbText
 10
68.37501525878906
 20
118.7075664173473
 30
0.0
 40
1.136363636363636
  1
２
 41
0.676923076923077
  7
ＭＳ_ゴシック
 11
68.37501525878906
 21
118.4999847412109
 31
0.0
100
AcDbText
 73
     1
  0
TEXT
  5
22D
330
1F
100
AcDbEntity
  8
GR2_01
 62
     7
100
AcDbText
 10
67.37501525878906
 20
120.4575664173473
 30
0.0
 40
1.136363636363636
  1
ＣＯＭ
 41
0.676923076923077
  7
ＭＳ_ゴシック
 11
67.37501525878906
 21
120.2499847412109
 31
0.0
100
AcDbText
 73
     1
  0
LINE
  5
22E
330
1F
100
AcDbEntity
  8
GR4_01
 62
     7
100
AcDbLine
 10
70.84999999999869
 20
123.0000000000004
 30
0.0
 11
70.84999999999869
 21
104.0
 31
0.0
  0
TEXT
  5
22F
330
1F
100
AcDbEntity
  8
GR2_01
 62
     7
100
AcDbText
 10
71.82501220703125
 20
119.4318029230291
 30
0.0
 40
1.136363636363636
  1
Ｘ３
 41
0.676923076923077
  7
ＭＳ_ゴシック
 72
     1
 11
72.82501220703125
 21
119.9999847412109
 31
0.0
100
AcDbText
 73
     2
  0
LINE
  5
230
330
1F
100
AcDbEntity
  8
GR4_01
 62
     7
100
AcDbLine
 10
74.79999999999868
 20
123.0000000000004
 30
0.0
 11
74.79999999999868
 21
104.0
 31
0.0
  0
TEXT
  5
231
330
1F
100
AcDbEntity
  8
GR2_01
 62
     7
100
AcDbText
 10
76.27500915527344
 20
118.7075664173473
 30
0.0
 40
1.136363636363636
  1
２
 41
0.676923076923077
  7
ＭＳ_ゴシック
 11
76.27500915527344
 21
118.4999847412109
 31
0.0
100
AcDbText
 73
     1
  0
TEXT
  5
232
330
1F
100
AcDbEntity
  8
GR2_01
 62
     7
100
AcDbText
 10
75.27500915527344
 20
120.4575664173473
 30
0.0
 40
1.136363636363636
  1
ＣＯＭ
 41
0.676923076923077
  7
ＭＳ_ゴシック
 11
75.27500915527344
 21
120.2499847412109
 31
0.0
100
AcDbText
 73
     1
  0
LINE
  5
233
330
1F
100
AcDbEntity
  8
GR4_01
 62
     7
100
AcDbLine
 10
78.74999999999866
 20
123.0000000000004
 30
0.0
 11
78.74999999999866
 21
104.0
 31
0.0
  0
TEXT
  5
234
330
1F
100
AcDbEntity
  8
GR2_01
 62
     7
100
AcDbText
 10
79.72500610351562
 20
119.4318029230291
 30
0.0
 40
1.136363636363636
  1
Ｘ４
 41
0.676923076923077
  7
ＭＳ_ゴシック
 72
     1
 11
80.72500610351562
 21
119.9999847412109
 31
0.0
100
AcDbText
 73
     2
  0
LINE
  5
235
330
1F
100
AcDbEntity
  8
GR4_01
 62
     7
100
AcDbLine
 10
82.69999999999865
 20
123.0000000000004
 30
0.0
 11
82.69999999999865
 21
104.0
 31
0.0
  0
TEXT
  5
236
330
1F
100
AcDbEntity
  8
GR2_01
 62
     7
100
AcDbText
 10
84.17500305175781
 20
118.7075664173473
 30
0.0
 40
1.136363636363636
  1
２
 41
0.676923076923077
  7
ＭＳ_ゴシック
 11
84.17500305175781
 21
118.4999847412109
 31
0.0
100
AcDbText
 73
     1
  0
TEXT
  5
237
330
1F
100
AcDbEntity
  8
GR2_01
 62
     7
100
AcDbText
 10
83.17500305175781
 20
120.4575664173473
 30
0.0
 40
1.136363636363636
  1
ＣＯＭ
 41
0.676923076923077
  7
ＭＳ_ゴシック
 11
83.17500305175781
 21
120.2499847412109
 31
0.0
100
AcDbText
 73
     1
  0
LINE
  5
238
330
1F
100
AcDbEntity
  8
GR4_01
 62
     7
100
AcDbLine
 10
86.64999999999864
 20
123.0000000000004
 30
0.0
 11
86.64999999999864
 21
104.0
 31
0.0
  0
TEXT
  5
239
330
1F
100
AcDbEntity
  8
GR2_01
 62
     7
100
AcDbText
 10
87.62501525878906
 20
119.4318029230291
 30
0.0
 40
1.136363636363636
  1
Ｘ５
 41
0.676923076923077
  7
ＭＳ_ゴシック
 72
     1
 11
88.62501525878906
 21
119.9999847412109
 31
0.0
100
AcDbText
 73
     2
  0
LINE
  5
23A
330
1F
100
AcDbEntity
  8
GR4_01
 62
     7
100
AcDbLine
 10
90.59999999999866
 20
123.0000000000004
 30
0.0
 11
90.59999999999866
 21
104.0
 31
0.0
  0
TEXT
  5
23B
330
1F
100
AcDbEntity
  8
GR2_01
 62
     7
100
AcDbText
 10
92.07501220703125
 20
118.7075664173473
 30
0.0
 40
1.136363636363636
  1
２
 41
0.676923076923077
  7
ＭＳ_ゴシック
 11
92.07501220703125
 21
118.4999847412109
 31
0.0
100
AcDbText
 73
     1
  0
TEXT
  5
23C
330
1F
100
AcDbEntity
  8
GR2_01
 62
     7
100
AcDbText
 10
91.07501220703125
 20
120.4575664173473
 30
0.0
 40
1.136363636363636
  1
ＣＯＭ
 41
0.676923076923077
  7
ＭＳ_ゴシック
 11
91.07501220703125
 21
120.2499847412109
 31
0.0
100
AcDbText
 73
     1
  0
LINE
  5
23D
330
1F
100
AcDbEntity
  8
GR4_01
 62
     7
100
AcDbLine
 10
94.54999999999865
 20
123.0000000000004
 30
0.0
 11
94.54999999999865
 21
104.0
 31
0.0
  0
TEXT
  5
23E
330
1F
100
AcDbEntity
  8
GR2_01
 62
     7
100
AcDbText
 10
95.52500915527344
 20
119.4318029230291
 30
0.0
 40
1.136363636363636
  1
Ｘ６
 41
0.676923076923077
  7
ＭＳ_ゴシック
 72
     1
 11
96.52500915527344
 21
119.9999847412109
 31
0.0
100
AcDbText
 73
     2
  0
LINE
  5
23F
330
1F
100
AcDbEntity
  8
GR4_01
 62
     7
100
AcDbLine
 10
98.49999999999866
 20
123.0000000000004
 30
0.0
 11
98.49999999999866
 21
104.0
 31
0.0
  0
TEXT
  5
240
330
1F
100
AcDbEntity
  8
GR2_01
 62
     7
100
AcDbText
 10
99.97500610351562
 20
118.7075664173473
 30
0.0
 40
1.136363636363636
  1
２
 41
0.676923076923077
  7
ＭＳ_ゴシック
 11
99.97500610351562
 21
118.4999847412109
 31
0.0
100
AcDbText
 73
     1
  0
TEXT
  5
241
330
1F
100
AcDbEntity
  8
GR2_01
 62
     7
100
AcDbText
 10
98.97500610351562
 20
120.4575664173473
 30
0.0
 40
1.136363636363636
  1
ＣＯＭ
 41
0.676923076923077
  7
ＭＳ_ゴシック
 11
98.97500610351562
 21
120.2499847412109
 31
0.0
100
AcDbText
 73
     1
  0
LINE
  5
242
330
1F
100
AcDbEntity
  8
GR4_01
 62
     7
100
AcDbLine
 10
102.4499999999987
 20
123.0000000000004
 30
0.0
 11
102.4499999999987
 21
104.0
 31
0.0
  0
TEXT
  5
243
330
1F
100
AcDbEntity
  8
GR2_01
 62
     7
100
AcDbText
 10
103.4250183105469
 20
119.4318029230291
 30
0.0
 40
1.136363636363636
  1
Ｘ７
 41
0.676923076923077
  7
ＭＳ_ゴシック
 72
     1
 11
104.4250183105469
 21
119.9999847412109
 31
0.0
100
AcDbText
 73
     2
  0
LINE
  5
244
330
1F
100
AcDbEntity
  8
GR4_01
 62
     7
100
AcDbLine
 10
106.3999999999986
 20
123.0000000000004
 30
0.0
 11
106.3999999999986
 21
104.0
 31
0.0
  0
TEXT
  5
245
330
1F
100
AcDbEntity
  8
GR2_01
 62
     7
100
AcDbText
 10
107.8750152587891
 20
118.7075664173473
 30
0.0
 40
1.136363636363636
  1
２
 41
0.676923076923077
  7
ＭＳ_ゴシック
 11
107.8750152587891
 21
118.4999847412109
 31
0.0
100
AcDbText
 73
     1
  0
TEXT
  5
246
330
1F
100
AcDbEntity
  8
GR2_01
 62
     7
100
AcDbText
 10
106.8750152587891
 20
120.4575664173473
 30
0.0
 40
1.136363636363636
  1
ＣＯＭ
 41
0.676923076923077
  7
ＭＳ_ゴシック
 11
106.8750152587891
 21
120.2499847412109
 31
0.0
100
AcDbText
 73
     1
  0
LINE
  5
247
330
1F
100
AcDbEntity
  8
GR4_01
 62
     7
100
AcDbLine
 10
110.3499999999986
 20
123.0000000000004
 30
0.0
 11
110.3499999999986
 21
104.0
 31
0.0
  0
TEXT
  5
248
330
1F
100
AcDbEntity
  8
GR2_01
 62
     7
100
AcDbText
 10
111.3250122070312
 20
119.4318029230291
 30
0.0
 40
1.136363636363636
  1
Ｘ８
 41
0.676923076923077
  7
ＭＳ_ゴシック
 72
     1
 11
112.3250122070312
 21
119.9999847412109
 31
0.0
100
AcDbText
 73
     2
  0
LINE
  5
249
330
1F
100
AcDbEntity
  8
GR4_01
 62
     7
100
AcDbLine
 10
114.2999999999986
 20
123.0000000000004
 30
0.0
 11
114.2999999999986
 21
104.0
 31
0.0
  0
TEXT
  5
24A
330
1F
100
AcDbEntity
  8
GR2_01
 62
     7
100
AcDbText
 10
115.7750091552734
 20
118.7075664173473
 30
0.0
 40
1.136363636363636
  1
２
 41
0.676923076923077
  7
ＭＳ_ゴシック
 11
115.7750091552734
 21
118.4999847412109
 31
0.0
100
AcDbText
 73
     1
  0
TEXT
  5
24B
330
1F
100
AcDbEntity
  8
GR2_01
 62
     7
100
AcDbText
 10
114.7750091552734
 20
120.4575664173473
 30
0.0
 40
1.136363636363636
  1
ＣＯＭ
 41
0.676923076923077
  7
ＭＳ_ゴシック
 11
114.7750091552734
 21
120.2499847412109
 31
0.0
100
AcDbText
 73
     1
  0
LINE
  5
24C
330
1F
100
AcDbEntity
  8
GR4_01
 62
     7
100
AcDbLine
 10
118.2499999999986
 20
123.0000000000004
 30
0.0
 11
118.2499999999986
 21
104.0
 31
0.0
  0
TEXT
  5
24D
330
1F
100
AcDbEntity
  8
GR2_01
 62
     7
100
AcDbText
 10
119.2250213623047
 20
119.4318029230291
 30
0.0
 40
1.136363636363636
  1
Ｘ９
 41
0.676923076923077
  7
ＭＳ_ゴシック
 72
     1
 11
120.2250213623047
 21
119.9999847412109
 31
0.0
100
AcDbText
 73
     2
  0
LINE
  5
24E
330
1F
100
AcDbEntity
  8
GR4_01
 62
     7
100
AcDbLine
 10
122.1999999999987
 20
123.0000000000004
 30
0.0
 11
122.1999999999987
 21
104.0
 31
0.0
  0
TEXT
  5
24F
330
1F
100
AcDbEntity
  8
GR2_01
 62
     7
100
AcDbText
 10
123.6750183105469
 20
118.7075664173473
 30
0.0
 40
1.136363636363636
  1
２
 41
0.676923076923077
  7
ＭＳ_ゴシック
 11
123.6750183105469
 21
118.4999847412109
 31
0.0
100
AcDbText
 73
     1
  0
TEXT
  5
250
330
1F
100
AcDbEntity
  8
GR2_01
 62
     7
100
AcDbText
 10
122.6750183105469
 20
120.4575664173473
 30
0.0
 40
1.136363636363636
  1
ＣＯＭ
 41
0.676923076923077
  7
ＭＳ_ゴシック
 11
122.6750183105469
 21
120.2499847412109
 31
0.0
100
AcDbText
 73
     1
  0
LINE
  5
251
330
1F
100
AcDbEntity
  8
GR4_01
 62
     7
100
AcDbLine
 10
126.1499999999986
 20
123.0000000000004
 30
0.0
 11
126.1499999999986
 21
104.0
 31
0.0
  0
TEXT
  5
252
330
1F
100
AcDbEntity
  8
GR2_01
 62
     7
100
AcDbText
 10
127.1250152587891
 20
119.4318029230291
 30
0.0
 40
1.136363636363636
  1
ＸＡ
 41
0.676923076923077
  7
ＭＳ_ゴシック
 72
     1
 11
128.1250152587891
 21
119.9999847412109
 31
0.0
100
AcDbText
 73
     2
  0
LINE
  5
253
330
1F
100
AcDbEntity
  8
GR4_01
 62
     7
100
AcDbLine
 10
130.0999999999986
 20
123.0000000000004
 30
0.0
 11
130.0999999999986
 21
104.0
 31
0.0
  0
TEXT
  5
254
330
1F
100
AcDbEntity
  8
GR2_01
 62
     7
100
AcDbText
 10
131.5750122070312
 20
118.7075664173473
 30
0.0
 40
1.136363636363636
  1
２
 41
0.676923076923077
  7
ＭＳ_ゴシック
 11
131.5750122070312
 21
118.4999847412109
 31
0.0
100
AcDbText
 73
     1
  0
TEXT
  5
255
330
1F
100
AcDbEntity
  8
GR2_01
 62
     7
100
AcDbText
 10
130.5750122070312
 20
120.4575664173473
 30
0.0
 40
1.136363636363636
  1
ＣＯＭ
 41
0.676923076923077
  7
ＭＳ_ゴシック
 11
130.5750122070312
 21
120.2499847412109
 31
0.0
100
AcDbText
 73
     1
  0
LINE
  5
256
330
1F
100
AcDbEntity
  8
GR4_01
 62
     7
100
AcDbLine
 10
134.0499999999986
 20
123.0000000000004
 30
0.0
 11
134.0499999999986
 21
104.0
 31
0.0
  0
TEXT
  5
257
330
1F
100
AcDbEntity
  8
GR2_01
 62
     7
100
AcDbText
 10
135.0250091552734
 20
119.4318029230291
 30
0.0
 40
1.136363636363636
  1
ＸＢ
 41
0.676923076923077
  7
ＭＳ_ゴシック
 72
     1
 11
136.0250091552734
 21
119.9999847412109
 31
0.0
100
AcDbText
 73
     2
  0
LINE
  5
258
330
1F
100
AcDbEntity
  8
GR4_01
 62
     7
100
AcDbLine
 10
137.9999999999986
 20
123.0000000000004
 30
0.0
 11
137.9999999999986
 21
104.0
 31
0.0
  0
TEXT
  5
259
330
1F
100
AcDbEntity
  8
GR2_01
 62
     7
100
AcDbText
 10
139.4750061035156
 20
118.7075664173473
 30
0.0
 40
1.136363636363636
  1
２
 41
0.676923076923077
  7
ＭＳ_ゴシック
 11
139.4750061035156
 21
118.4999847412109
 31
0.0
100
AcDbText
 73
     1
  0
TEXT
  5
25A
330
1F
100
AcDbEntity
  8
GR2_01
 62
     7
100
AcDbText
 10
138.4750061035156
 20
120.4575664173473
 30
0.0
 40
1.136363636363636
  1
ＣＯＭ
 41
0.676923076923077
  7
ＭＳ_ゴシック
 11
138.4750061035156
 21
120.2499847412109
 31
0.0
100
AcDbText
 73
     1
  0
LINE
  5
25B
330
1F
100
AcDbEntity
  8
GR4_01
 62
     7
100
AcDbLine
 10
141.9499999999986
 20
123.0000000000004
 30
0.0
 11
141.9499999999986
 21
104.0
 31
0.0
  0
TEXT
  5
25C
330
1F
100
AcDbEntity
  8
GR2_01
 62
     7
100
AcDbText
 10
142.9250183105469
 20
119.4318029230291
 30
0.0
 40
1.136363636363636
  1
ＸＣ
 41
0.676923076923077
  7
ＭＳ_ゴシック
 72
     1
 11
143.9250183105469
 21
119.9999847412109
 31
0.0
100
AcDbText
 73
     2
  0
LINE
  5
25D
330
1F
100
AcDbEntity
  8
GR4_01
 62
     7
100
AcDbLine
 10
145.8999999999986
 20
123.0000000000004
 30
0.0
 11
145.8999999999986
 21
104.0
 31
0.0
  0
TEXT
  5
25E
330
1F
100
AcDbEntity
  8
GR2_01
 62
     7
100
AcDbText
 10
147.3750152587891
 20
118.7075664173473
 30
0.0
 40
1.136363636363636
  1
２
 41
0.676923076923077
  7
ＭＳ_ゴシック
 11
147.3750152587891
 21
118.4999847412109
 31
0.0
100
AcDbText
 73
     1
  0
TEXT
  5
25F
330
1F
100
AcDbEntity
  8
GR2_01
 62
     7
100
AcDbText
 10
146.3750152587891
 20
120.4575664173473
 30
0.0
 40
1.136363636363636
  1
ＣＯＭ
 41
0.676923076923077
  7
ＭＳ_ゴシック
 11
146.3750152587891
 21
120.2499847412109
 31
0.0
100
AcDbText
 73
     1
  0
LINE
  5
260
330
1F
100
AcDbEntity
  8
GR4_01
 62
     7
100
AcDbLine
 10
149.8499999999986
 20
123.0000000000004
 30
0.0
 11
149.8499999999986
 21
104.0
 31
0.0
  0
TEXT
  5
261
330
1F
100
AcDbEntity
  8
GR2_01
 62
     7
100
AcDbText
 10
150.8249969482422
 20
119.4318029230291
 30
0.0
 40
1.136363636363636
  1
ＸＤ
 41
0.676923076923077
  7
ＭＳ_ゴシック
 72
     1
 11
151.8249969482422
 21
119.9999847412109
 31
0.0
100
AcDbText
 73
     2
  0
LINE
  5
262
330
1F
100
AcDbEntity
  8
GR4_01
 62
     7
100
AcDbLine
 10
153.7999999999986
 20
123.0000000000004
 30
0.0
 11
153.7999999999986
 21
104.0
 31
0.0
  0
TEXT
  5
263
330
1F
100
AcDbEntity
  8
GR2_01
 62
     7
100
AcDbText
 10
155.2750091552734
 20
118.7075664173473
 30
0.0
 40
1.136363636363636
  1
２
 41
0.676923076923077
  7
ＭＳ_ゴシック
 11
155.2750091552734
 21
118.4999847412109
 31
0.0
100
AcDbText
 73
     1
  0
TEXT
  5
264
330
1F
100
AcDbEntity
  8
GR2_01
 62
     7
100
AcDbText
 10
154.2750091552734
 20
120.4575664173473
 30
0.0
 40
1.136363636363636
  1
ＣＯＭ
 41
0.676923076923077
  7
ＭＳ_ゴシック
 11
154.2750091552734
 21
120.2499847412109
 31
0.0
100
AcDbText
 73
     1
  0
LINE
  5
265
330
1F
100
AcDbEntity
  8
GR4_01
 62
     7
100
AcDbLine
 10
157.7499999999986
 20
123.0000000000004
 30
0.0
 11
157.7499999999986
 21
104.0
 31
0.0
  0
TEXT
  5
266
330
1F
100
AcDbEntity
  8
GR2_01
 62
     7
100
AcDbText
 10
158.7250213623047
 20
119.4318029230291
 30
0.0
 40
1.136363636363636
  1
ＸＥ
 41
0.676923076923077
  7
ＭＳ_ゴシック
 72
     1
 11
159.7250213623047
 21
119.9999847412109
 31
0.0
100
AcDbText
 73
     2
  0
LINE
  5
267
330
1F
100
AcDbEntity
  8
GR4_01
 62
     7
100
AcDbLine
 10
161.6999999999986
 20
123.0000000000004
 30
0.0
 11
161.6999999999986
 21
104.0
 31
0.0
  0
TEXT
  5
268
330
1F
100
AcDbEntity
  8
GR2_01
 62
     7
100
AcDbText
 10
163.1750030517578
 20
118.7075664173473
 30
0.0
 40
1.136363636363636
  1
２
 41
0.676923076923077
  7
ＭＳ_ゴシック
 11
163.1750030517578
 21
118.4999847412109
 31
0.0
100
AcDbText
 73
     1
  0
TEXT
  5
269
330
1F
100
AcDbEntity
  8
GR2_01
 62
     7
100
AcDbText
 10
162.1750030517578
 20
120.4575664173473
 30
0.0
 40
1.136363636363636
  1
ＣＯＭ
 41
0.676923076923077
  7
ＭＳ_ゴシック
 11
162.1750030517578
 21
120.2499847412109
 31
0.0
100
AcDbText
 73
     1
  0
LINE
  5
26A
330
1F
100
AcDbEntity
  8
GR4_01
 62
     7
100
AcDbLine
 10
165.6499999999986
 20
123.0000000000004
 30
0.0
 11
165.6499999999986
 21
104.0
 31
0.0
  0
TEXT
  5
26B
330
1F
100
AcDbEntity
  8
GR2_01
 62
     7
100
AcDbText
 10
166.6250152587891
 20
119.4318029230291
 30
0.0
 40
1.136363636363636
  1
ＸＦ
 41
0.676923076923077
  7
ＭＳ_ゴシック
 72
     1
 11
167.6250152587891
 21
119.9999847412109
 31
0.0
100
AcDbText
 73
     2
  0
LINE
  5
26C
330
1F
100
AcDbEntity
  8
GR4_01
 62
     7
100
AcDbLine
 10
169.5999999999986
 20
123.0000000000004
 30
0.0
 11
169.5999999999986
 21
104.0
 31
0.0
  0
TEXT
  5
26D
330
1F
100
AcDbEntity
  8
GR2_01
 62
     7
100
AcDbText
 10
171.0749969482422
 20
118.7075664173473
 30
0.0
 40
1.136363636363636
  1
２
 41
0.676923076923077
  7
ＭＳ_ゴシック
 11
171.0749969482422
 21
118.4999847412109
 31
0.0
100
AcDbText
 73
     1
  0
TEXT
  5
26E
330
1F
100
AcDbEntity
  8
GR2_01
 62
     7
100
AcDbText
 10
170.0749969482422
 20
120.4575664173473
 30
0.0
 40
1.136363636363636
  1
ＣＯＭ
 41
0.676923076923077
  7
ＭＳ_ゴシック
 11
170.0749969482422
 21
120.2499847412109
 31
0.0
100
AcDbText
 73
     1
  0
LINE
  5
26F
330
1F
100
AcDbEntity
  8
GR4_01
 62
     7
100
AcDbLine
 10
173.5499999999985
 20
123.0000000000004
 30
0.0
 11
173.5499999999985
 21
104.0
 31
0.0
  0
LINE
  5
270
330
1F
100
AcDbEntity
  8
GR4_01
 62
     7
100
AcDbLine
 10
177.4999999999986
 20
123.0000000000004
 30
0.0
 11
177.4999999999986
 21
104.0
 31
0.0
  0
TEXT
  5
271
330
1F
100
AcDbEntity
  8
GR2_01
 62
     7
100
AcDbText
 10
178.9749908447266
 20
118.7075664173473
 30
0.0
 40
1.136363636363636
  1
２
 41
0.676923076923077
  7
ＭＳ_ゴシック
 11
178.9749908447266
 21
118.4999847412109
 31
0.0
100
AcDbText
 73
     1
  0
TEXT
  5
272
330
1F
100
AcDbEntity
  8
GR2_01
 62
     7
100
AcDbText
 10
177.9749908447266
 20
120.4575664173473
 30
0.0
 40
1.136363636363636
  1
ＣＯＭ
 41
0.676923076923077
  7
ＭＳ_ゴシック
 11
177.9749908447266
 21
120.2499847412109
 31
0.0
100
AcDbText
 73
     1
  0
TEXT
  5
273
330
1F
100
AcDbEntity
  8
GR2_01
 62
     7
100
AcDbText
 10
175.0250091552734
 20
118.7075664173473
 30
0.0
 40
1.136363636363636
  1
１
 41
0.676923076923077
  7
ＭＳ_ゴシック
 11
175.0250091552734
 21
118.4999847412109
 31
0.0
100
AcDbText
 73
     1
  0
TEXT
  5
274
330
1F
100
AcDbEntity
  8
GR2_01
 62
     7
100
AcDbText
 10
174.0250091552734
 20
120.4575664173473
 30
0.0
 40
1.136363636363636
  1
ＣＯＭ
 41
0.676923076923077
  7
ＭＳ_ゴシック
 11
174.0250091552734
 21
120.2499847412109
 31
0.0
100
AcDbText
 73
     1
  0
ENDSEC
  0
SECTION
  2
OBJECTS
  0
DICTIONARY
  5
C
330
0
100
AcDbDictionary
  3
ACAD_GROUP
350
D
  3
ACAD_LAYOUT
350
1A
  3
ACAD_MATERIAL
350
43
  3
ACAD_MLEADERSTYLE
350
6B
  3
ACAD_MLINESTYLE
350
17
  3
ACAD_PLOTSETTINGS
350
19
  3
ACAD_SCALELIST
350
47
  3
ACAD_VISUALSTYLE
350
2A
  3
ACDBHEADERROUNDTRIPXREC
350
275
  3
ACDBVARIABLEDICTIONARY
350
296
  0
DICTIONARY
  5
29F
330
8
100
AcDbDictionary
280
     1
  3
ACAD_XREC_ROUNDTRIP
360
2A0
  0
DICTIONARY
  5
D
102
{ACAD_REACTORS
330
C
102
}
330
C
100
AcDbDictionary
  0
DICTIONARY
  5
1A
102
{ACAD_REACTORS
330
C
102
}
330
C
100
AcDbDictionary
  0
DICTIONARY
  5
43
102
{ACAD_REACTORS
330
C
102
}
330
C
100
AcDbDictionary
  3
BYBLOCK
350
45
  3
BYLAYER
350
44
  3
GLOBAL
350
46
  0
DICTIONARY
  5
6B
102
{ACAD_REACTORS
330
C
102
}
330
C
100
AcDbDictionary
  3
STANDARD
350
6C
  0
DICTIONARY
  5
17
102
{ACAD_REACTORS
330
C
102
}
330
C
100
AcDbDictionary
  3
STANDARD
350
18
  0
DICTIONARY
  5
19
102
{ACAD_REACTORS
330
C
102
}
330
C
100
AcDbDictionary
  0
DICTIONARY
  5
47
102
{ACAD_REACTORS
330
C
102
}
330
C
100
AcDbDictionary
  3
A0
350
48
  3
A1
350
49
  3
A2
350
4A
  3
A3
350
4B
  3
A4
350
4C
  3
A5
350
4D
  3
A6
350
4E
  3
A7
350
4F
  3
A8
350
50
  3
A9
350
51
  3
B0
350
52
  3
B1
350
53
  3
B2
350
54
  3
B3
350
55
  3
B4
350
56
  3
B5
350
57
  3
B6
350
58
  3
B7
350
59
  3
B8
350
5A
  3
B9
350
5B
  3
C0
350
5C
  3
C1
350
5D
  3
C2
350
5E
  3
C3
350
5F
  3
C4
350
60
  3
C5
350
61
  3
C6
350
62
  3
C7
350
63
  3
C8
350
64
  3
C9
350
65
  3
D0
350
66
  3
D1
350
67
  3
D2
350
68
  0
DICTIONARY
  5
2A
102
{ACAD_REACTORS
330
C
102
}
330
C
100
AcDbDictionary
  3
2DWIREFRAME
350
2F
  3
BASIC
350
32
  3
BRIGHTEN
350
36
  3
COLORCHANGE
350
3A
  3
CONCEPTUAL
350
34
  3
DIM
350
35
  3
EDGECOLOROFF
350
3D
  3
FACEPATTERN
350
39
  3
FLAT
350
2B
  3
FLATWITHEDGES
350
2C
  3
GOURAUD
350
2D
  3
GOURAUDWITHEDGES
350
2E
  3
HIDDEN
350
31
  3
JITTEROFF
350
3B
  3
LINEPATTERN
350
38
  3
OVERHANGOFF
350
3C
  3
REALISTIC
350
33
  3
SHADED
350
42
  3
SHADED_WITH_EDGES
350
41
  3
SHADES_OF_GRAY
350
3E
  3
SKETCHY
350
3F
  3
THICKEN
350
37
  3
WIREFRAME
350
30
  3
X-RAY
350
40
  0
DICTIONARY
  5
275
102
{ACAD_REACTORS
330
C
102
}
330
C
100
AcDbDictionary
  3
CEPSNID
350
27F
  3
CEPSNTYPE
350
27E
  3
DIMSTYLEDATA
350
295
  3
FINGERPRINTGUID
350
280
  3
HYPERLINKBASE
350
278
  3
INSUNITS
350
27D
  3
LAYOUTDICT
350
27A
  3
LWETCUNION
350
27C
  3
PLOTSETDICT
350
27B
  3
PSVPSCALE
350
282
  3
PUCSBASE
350
285
  3
PUCSORGBACK
350
28B
  3
PUCSORGBOTTOM
350
287
  3
PUCSORGFRONT
350
28A
  3
PUCSORGLEFT
350
288
  3
PUCSORGRIGHT
350
289
  3
PUCSORGTOP
350
286
  3
PUCSORTHOREF
350
283
  3
PUCSORTHOVIEW
350
284
  3
STYLESHEET
350
279
  3
TSTACKALIGN
350
276
  3
TSTACKSIZE
350
277
  3
UCSBASE
350
28E
  3
UCSORGBACK
350
294
  3
UCSORGBOTTOM
350
290
  3
UCSORGFRONT
350
293
  3
UCSORGLEFT
350
291
  3
UCSORGRIGHT
350
292
  3
UCSORGTOP
350
28F
  3
UCSORTHOREF
350
28C
  3
UCSORTHOVIEW
350
28D
  3
VERSIONGUID
350
281
  0
DICTIONARY
  5
296
102
{ACAD_REACTORS
330
C
102
}
330
C
100
AcDbDictionary
  3
CANNOSCALE
350
2A1
  3
CMLEADERSTYLE
350
298
  3
CTABLESTYLE
350
297
  3
DIMASSOC
350
29D
  3
HIDETEXT
350
29E
  3
MSLTSCALE
350
2A2
  3
PSOLHEIGHT
350
29A
  3
PSOLWIDTH
350
299
  0
XRECORD
  5
2A0
102
{ACAD_REACTORS
330
29F
102
}
330
29F
100
AcDbXrecord
102
VTR_0.000_0.000_1.000_1.000_GRIDDISPLAY
 70
     3
102
VTR_0.000_0.000_1.000_1.000_GRIDMAJOR
 70
     5
102
VTR_0.000_0.000_1.000_1.000_DEFAULTLIGHTING
280
     1
102
VTR_0.000_0.000_1.000_1.000_DEFAULTLIGHTINGTYPE
 70
     1
102
VTR_0.000_0.000_1.000_1.000_BRIGHTNESS
141
0.0
102
VTR_0.000_0.000_1.000_1.000_CONTRAST
142
0.0
  0
MATERIAL
  5
45
102
{ACAD_REACTORS
330
43
102
}
102
{ACAD_XDICTIONARY
360
2A5
102
}
330
43
100
AcDbMaterial
  1
BYBLOCK
  0
MATERIAL
  5
44
102
{ACAD_REACTORS
330
43
102
}
102
{ACAD_XDICTIONARY
360
2A3
102
}
330
43
100
AcDbMaterial
  1
BYLAYER
  0
MATERIAL
  5
46
102
{ACAD_REACTORS
330
43
102
}
102
{ACAD_XDICTIONARY
360
2A7
102
}
330
43
100
AcDbMaterial
  1
GLOBAL
  0
ACAD_PROXY_OBJECT
  5
6C
102
{ACAD_REACTORS
330
6B
102
}
330
6B
100
AcDbProxyObject
 90
      499
 91
      505
 93
      610
310
40901902A4063FBFFFFFE0000000000000020400000000000020404214DD185B99185C990000000000000104090141901A00000000000004100000000000000041025764000000000000039000
340
14
340
0
340
11
340
0
 94
        0
1001
ACAD_MLEADERVER
1070
     2
  0
MLINESTYLE
  5
18
102
{ACAD_REACTORS
330
17
102
}
330
17
100
AcDbMlineStyle
  2
Standard
 70
     0
  3

 62
   256
 51
90.0
 52
90.0
 71
     2
 49
0.5
 62
   256
  6
BYLAYER
 49
-0.5
 62
   256
  6
BYLAYER
  0
ACAD_PROXY_OBJECT
  5
48
102
{ACAD_REACTORS
330
47
102
}
330
47
100
AcDbProxyObject
 90
      499
 91
      503
 93
       41
310
903313A31580
  0
ACAD_PROXY_OBJECT
  5
49
102
{ACAD_REACTORS
330
47
102
}
330
47
100
AcDbProxyObject
 90
      499
 91
      503
 93
      105
310
903313A324000000000000004000
  0
ACAD_PROXY_OBJECT
  5
4A
102
{ACAD_REACTORS
330
47
102
}
330
47
100
AcDbProxyObject
 90
      499
 91
      503
 93
      105
310
903313A344000000000000104000
  0
ACAD_PROXY_OBJECT
  5
4B
102
{ACAD_REACTORS
330
47
102
}
330
47
100
AcDbProxyObject
 90
      499
 91
      503
 93
      105
310
903313A354000000000000144000
  0
ACAD_PROXY_OBJECT
  5
4C
102
{ACAD_REACTORS
330
47
102
}
330
47
100
AcDbProxyObject
 90
      499
 91
      503
 93
      105
310
903313A384000000000000204000
  0
ACAD_PROXY_OBJECT
  5
4D
102
{ACAD_REACTORS
330
47
102
}
330
47
100
AcDbProxyObject
 90
      499
 91
      503
 93
      113
310
904313A31304000000000000244000
  0
ACAD_PROXY_OBJECT
  5
4E
102
{ACAD_REACTORS
330
47
102
}
330
47
100
AcDbProxyObject
 90
      499
 91
      503
 93
      113
310
904313A31364000000000000304000
  0
ACAD_PROXY_OBJECT
  5
4F
102
{ACAD_REACTORS
330
47
102
}
330
47
100
AcDbProxyObject
 90
      499
 91
      503
 93
      113
310
904313A32304000000000000344000
  0
ACAD_PROXY_OBJECT
  5
50
102
{ACAD_REACTORS
330
47
102
}
330
47
100
AcDbProxyObject
 90
      499
 91
      503
 93
      113
310
904313A333040000000000003E4000
  0
ACAD_PROXY_OBJECT
  5
51
102
{ACAD_REACTORS
330
47
102
}
330
47
100
AcDbProxyObject
 90
      499
 91
      503
 93
      113
310
904313A34304000000000000444000
  0
ACAD_PROXY_OBJECT
  5
52
102
{ACAD_REACTORS
330
47
102
}
330
47
100
AcDbProxyObject
 90
      499
 91
      503
 93
      113
310
904313A35304000000000000494000
  0
ACAD_PROXY_OBJECT
  5
53
102
{ACAD_REACTORS
330
47
102
}
330
47
100
AcDbProxyObject
 90
      499
 91
      503
 93
      121
310
905313A3130304000000000000594000
  0
ACAD_PROXY_OBJECT
  5
54
102
{ACAD_REACTORS
330
47
102
}
330
47
100
AcDbProxyObject
 90
      499
 91
      503
 93
      105
310
903323A310000000000000010100
  0
ACAD_PROXY_OBJECT
  5
55
102
{ACAD_REACTORS
330
47
102
}
330
47
100
AcDbProxyObject
 90
      499
 91
      503
 93
      105
310
903343A310000000000000410100
  0
ACAD_PROXY_OBJECT
  5
56
102
{ACAD_REACTORS
330
47
102
}
330
47
100
AcDbProxyObject
 90
      499
 91
      503
 93
      105
310
903383A310000000000000810100
  0
ACAD_PROXY_OBJECT
  5
57
102
{ACAD_REACTORS
330
47
102
}
330
47
100
AcDbProxyObject
 90
      499
 91
      503
 93
      113
310
90431303A310000000000000910100
  0
ACAD_PROXY_OBJECT
  5
58
102
{ACAD_REACTORS
330
47
102
}
330
47
100
AcDbProxyObject
 90
      499
 91
      503
 93
      121
310
9053130303A310000000000001650100
  0
ACAD_PROXY_OBJECT
  5
59
102
{ACAD_REACTORS
330
47
102
}
330
47
100
AcDbProxyObject
 90
      499
 91
      503
 93
      257
310
90E312F31323822203D2031272D3022000000000000200FC000000000000284000
  0
ACAD_PROXY_OBJECT
  5
5A
102
{ACAD_REACTORS
330
47
102
}
330
47
100
AcDbProxyObject
 90
      499
 91
      503
 93
      249
310
90D312F363422203D2031272D3022000000000000240FC000000000000284000
  0
ACAD_PROXY_OBJECT
  5
5B
102
{ACAD_REACTORS
330
47
102
}
330
47
100
AcDbProxyObject
 90
      499
 91
      503
 93
      249
310
90D312F333222203D2031272D3022000000000000280FC000000000000284000
  0
ACAD_PROXY_OBJECT
  5
5C
102
{ACAD_REACTORS
330
47
102
}
330
47
100
AcDbProxyObject
 90
      499
 91
      503
 93
      249
310
90D312F313622203D2031272D30220000000000002C0FC000000000000284000
  0
ACAD_PROXY_OBJECT
  5
5D
102
{ACAD_REACTORS
330
47
102
}
330
47
100
AcDbProxyObject
 90
      499
 91
      503
 93
      249
310
90D332F333222203D2031272D30220000000000002E0FC000000000000284000
  0
ACAD_PROXY_OBJECT
  5
5E
102
{ACAD_REACTORS
330
47
102
}
330
47
100
AcDbProxyObject
 90
      499
 91
      503
 93
      241
310
90C312F3822203D2031272D3022000000000000300FC000000000000284000
  0
ACAD_PROXY_OBJECT
  5
5F
102
{ACAD_REACTORS
330
47
102
}
330
47
100
AcDbProxyObject
 90
      499
 91
      503
 93
      249
310
90D332F313622203D2031272D3022000000000000320FC000000000000284000
  0
ACAD_PROXY_OBJECT
  5
60
102
{ACAD_REACTORS
330
47
102
}
330
47
100
AcDbProxyObject
 90
      499
 91
      503
 93
      241
310
90C312F3422203D2031272D3022000000000000340FC000000000000284000
  0
ACAD_PROXY_OBJECT
  5
61
102
{ACAD_REACTORS
330
47
102
}
330
47
100
AcDbProxyObject
 90
      499
 91
      503
 93
      241
310
90C332F3822203D2031272D3022000000000000360FC000000000000284000
  0
ACAD_PROXY_OBJECT
  5
62
102
{ACAD_REACTORS
330
47
102
}
330
47
100
AcDbProxyObject
 90
      499
 91
      503
 93
      241
310
90C312F3222203D2031272D3022000000000000380FC000000000000284000
  0
ACAD_PROXY_OBJECT
  5
63
102
{ACAD_REACTORS
330
47
102
}
330
47
100
AcDbProxyObject
 90
      499
 91
      503
 93
      241
310
90C332F3422203D2031272D30220000000000003A0FC000000000000284000
  0
ACAD_PROXY_OBJECT
  5
64
102
{ACAD_REACTORS
330
47
102
}
330
47
100
AcDbProxyObject
 90
      499
 91
      503
 93
      161
310
90A3122203D2031272D30224000000000000284000
  0
ACAD_PROXY_OBJECT
  5
65
102
{ACAD_REACTORS
330
47
102
}
330
47
100
AcDbProxyObject
 90
      499
 91
      503
 93
      257
310
90E312D312F3222203D2031272D30220000000000003E0FC000000000000284000
  0
ACAD_PROXY_OBJECT
  5
66
102
{ACAD_REACTORS
330
47
102
}
330
47
100
AcDbProxyObject
 90
      499
 91
      503
 93
      225
310
90A3322203D2031272D302200000000000002100000000000000284000
  0
ACAD_PROXY_OBJECT
  5
67
102
{ACAD_REACTORS
330
47
102
}
330
47
100
AcDbProxyObject
 90
      499
 91
      503
 93
      225
310
90A3622203D2031272D302200000000000006100000000000000284000
  0
ACAD_PROXY_OBJECT
  5
68
102
{ACAD_REACTORS
330
47
102
}
330
47
100
AcDbProxyObject
 90
      499
 91
      503
 93
      249
310
90D31272D3022203D2031272D30220000000000000A100000000000000284000
  0
ACAD_PROXY_OBJECT
  5
2F
102
{ACAD_REACTORS
330
2A
102
}
330
2A
100
AcDbProxyObject
 90
      499
 91
      501
 93
      436
310
42CC9915DA5C99599C985B595049028333333333333E33F0000000000000F90107901411070040501600405405064090741402480A0340
1001
ACAD
1000
AcDbSavedByObjectVersion
1070
     0
  0
ACAD_PROXY_OBJECT
  5
32
102
{ACAD_REACTORS
330
2A
102
}
330
2A
100
AcDbProxyObject
 90
      499
 91
      501
 93
      388
310
4150985CDA58D07406404333333333333E33F0000000000000F90107A41107004050150841D405064090741402480A0350
1001
ACAD
1000
AcDbSavedByObjectVersion
1070
     0
  0
ACAD_PROXY_OBJECT
  5
36
102
{ACAD_REACTORS
330
2A
102
}
330
2A
100
AcDbProxyObject
 90
      499
 91
      501
 93
      428
310
42109C9A59DA1D195B90C409028333333333333E33F0000000000000F9010790141107004050150841D405064090741402480A029950
1001
ACAD
1000
AcDbSavedByObjectVersion
1070
     0
  0
ACAD_PROXY_OBJECT
  5
3A
102
{ACAD_REACTORS
330
2A
102
}
330
2A
100
AcDbProxyObject
 90
      499
 91
      501
 93
      452
310
42D0DBDB1BDC90DA185B99D95104090240C333333333333E33F0000000000000F90108901411070040501508421405064090741402480A0350
1001
ACAD
1000
AcDbSavedByObjectVersion
1070
     0
  0
ACAD_PROXY_OBJECT
  5
34
102
{ACAD_REACTORS
330
2A
102
}
330
2A
100
AcDbProxyObject
 90
      499
 91
      501
 93
      500
310
4290DBDB98D95C1D1D585B10940D028333333333333E33F0000000000000F90107902409070040501000000000018199010841D405064090740C02480A0340
1001
ACAD
1000
AcDbSavedByObjectVersion
1070
     0
  0
ACAD_PROXY_OBJECT
  5
35
102
{ACAD_REACTORS
330
2A
102
}
330
2A
100
AcDbProxyObject
 90
      499
 91
      501
 93
      412
310
40D11A5B50B409028333333333333E33F0000000000000F9010790141107004050150841D405064090741402480A02677FFFFFD0
1001
ACAD
1000
AcDbSavedByObjectVersion
1070
     0
  0
ACAD_PROXY_OBJECT
  5
3D
102
{ACAD_REACTORS
330
2A
102
}
330
2A
100
AcDbProxyObject
 90
      499
 91
      501
 93
      452
310
43115919D950DBDB1BDC93D999916409028333333333333E33F0000000000000F9010790141107004050150841D405064090741402480A0350
1001
ACAD
1000
AcDbSavedByObjectVersion
1070
     0
  0
ACAD_PROXY_OBJECT
  5
39
102
{ACAD_REACTORS
330
2A
102
}
330
2A
100
AcDbProxyObject
 90
      499
 91
      501
 93
      444
310
42D19858D95C185D1D195C9B90F409028333333333333E33F0000000000000F9010790141107004050150841D405064090741402480A0350
1001
ACAD
1000
AcDbSavedByObjectVersion
1070
     0
  0
ACAD_PROXY_OBJECT
  5
2B
102
{ACAD_REACTORS
330
2A
102
}
330
2A
100
AcDbProxyObject
 90
      499
 91
      501
 93
      380
310
41119B185D240901404333333333333E33F0000000000000F9010740A907004050150841D405064090741402480A1B50
1001
ACAD
1000
AcDbSavedByObjectVersion
1070
     0
  0
ACAD_PROXY_OBJECT
  5
2C
102
{ACAD_REACTORS
330
2A
102
}
330
2A
100
AcDbProxyObject
 90
      499
 91
      501
 93
      468
310
43519B185D15DA5D1A115919D95CD0140901404333333333333E33F0000000000000F90107409019070040501600405405064090741402480A1B50
1001
ACAD
1000
AcDbSavedByObjectVersion
1070
     0
  0
ACAD_PROXY_OBJECT
  5
2D
102
{ACAD_REACTORS
330
2A
102
}
330
2A
100
AcDbProxyObject
 90
      499
 91
      501
 93
      404
310
41D1DBDD5C985D5910240902404333333333333E33F0000000000000F9010740A9070040501641D405064090741402480A1B50
1001
ACAD
1000
AcDbSavedByObjectVersion
1070
     0
  0
ACAD_PROXY_OBJECT
  5
2E
102
{ACAD_REACTORS
330
2A
102
}
330
2A
100
AcDbProxyObject
 90
      499
 91
      501
 93
      492
310
4411DBDD5C985D5915DA5D1A115919D95CD0340902404333333333333E33F0000000000000F90107409019070040501600405405064090741402480A1B50
1001
ACAD
1000
AcDbSavedByObjectVersion
1070
     0
  0
ACAD_PROXY_OBJECT
  5
31
102
{ACAD_REACTORS
330
2A
102
}
330
2A
100
AcDbProxyObject
 90
      499
 91
      501
 93
      476
310
41921A5919195B90640502408333333333333E33F0000000000000F901079024090700405020000000000001110200405405064090740C02480A0340
1001
ACAD
1000
AcDbSavedByObjectVersion
1070
     0
  0
ACAD_PROXY_OBJECT
  5
3B
102
{ACAD_REACTORS
330
2A
102
}
330
2A
100
AcDbProxyObject
 90
      499
 91
      501
 93
      428
310
42529A5D1D195C93D999914409028333333333333E33F0000000000000F9010790141107004050150A41D405064090741402480A0350
1001
ACAD
1000
AcDbSavedByObjectVersion
1070
     0
  0
ACAD_PROXY_OBJECT
  5
38
102
{ACAD_REACTORS
330
2A
102
}
330
2A
100
AcDbProxyObject
 90
      499
 91
      501
 93
      444
310
42D31A5B995C185D1D195C9B90E409028333333333333E33F0000000000000F9010790141107004050750841D405064090741402483A0350
1001
ACAD
1000
AcDbSavedByObjectVersion
1070
     0
  0
ACAD_PROXY_OBJECT
  5
3C
102
{ACAD_REACTORS
330
2A
102
}
330
2A
100
AcDbProxyObject
 90
      499
 91
      501
 93
      444
310
42D3DD995C9A185B99D3D999915409028333333333333E33F0000000000000F9010790141107004050150941D405064090741402480A0350
1001
ACAD
1000
AcDbSavedByObjectVersion
1070
     0
  0
ACAD_PROXY_OBJECT
  5
33
102
{ACAD_REACTORS
330
2A
102
}
330
2A
100
AcDbProxyObject
 90
      499
 91
      501
 93
      428
310
425499585B1A5CDD1A58D08409038333333333333E33F0000000000000F9010740A907004050150800405405064090740C02480A1B40
1001
ACAD
1000
AcDbSavedByObjectVersion
1070
     0
  0
ACAD_PROXY_OBJECT
  5
42
102
{ACAD_REACTORS
330
2A
102
}
330
2A
100
AcDbProxyObject
 90
      499
 91
      501
 93
      420
310
4194DA1859195911B40902404333333333333E33F0000000000000F9010740A41107004050150800405405064090840C02480A0B40
1001
ACAD
1000
AcDbSavedByObjectVersion
1070
     0
  0
ACAD_PROXY_OBJECT
  5
41
102
{ACAD_REACTORS
330
2A
102
}
330
2A
100
AcDbProxyObject
 90
      499
 91
      501
 93
      516
310
4454DA18591959081DDA5D1A08195919D95CD1A40902404333333333333E33F0000000000000F901074090142907004050250800405405064090740C02480A0B40
1001
ACAD
1000
AcDbSavedByObjectVersion
1070
     0
  0
ACAD_PROXY_OBJECT
  5
3E
102
{ACAD_REACTORS
330
2A
102
}
330
2A
100
AcDbProxyObject
 90
      499
 91
      501
 93
      532
310
4394DA1859195CC81BD98811DC985E5174090240C333333333333E33F0000000000000F901079024090741D01000000000000111010841D405064090740C02480A0340
1001
ACAD
1000
AcDbSavedByObjectVersion
1070
     0
  0
ACAD_PROXY_OBJECT
  5
3F
102
{ACAD_REACTORS
330
2A
102
}
330
2A
100
AcDbProxyObject
 90
      499
 91
      501
 93
      476
310
41D4DAD95D18DA1E51840502408333333333333E33F0000000000000F901079024090741D01000000000000111010B41D405064090741802480A0340
1001
ACAD
1000
AcDbSavedByObjectVersion
1070
     0
  0
ACAD_PROXY_OBJECT
  5
37
102
{ACAD_REACTORS
330
2A
102
}
330
2A
100
AcDbProxyObject
 90
      499
 91
      501
 93
      412
310
41D51A1A58DAD95B90D409028333333333333E33F0000000000000F9010790141107004050150C41D405064090741402480A0350
1001
ACAD
1000
AcDbSavedByObjectVersion
1070
     0
  0
ACAD_PROXY_OBJECT
  5
30
102
{ACAD_REACTORS
330
2A
102
}
330
2A
100
AcDbProxyObject
 90
      499
 91
      501
 93
      420
310
4255DA5C99599C985B595059028333333333333E33F0000000000000F90107901411070040501600405405064090740C02480A0340
1001
ACAD
1000
AcDbSavedByObjectVersion
1070
     0
  0
ACAD_PROXY_OBJECT
  5
40
102
{ACAD_REACTORS
330
2A
102
}
330
2A
100
AcDbProxyObject
 90
      499
 91
      501
 93
      404
310
41560B54985E51940902404000000000000E03F0000000000000F9010740501907004050150841D405064090740C02480A1B40
1001
ACAD
1000
AcDbSavedByObjectVersion
1070
     0
  0
XRECORD
  5
27F
102
{ACAD_REACTORS
330
275
102
}
330
275
100
AcDbXrecord
340
0
  0
XRECORD
  5
27E
102
{ACAD_REACTORS
330
275
102
}
330
275
100
AcDbXrecord
 90
        0
  0
XRECORD
  5
295
102
{ACAD_REACTORS
330
275
102
}
330
275
100
AcDbXrecord
1000
DSTYLE
1002
{
1070
   179
 70
     2
1070
   143
 40
0.03937
1070
    79
 70
     2
1070
   343
340
72
1070
   344
340
78
1070
    46
 40
4.0
1070
    43
 40
6.0
1070
   278
 70
    46
1070
    44
 40
1.0
1070
    42
 40
1.0
1070
   147
 40
1.0
1070
   341
340
72
1070
   173
 70
     1
1070
   283
 70
     1
1070
   340
340
D9
1070
   140
 40
3.0
1002
}
  0
XRECORD
  5
280
102
{ACAD_REACTORS
330
275
102
}
330
275
100
AcDbXrecord
  1
{35D23B9D-0D6A-4F72-8055-861557FE6B6A}
  0
XRECORD
  5
278
102
{ACAD_REACTORS
330
275
102
}
330
275
100
AcDbXrecord
  1

  0
XRECORD
  5
27D
102
{ACAD_REACTORS
330
275
102
}
330
275
100
AcDbXrecord
 90
        4
  0
XRECORD
  5
27A
102
{ACAD_REACTORS
330
275
102
}
330
275
100
AcDbXrecord
340
1A
  0
XRECORD
  5
27C
102
{ACAD_REACTORS
330
275
102
}
330
275
100
AcDbXrecord
 90
    10781
  0
XRECORD
  5
27B
102
{ACAD_REACTORS
330
275
102
}
330
275
100
AcDbXrecord
340
19
  0
XRECORD
  5
282
102
{ACAD_REACTORS
330
275
102
}
330
275
100
AcDbXrecord
 40
0.0
  0
XRECORD
  5
285
102
{ACAD_REACTORS
330
275
102
}
330
275
100
AcDbXrecord
340
0
  0
XRECORD
  5
28B
102
{ACAD_REACTORS
330
275
102
}
330
275
100
AcDbXrecord
 10
0.0
 20
0.0
 30
0.0
  0
XRECORD
  5
287
102
{ACAD_REACTORS
330
275
102
}
330
275
100
AcDbXrecord
 10
0.0
 20
0.0
 30
0.0
  0
XRECORD
  5
28A
102
{ACAD_REACTORS
330
275
102
}
330
275
100
AcDbXrecord
 10
0.0
 20
0.0
 30
0.0
  0
XRECORD
  5
288
102
{ACAD_REACTORS
330
275
102
}
330
275
100
AcDbXrecord
 10
0.0
 20
0.0
 30
0.0
  0
XRECORD
  5
289
102
{ACAD_REACTORS
330
275
102
}
330
275
100
AcDbXrecord
 10
0.0
 20
0.0
 30
0.0
  0
XRECORD
  5
286
102
{ACAD_REACTORS
330
275
102
}
330
275
100
AcDbXrecord
 10
0.0
 20
0.0
 30
0.0
  0
XRECORD
  5
283
102
{ACAD_REACTORS
330
275
102
}
330
275
100
AcDbXrecord
340
0
  0
XRECORD
  5
284
102
{ACAD_REACTORS
330
275
102
}
330
275
100
AcDbXrecord
 70
     0
  0
XRECORD
  5
279
102
{ACAD_REACTORS
330
275
102
}
330
275
100
AcDbXrecord
  1

  0
XRECORD
  5
276
102
{ACAD_REACTORS
330
275
102
}
330
275
100
AcDbXrecord
 90
        1
  0
XRECORD
  5
277
102
{ACAD_REACTORS
330
275
102
}
330
275
100
AcDbXrecord
 90
       70
  0
XRECORD
  5
28E
102
{ACAD_REACTORS
330
275
102
}
330
275
100
AcDbXrecord
340
0
  0
XRECORD
  5
294
102
{ACAD_REACTORS
330
275
102
}
330
275
100
AcDbXrecord
 10
0.0
 20
0.0
 30
0.0
  0
XRECORD
  5
290
102
{ACAD_REACTORS
330
275
102
}
330
275
100
AcDbXrecord
 10
0.0
 20
0.0
 30
0.0
  0
XRECORD
  5
293
102
{ACAD_REACTORS
330
275
102
}
330
275
100
AcDbXrecord
 10
0.0
 20
0.0
 30
0.0
  0
XRECORD
  5
291
102
{ACAD_REACTORS
330
275
102
}
330
275
100
AcDbXrecord
 10
0.0
 20
0.0
 30
0.0
  0
XRECORD
  5
292
102
{ACAD_REACTORS
330
275
102
}
330
275
100
AcDbXrecord
 10
0.0
 20
0.0
 30
0.0
  0
XRECORD
  5
28F
102
{ACAD_REACTORS
330
275
102
}
330
275
100
AcDbXrecord
 10
0.0
 20
0.0
 30
0.0
  0
XRECORD
  5
28C
102
{ACAD_REACTORS
330
275
102
}
330
275
100
AcDbXrecord
340
0
  0
XRECORD
  5
28D
102
{ACAD_REACTORS
330
275
102
}
330
275
100
AcDbXrecord
 70
     0
  0
XRECORD
  5
281
102
{ACAD_REACTORS
330
275
102
}
330
275
100
AcDbXrecord
  1
{FAEB1C32-E019-11D5-929B-00C0DF256EC4}
  0
DICTIONARYVAR
  5
2A1
102
{ACAD_REACTORS
330
296
102
}
330
296
100
DictionaryVariables
280
     0
  1
1:1
  0
DICTIONARYVAR
  5
298
102
{ACAD_REACTORS
330
296
102
}
330
296
100
DictionaryVariables
280
     0
  1
Standard
  0
DICTIONARYVAR
  5
297
102
{ACAD_REACTORS
330
296
102
}
330
296
100
DictionaryVariables
280
     0
  1
Standard
  0
DICTIONARYVAR
  5
29D
102
{ACAD_REACTORS
330
296
102
}
330
296
100
DictionaryVariables
280
     0
  1
2
  0
DICTIONARYVAR
  5
29E
102
{ACAD_REACTORS
330
296
102
}
330
296
100
DictionaryVariables
280
     0
  1
1
  0
DICTIONARYVAR
  5
2A2
102
{ACAD_REACTORS
330
296
102
}
330
296
100
DictionaryVariables
280
     0
  1
1
  0
DICTIONARYVAR
  5
29A
102
{ACAD_REACTORS
330
296
102
}
330
296
100
DictionaryVariables
280
     0
  1
80.000000
  0
DICTIONARYVAR
  5
299
102
{ACAD_REACTORS
330
296
102
}
330
296
100
DictionaryVariables
280
     0
  1
5.000000
  0
DICTIONARY
  5
2A5
330
45
100
AcDbDictionary
280
     1
  3
ACAD_XREC_ROUNDTRIP
360
2A6
  0
DICTIONARY
  5
2A3
330
44
100
AcDbDictionary
280
     1
  3
ACAD_XREC_ROUNDTRIP
360
2A4
  0
DICTIONARY
  5
2A7
330
46
100
AcDbDictionary
280
     1
  3
ACAD_XREC_ROUNDTRIP
360
2A8
  0
XRECORD
  5
2A6
102
{ACAD_REACTORS
330
2A5
102
}
330
2A5
100
AcDbXrecord
102
MATERIAL
148
0.0
149
0.0
149
0.0
 93
        0
 94
      127
282
     0
 72
     1
 77
     1
171
     1
175
     1
179
     1
273
     0
  0
XRECORD
  5
2A4
102
{ACAD_REACTORS
330
2A3
102
}
330
2A3
100
AcDbXrecord
102
MATERIAL
148
0.0
149
0.0
149
0.0
 93
        0
 94
      127
282
     0
 72
     1
 77
     1
171
     1
175
     1
179
     1
273
     0
  0
XRECORD
  5
2A8
102
{ACAD_REACTORS
330
2A7
102
}
330
2A7
100
AcDbXrecord
102
MATERIAL
148
0.0
149
0.0
149
0.0
 93
        0
 94
      127
282
     0
 72
     1
 77
     1
171
     1
175
     1
179
     1
273
     0
  0
ENDSEC
  0
EOF
