  0
SECTION
  2
HEADER
  9
$ACADVER
  1
AC1014
  9
$ACADMAINTVER
 70
     9
  9
$DWGCODEPAGE
  3
ANSI_932
  9
$INSBASE
 10
0.0
 20
0.0
 30
0.0
  9
$EXTMIN
 10
0.0
 20
0.0
 30
0.0
  9
$EXTMAX
 10
210.0
 20
297.0
 30
0.0
  9
$LIMMIN
 10
0.0
 20
0.0
  9
$LIMMAX
 10
210.0
 20
297.0
  9
$ORTHOMODE
 70
     0
  9
$REGENMODE
 70
     1
  9
$FILLMODE
 70
     1
  9
$QTEXTMODE
 70
     0
  9
$MIRRTEXT
 70
     1
  9
$DRAGMODE
 70
     2
  9
$LTSCALE
 40
1.0
  9
$OSMODE
 70
    37
  9
$ATTMODE
 70
     1
  9
$TEXTSIZE
 40
2.5
  9
$TRACEWID
 40
1.0
  9
$TEXTSTYLE
  7
ＭＳ_ゴシック
  9
$CLAYER
  8
0
  9
$CELTYPE
  6
BYLAYER
  9
$CECOLOR
 62
   256
  9
$CELTSCALE
 40
1.0
  9
$DELOBJ
 70
     1
  9
$DISPSILH
 70
     0
  9
$DIMSCALE
 40
1.0
  9
$DIMASZ
 40
2.5
  9
$DIMEXO
 40
1.0
  9
$DIMDLI
 40
6.0
  9
$DIMRND
 40
0.0
  9
$DIMDLE
 40
4.0
  9
$DIMEXE
 40
1.0
  9
$DIMTP
 40
0.0
  9
$DIMTM
 40
0.0
  9
$DIMTXT
 40
3.0
  9
$DIMCEN
 40
2.5
  9
$DIMTSZ
 40
0.0
  9
$DIMTOL
 70
     0
  9
$DIMLIM
 70
     0
  9
$DIMTIH
 70
     0
  9
$DIMTOH
 70
     0
  9
$DIMSE1
 70
     0
  9
$DIMSE2
 70
     0
  9
$DIMTAD
 70
     1
  9
$DIMZIN
 70
     8
  9
$DIMBLK
  1

  9
$DIMASO
 70
     1
  9
$DIMSHO
 70
     1
  9
$DIMPOST
  1

  9
$DIMAPOST
  1

  9
$DIMALT
 70
     0
  9
$DIMALTD
 70
     3
  9
$DIMALTF
 40
0.03937
  9
$DIMLFAC
 40
1.0
  9
$DIMTOFL
 70
     1
  9
$DIMTVP
 40
0.0
  9
$DIMTIX
 70
     0
  9
$DIMSOXD
 70
     0
  9
$DIMSAH
 70
     1
  9
$DIMBLK1
  1
FXTIP_ARROW_S
  9
$DIMBLK2
  1
FXTIP_ARROW_E
  9
$DIMSTYLE
  2
FX_DIMINFO
  9
$DIMCLRD
 70
     0
  9
$DIMCLRE
 70
     0
  9
$DIMCLRT
 70
     0
  9
$DIMTFAC
 40
1.0
  9
$DIMGAP
 40
1.0
  9
$DIMJUST
 70
     0
  9
$DIMSD1
 70
     0
  9
$DIMSD2
 70
     0
  9
$DIMTOLJ
 70
     1
  9
$DIMTZIN
 70
     8
  9
$DIMALTZ
 70
     0
  9
$DIMALTTZ
 70
     0
  9
$DIMFIT
 70
     3
  9
$DIMUPT
 70
     0
  9
$DIMUNIT
 70
     2
  9
$DIMDEC
 70
     2
  9
$DIMTDEC
 70
     2
  9
$DIMALTU
 70
     2
  9
$DIMALTTD
 70
     3
  9
$DIMTXSTY
  7
ＭＳ_ゴシック
  9
$DIMAUNIT
 70
     0
  9
$LUNITS
 70
     2
  9
$LUPREC
 70
     4
  9
$SKETCHINC
 40
1.0
  9
$FILLETRAD
 40
10.0
  9
$AUNITS
 70
     0
  9
$AUPREC
 70
     0
  9
$MENU
  1
.
  9
$ELEVATION
 40
0.0
  9
$PELEVATION
 40
0.0
  9
$THICKNESS
 40
0.0
  9
$LIMCHECK
 70
     0
  9
$CHAMFERA
 40
0.0
  9
$CHAMFERB
 40
0.0
  9
$CHAMFERC
 40
0.0
  9
$CHAMFERD
 40
0.0
  9
$SKPOLY
 70
     0
  9
$TDCREATE
 40
2457749.452320335
  9
$TDUPDATE
 40
2457749.452321597
  9
$TDINDWG
 40
0.0000000116
  9
$TDUSRTIMER
 40
0.0000000116
  9
$USRTIMER
 70
     1
  9
$ANGBASE
 50
0.0
  9
$ANGDIR
 70
     0
  9
$PDMODE
 70
     0
  9
$PDSIZE
 40
0.0
  9
$PLINEWID
 40
0.0
  9
$COORDS
 70
     1
  9
$SPLFRAME
 70
     0
  9
$SPLINETYPE
 70
     6
  9
$SPLINESEGS
 70
     8
  9
$ATTDIA
 70
     0
  9
$ATTREQ
 70
     1
  9
$HANDLING
 70
     1
  9
$HANDSEED
  5
2D9
  9
$SURFTAB1
 70
     6
  9
$SURFTAB2
 70
     6
  9
$SURFTYPE
 70
     6
  9
$SURFU
 70
     6
  9
$SURFV
 70
     6
  9
$UCSNAME
  2

  9
$UCSORG
 10
0.0
 20
0.0
 30
0.0
  9
$UCSXDIR
 10
1.0
 20
0.0
 30
0.0
  9
$UCSYDIR
 10
0.0
 20
1.0
 30
0.0
  9
$PUCSNAME
  2

  9
$PUCSORG
 10
0.0
 20
0.0
 30
0.0
  9
$PUCSXDIR
 10
1.0
 20
0.0
 30
0.0
  9
$PUCSYDIR
 10
0.0
 20
1.0
 30
0.0
  9
$USERI1
 70
     0
  9
$USERI2
 70
     0
  9
$USERI3
 70
     0
  9
$USERI4
 70
     0
  9
$USERI5
 70
     0
  9
$USERR1
 40
0.0
  9
$USERR2
 40
0.0
  9
$USERR3
 40
0.0
  9
$USERR4
 40
0.0
  9
$USERR5
 40
0.0
  9
$WORLDVIEW
 70
     1
  9
$SHADEDGE
 70
     3
  9
$SHADEDIF
 70
    70
  9
$TILEMODE
 70
     1
  9
$MAXACTVP
 70
    64
  9
$PINSBASE
 10
0.0
 20
0.0
 30
0.0
  9
$PLIMCHECK
 70
     0
  9
$PEXTMIN
 10
1.000000000000000E+20
 20
1.000000000000000E+20
 30
1.000000000000000E+20
  9
$PEXTMAX
 10
-1.000000000000000E+20
 20
-1.000000000000000E+20
 30
-1.000000000000000E+20
  9
$PLIMMIN
 10
0.0
 20
0.0
  9
$PLIMMAX
 10
420.0
 20
297.0
  9
$UNITMODE
 70
     0
  9
$VISRETAIN
 70
     1
  9
$PLINEGEN
 70
     0
  9
$PSLTSCALE
 70
     1
  9
$TREEDEPTH
 70
  3020
  9
$PICKSTYLE
 70
     1
  9
$CMLSTYLE
  2
STANDARD
  9
$CMLJUST
 70
     0
  9
$CMLSCALE
 40
20.0
  9
$PROXYGRAPHICS
 70
     1
  9
$MEASUREMENT
 70
     1
  0
ENDSEC
  0
SECTION
  2
CLASSES
  0
CLASS
  1
ACDBDICTIONARYWDFLT
  2
AcDbDictionaryWithDefault
  3
ObjectDBX Classes
 90
        0
280
     0
281
     0
  0
CLASS
  1
VISUALSTYLE
  2
AcDbVisualStyle
  3
ObjectDBX Classes
 90
     4095
280
     0
281
     0
  0
CLASS
  1
MATERIAL
  2
AcDbMaterial
  3
ObjectDBX Classes
 90
     1153
280
     0
281
     0
  0
CLASS
  1
SCALE
  2
AcDbScale
  3
ObjectDBX Classes
 90
     1153
280
     0
281
     0
  0
CLASS
  1
TABLESTYLE
  2
AcDbTableStyle
  3
ObjectDBX Classes
 90
     4095
280
     0
281
     0
  0
CLASS
  1
MLEADERSTYLE
  2
AcDbMLeaderStyle
  3
ACDB_MLEADERSTYLE_CLASS
 90
     4095
280
     0
281
     0
  0
CLASS
  1
SUN
  2
AcDbSun
  3
SCENEOE
 90
     1153
280
     0
281
     0
  0
CLASS
  1
DICTIONARYVAR
  2
AcDbDictionaryVar
  3
ObjectDBX Classes
 90
        0
280
     0
281
     0
  0
CLASS
  1
XRECORD
  2
AcDbXrecord
  3
ObjectDBX Classes
 90
        0
280
     0
281
     0
  0
CLASS
  1
LWPOLYLINE
  2
AcDbPolyline
  3
ObjectDBX Classes
 90
        0
280
     0
281
     1
  0
CLASS
  1
HATCH
  2
AcDbHatch
  3
ObjectDBX Classes
 90
        0
280
     0
281
     1
  0
CLASS
  1
ACDBPLACEHOLDER
  2
AcDbPlaceHolder
  3
ObjectDBX Classes
 90
        0
280
     0
281
     0
  0
CLASS
  1
LAYOUT
  2
AcDbLayout
  3
ObjectDBX Classes
 90
        0
280
     0
281
     0
  0
ENDSEC
  0
SECTION
  2
TABLES
  0
TABLE
  2
VPORT
  5
8
102
{ACAD_XDICTIONARY
360
2CE
102
}
330
0
100
AcDbSymbolTable
 70
     1
  0
VPORT
  5
29
330
8
100
AcDbSymbolTableRecord
100
AcDbViewportTableRecord
  2
*ACTIVE
 70
     0
 10
0.0
 20
0.0
 11
1.0
 21
1.0
 12
105.0
 22
148.5
 13
0.0
 23
0.0
 14
10.0
 24
10.0
 15
10.0
 25
10.0
 16
0.0
 26
0.0
 36
1.0
 17
0.0
 27
0.0
 37
0.0
 40
297.0
 41
0.7070707070707071
 42
50.0
 43
0.0
 44
0.0
 50
0.0
 51
0.0
 71
     0
 72
   100
 73
     1
 74
     3
 75
     0
 76
     0
 77
     0
 78
     0
  0
ENDTAB
  0
TABLE
  2
LTYPE
  5
5
330
0
100
AcDbSymbolTable
 70
     3
  0
LTYPE
  5
14
330
5
100
AcDbSymbolTableRecord
100
AcDbLinetypeTableRecord
  2
BYBLOCK
 70
     0
  3

 72
    65
 73
     0
 40
0.0
  0
LTYPE
  5
15
330
5
100
AcDbSymbolTableRecord
100
AcDbLinetypeTableRecord
  2
BYLAYER
 70
     0
  3

 72
    65
 73
     0
 40
0.0
  0
LTYPE
  5
16
330
5
100
AcDbSymbolTableRecord
100
AcDbLinetypeTableRecord
  2
CONTINUOUS
 70
     0
  3
Solid line
 72
    65
 73
     0
 40
0.0
  0
LTYPE
  5
DC
330
5
100
AcDbSymbolTableRecord
100
AcDbLinetypeTableRecord
  2
0_5実線
 70
     0
  3

 72
    65
 73
     0
 40
0.0
  0
LTYPE
  5
29F
330
5
100
AcDbSymbolTableRecord
100
AcDbLinetypeTableRecord
  2
0_35点線
 70
     0
  3

 72
    65
 73
     2
 40
2.0
 49
1.0
 74
     0
 49
-1.0
 74
     0
  0
ENDTAB
  0
TABLE
  2
LAYER
  5
2
330
0
100
AcDbSymbolTable
 70
     3
  0
LAYER
  5
10
330
2
100
AcDbSymbolTableRecord
100
AcDbLayerTableRecord
  2
0
 70
     0
 62
     7
  6
CONTINUOUS
  0
LAYER
  5
DB
330
2
100
AcDbSymbolTableRecord
100
AcDbLayerTableRecord
  2
GR1_16
 70
     0
 62
     1
  6
0_5実線
  0
LAYER
  5
E1
330
2
100
AcDbSymbolTableRecord
100
AcDbLayerTableRecord
  2
GR2_01
 70
     0
 62
     1
  6
0_5実線
  0
ENDTAB
  0
TABLE
  2
STYLE
  5
3
330
0
100
AcDbSymbolTable
 70
     4
  0
STYLE
  5
11
330
3
100
AcDbSymbolTableRecord
100
AcDbTextStyleTableRecord
  2
STANDARD
 70
     0
 40
0.0
 41
1.0
 50
0.0
 71
     0
 42
2.5
  3
txt
  4

  0
STYLE
  5
6E
330
3
100
AcDbSymbolTableRecord
100
AcDbTextStyleTableRecord
  2
FX_VECTOR
 70
     0
 40
0.0
 41
1.0
 50
0.0
 71
     0
 42
2.5
  3
MONOTXT.SHX
  4
BigFont.shx
  0
STYLE
  5
D9
330
3
100
AcDbSymbolTableRecord
100
AcDbTextStyleTableRecord
  2
ＭＳ_ゴシック
 70
     0
 40
0.0
 41
1.0
 50
0.0
 71
     0
 42
2.5
  3

  4

1001
ACAD
1000
ＭＳ ゴシック
1071
    32817
  0
STYLE
  5
DA
330
3
100
AcDbSymbolTableRecord
100
AcDbTextStyleTableRecord
  2
DEFAULT
 70
     0
 40
0.0
 41
1.0
 50
0.0
 71
     0
 42
2.5
  3

  4

1001
ACAD
1000
ＭＳ ゴシック
1071
    32817
  0
ENDTAB
  0
TABLE
  2
VIEW
  5
6
330
0
100
AcDbSymbolTable
 70
     0
  0
ENDTAB
  0
TABLE
  2
UCS
  5
7
330
0
100
AcDbSymbolTable
 70
     0
  0
ENDTAB
  0
TABLE
  2
APPID
  5
9
330
0
100
AcDbSymbolTable
 70
     2
  0
APPID
  5
12
330
9
100
AcDbSymbolTableRecord
100
AcDbRegAppTableRecord
  2
ACAD
 70
     0
  0
APPID
  5
2D8
330
9
100
AcDbSymbolTableRecord
100
AcDbRegAppTableRecord
  2
ACAD_MLEADERVER
 70
     0
  0
ENDTAB
  0
TABLE
  2
DIMSTYLE
  5
A
330
0
100
AcDbSymbolTable
 70
     2
  0
DIMSTYLE
105
27
330
A
100
AcDbSymbolTableRecord
100
AcDbDimStyleTableRecord
  2
ISO-25
 70
     0
  3

  4

  5

  6

  7

 40
1.0
 41
2.5
 42
0.625
 43
3.75
 44
1.25
 45
0.0
 46
0.0
 47
0.0
 48
0.0
140
2.5
141
2.5
142
0.0
143
0.03937007874016
144
1.0
145
0.0
146
1.0
147
0.625
 71
     0
 72
     0
 73
     0
 74
     0
 75
     0
 76
     0
 77
     1
 78
     8
170
     0
171
     3
172
     1
173
     0
174
     0
175
     0
176
     0
177
     0
178
     0
270
     2
271
     2
272
     2
273
     2
274
     3
340
11
275
     0
280
     0
281
     0
282
     0
283
     0
284
     8
285
     0
286
     0
287
     3
288
     0
  0
DIMSTYLE
105
D8
330
A
100
AcDbSymbolTableRecord
100
AcDbDimStyleTableRecord
  2
FX_DIMINFO
 70
     0
  3

  4

  5

  6
FXTIP_ARROW_S
  7
FXTIP_ARROW_E
 40
1.0
 41
2.5
 42
1.0
 43
6.0
 44
1.0
 45
0.0
 46
4.0
 47
0.0
 48
0.0
140
3.0
141
2.5
142
0.0
143
0.03937
144
1.0
145
0.0
146
1.0
147
1.0
 71
     0
 72
     0
 73
     0
 74
     0
 75
     0
 76
     0
 77
     1
 78
     8
170
     0
171
     3
172
     1
173
     1
174
     0
175
     0
176
     0
177
     0
178
     0
179
     2
270
     2
271
     2
272
     2
273
     2
274
     3
340
D9
275
     0
280
     0
281
     0
282
     0
283
     1
284
     8
285
     0
286
     0
287
     3
288
     0
  0
ENDTAB
  0
TABLE
  2
BLOCK_RECORD
  5
1
330
0
100
AcDbSymbolTable
 70
    20
  0
BLOCK_RECORD
  5
1F
330
1
100
AcDbSymbolTableRecord
100
AcDbBlockTableRecord
  2
*MODEL_SPACE
  0
BLOCK_RECORD
  5
1B
330
1
100
AcDbSymbolTableRecord
100
AcDbBlockTableRecord
  2
*PAPER_SPACE
  0
BLOCK_RECORD
  5
6F
330
1
100
AcDbSymbolTableRecord
100
AcDbBlockTableRecord
  2
FXTIP_NONE
  0
BLOCK_RECORD
  5
72
330
1
100
AcDbSymbolTableRecord
100
AcDbBlockTableRecord
  2
FXTIP_ARROW_S
  0
BLOCK_RECORD
  5
78
330
1
100
AcDbSymbolTableRecord
100
AcDbBlockTableRecord
  2
FXTIP_ARROW_E
  0
BLOCK_RECORD
  5
7E
330
1
100
AcDbSymbolTableRecord
100
AcDbBlockTableRecord
  2
FXTIP_BLACKDOT_S
  0
BLOCK_RECORD
  5
84
330
1
100
AcDbSymbolTableRecord
100
AcDbBlockTableRecord
  2
FXTIP_BLACKDOT_E
  0
BLOCK_RECORD
  5
8A
330
1
100
AcDbSymbolTableRecord
100
AcDbBlockTableRecord
  2
FXTIP_TRIANGLE_S
  0
BLOCK_RECORD
  5
91
330
1
100
AcDbSymbolTableRecord
100
AcDbBlockTableRecord
  2
FXTIP_TRIANGLE_E
  0
BLOCK_RECORD
  5
98
330
1
100
AcDbSymbolTableRecord
100
AcDbBlockTableRecord
  2
FXTIP_ARCHITECT_S
  0
BLOCK_RECORD
  5
9E
330
1
100
AcDbSymbolTableRecord
100
AcDbBlockTableRecord
  2
FXTIP_ARCHITECT_E
  0
BLOCK_RECORD
  5
A4
330
1
100
AcDbSymbolTableRecord
100
AcDbBlockTableRecord
  2
FXTIP_CIVIL_S
  0
BLOCK_RECORD
  5
AA
330
1
100
AcDbSymbolTableRecord
100
AcDbBlockTableRecord
  2
FXTIP_CIVIL_E
  0
BLOCK_RECORD
  5
B0
330
1
100
AcDbSymbolTableRecord
100
AcDbBlockTableRecord
  2
FXTIP_WHITEDOT_S
  0
BLOCK_RECORD
  5
B5
330
1
100
AcDbSymbolTableRecord
100
AcDbBlockTableRecord
  2
FXTIP_WHITEDOT_E
  0
BLOCK_RECORD
  5
BA
330
1
100
AcDbSymbolTableRecord
100
AcDbBlockTableRecord
  2
FXTIP_UPARROW_S
  0
BLOCK_RECORD
  5
BF
330
1
100
AcDbSymbolTableRecord
100
AcDbBlockTableRecord
  2
FXTIP_UPARROW_E
  0
BLOCK_RECORD
  5
C4
330
1
100
AcDbSymbolTableRecord
100
AcDbBlockTableRecord
  2
FXTIP_DOWNARROW_S
  0
BLOCK_RECORD
  5
C9
330
1
100
AcDbSymbolTableRecord
100
AcDbBlockTableRecord
  2
FXTIP_DOWNARROW_E
  0
BLOCK_RECORD
  5
CE
330
1
100
AcDbSymbolTableRecord
100
AcDbBlockTableRecord
  2
FXTIP_BLACKTRIANGLE_S
  0
BLOCK_RECORD
  5
D3
330
1
100
AcDbSymbolTableRecord
100
AcDbBlockTableRecord
  2
FXTIP_BLACKTRIANGLE_E
  0
ENDTAB
  0
ENDSEC
  0
SECTION
  2
BLOCKS
  0
BLOCK
  5
20
330
1F
100
AcDbEntity
  8
0
100
AcDbBlockBegin
  2
*MODEL_SPACE
 70
     0
 10
0.0
 20
0.0
 30
0.0
  3
*MODEL_SPACE
  1

  0
ENDBLK
  5
21
330
1F
100
AcDbEntity
  8
0
100
AcDbBlockEnd
  0
BLOCK
  5
1C
330
1B
100
AcDbEntity
 67
     1
  8
0
100
AcDbBlockBegin
  2
*PAPER_SPACE
 70
     0
 10
0.0
 20
0.0
 30
0.0
  3
*PAPER_SPACE
  1

  0
ENDBLK
  5
1D
330
1B
100
AcDbEntity
 67
     1
  8
0
100
AcDbBlockEnd
  0
BLOCK
  5
70
330
6F
100
AcDbEntity
  8
0
100
AcDbBlockBegin
  2
FXTIP_NONE
 70
     0
 10
0.0
 20
0.0
 30
0.0
  3
FXTIP_NONE
  1
FXTIP_NONE
  0
ENDBLK
  5
71
330
6F
100
AcDbEntity
  8
0
100
AcDbBlockEnd
  0
BLOCK
  5
73
330
72
100
AcDbEntity
  8
0
100
AcDbBlockBegin
  2
FXTIP_ARROW_S
 70
     0
 10
0.0
 20
0.0
 30
0.0
  3
FXTIP_ARROW_S
  1
FXTIP_ARROW_S
  0
LINE
  5
75
330
72
100
AcDbEntity
  8
0
  6
CONTINUOUS
 62
     0
100
AcDbLine
 10
0.0
 20
0.0
 30
0.0
 11
-1.0
 21
0.0000000000000001
 31
0.0
  0
LINE
  5
76
330
72
100
AcDbEntity
  8
0
  6
CONTINUOUS
 62
     0
100
AcDbLine
 10
0.0
 20
0.0
 30
0.0
 11
-0.9659258262890683
 21
-0.2588190451025206
 31
0.0
  0
LINE
  5
77
330
72
100
AcDbEntity
  8
0
  6
CONTINUOUS
 62
     0
100
AcDbLine
 10
0.0
 20
0.0
 30
0.0
 11
-0.9659258262890683
 21
0.2588190451025209
 31
0.0
  0
ENDBLK
  5
74
330
72
100
AcDbEntity
  8
0
100
AcDbBlockEnd
  0
BLOCK
  5
79
330
78
100
AcDbEntity
  8
0
100
AcDbBlockBegin
  2
FXTIP_ARROW_E
 70
     0
 10
0.0
 20
0.0
 30
0.0
  3
FXTIP_ARROW_E
  1
FXTIP_ARROW_E
  0
LINE
  5
7B
330
78
100
AcDbEntity
  8
0
  6
CONTINUOUS
 62
     0
100
AcDbLine
 10
0.0
 20
0.0
 30
0.0
 11
-1.0
 21
0.0
 31
0.0
  0
LINE
  5
7C
330
78
100
AcDbEntity
  8
0
  6
CONTINUOUS
 62
     0
100
AcDbLine
 10
0.0
 20
0.0
 30
0.0
 11
-0.9659258262890683
 21
0.2588190451025207
 31
0.0
  0
LINE
  5
7D
330
78
100
AcDbEntity
  8
0
  6
CONTINUOUS
 62
     0
100
AcDbLine
 10
0.0
 20
0.0
 30
0.0
 11
-0.9659258262890683
 21
-0.2588190451025207
 31
0.0
  0
ENDBLK
  5
7A
330
78
100
AcDbEntity
  8
0
100
AcDbBlockEnd
  0
BLOCK
  5
7F
330
7E
100
AcDbEntity
  8
0
100
AcDbBlockBegin
  2
FXTIP_BLACKDOT_S
 70
     0
 10
0.0
 20
0.0
 30
0.0
  3
FXTIP_BLACKDOT_S
  1
FXTIP_BLACKDOT_S
  0
LINE
  5
81
330
7E
100
AcDbEntity
  8
0
  6
CONTINUOUS
 62
     0
100
AcDbLine
 10
0.0
 20
0.0
 30
0.0
 11
-1.0
 21
0.0000000000000001
 31
0.0
  0
LWPOLYLINE
  5
82
330
7E
100
AcDbEntity
  8
0
  6
CONTINUOUS
 62
     0
100
AcDbPolyline
 90
        2
 70
     1
 43
0.2
 10
-0.1
 20
0.0
 42
1.0
 10
0.1
 20
0.0
 42
1.0
  0
CIRCLE
  5
83
330
7E
100
AcDbEntity
  8
0
  6
CONTINUOUS
 62
     0
100
AcDbCircle
 10
0.0
 20
0.0
 30
0.0
 40
0.2
  0
ENDBLK
  5
80
330
7E
100
AcDbEntity
  8
0
100
AcDbBlockEnd
  0
BLOCK
  5
85
330
84
100
AcDbEntity
  8
0
100
AcDbBlockBegin
  2
FXTIP_BLACKDOT_E
 70
     0
 10
0.0
 20
0.0
 30
0.0
  3
FXTIP_BLACKDOT_E
  1
FXTIP_BLACKDOT_E
  0
LINE
  5
87
330
84
100
AcDbEntity
  8
0
  6
CONTINUOUS
 62
     0
100
AcDbLine
 10
0.0
 20
0.0
 30
0.0
 11
-1.0
 21
0.0
 31
0.0
  0
LWPOLYLINE
  5
88
330
84
100
AcDbEntity
  8
0
  6
CONTINUOUS
 62
     0
100
AcDbPolyline
 90
        2
 70
     1
 43
0.2
 10
-0.1
 20
0.0
 42
1.0
 10
0.1
 20
0.0
 42
1.0
  0
CIRCLE
  5
89
330
84
100
AcDbEntity
  8
0
  6
CONTINUOUS
 62
     0
100
AcDbCircle
 10
0.0
 20
0.0
 30
0.0
 40
0.2
  0
ENDBLK
  5
86
330
84
100
AcDbEntity
  8
0
100
AcDbBlockEnd
  0
BLOCK
  5
8B
330
8A
100
AcDbEntity
  8
0
100
AcDbBlockBegin
  2
FXTIP_TRIANGLE_S
 70
     0
 10
0.0
 20
0.0
 30
0.0
  3
FXTIP_TRIANGLE_S
  1
FXTIP_TRIANGLE_S
  0
LINE
  5
8D
330
8A
100
AcDbEntity
  8
0
  6
CONTINUOUS
 62
     0
100
AcDbLine
 10
0.0
 20
0.0
 30
0.0
 11
-1.0
 21
0.0000000000000001
 31
0.0
  0
LINE
  5
8E
330
8A
100
AcDbEntity
  8
0
  6
CONTINUOUS
 62
     0
100
AcDbLine
 10
0.0
 20
0.0
 30
0.0
 11
-0.9659258262890683
 21
-0.2588190451025206
 31
0.0
  0
LINE
  5
8F
330
8A
100
AcDbEntity
  8
0
  6
CONTINUOUS
 62
     0
100
AcDbLine
 10
0.0
 20
0.0
 30
0.0
 11
-0.9659258262890683
 21
0.2588190451025209
 31
0.0
  0
LINE
  5
90
330
8A
100
AcDbEntity
  8
0
  6
CONTINUOUS
 62
     0
100
AcDbLine
 10
-0.9659258262890683
 20
-0.2588190451025206
 30
0.0
 11
-0.9659258262890683
 21
0.2588190451025209
 31
0.0
  0
ENDBLK
  5
8C
330
8A
100
AcDbEntity
  8
0
100
AcDbBlockEnd
  0
BLOCK
  5
92
330
91
100
AcDbEntity
  8
0
100
AcDbBlockBegin
  2
FXTIP_TRIANGLE_E
 70
     0
 10
0.0
 20
0.0
 30
0.0
  3
FXTIP_TRIANGLE_E
  1
FXTIP_TRIANGLE_E
  0
LINE
  5
94
330
91
100
AcDbEntity
  8
0
  6
CONTINUOUS
 62
     0
100
AcDbLine
 10
0.0
 20
0.0
 30
0.0
 11
-1.0
 21
0.0
 31
0.0
  0
LINE
  5
95
330
91
100
AcDbEntity
  8
0
  6
CONTINUOUS
 62
     0
100
AcDbLine
 10
0.0
 20
0.0
 30
0.0
 11
-0.9659258262890683
 21
0.2588190451025207
 31
0.0
  0
LINE
  5
96
330
91
100
AcDbEntity
  8
0
  6
CONTINUOUS
 62
     0
100
AcDbLine
 10
0.0
 20
0.0
 30
0.0
 11
-0.9659258262890683
 21
-0.2588190451025207
 31
0.0
  0
LINE
  5
97
330
91
100
AcDbEntity
  8
0
  6
CONTINUOUS
 62
     0
100
AcDbLine
 10
-0.9659258262890683
 20
0.2588190451025207
 30
0.0
 11
-0.9659258262890683
 21
-0.2588190451025207
 31
0.0
  0
ENDBLK
  5
93
330
91
100
AcDbEntity
  8
0
100
AcDbBlockEnd
  0
BLOCK
  5
99
330
98
100
AcDbEntity
  8
0
100
AcDbBlockBegin
  2
FXTIP_ARCHITECT_S
 70
     0
 10
0.0
 20
0.0
 30
0.0
  3
FXTIP_ARCHITECT_S
  1
FXTIP_ARCHITECT_S
  0
LINE
  5
9B
330
98
100
AcDbEntity
  8
0
  6
CONTINUOUS
 62
     0
100
AcDbLine
 10
0.0
 20
0.0
 30
0.0
 11
-1.0
 21
0.0000000000000001
 31
0.0
  0
LINE
  5
9C
330
98
100
AcDbEntity
  8
0
  6
CONTINUOUS
 62
     0
100
AcDbLine
 10
0.0
 20
0.0
 30
0.0
 11
-0.7071067811865476
 21
-0.7071067811865474
 31
0.0
  0
LINE
  5
9D
330
98
100
AcDbEntity
  8
0
  6
CONTINUOUS
 62
     0
100
AcDbLine
 10
0.0
 20
0.0
 30
0.0
 11
0.7071067811865476
 21
0.7071067811865474
 31
0.0
  0
ENDBLK
  5
9A
330
98
100
AcDbEntity
  8
0
100
AcDbBlockEnd
  0
BLOCK
  5
9F
330
9E
100
AcDbEntity
  8
0
100
AcDbBlockBegin
  2
FXTIP_ARCHITECT_E
 70
     0
 10
0.0
 20
0.0
 30
0.0
  3
FXTIP_ARCHITECT_E
  1
FXTIP_ARCHITECT_E
  0
LINE
  5
A1
330
9E
100
AcDbEntity
  8
0
  6
CONTINUOUS
 62
     0
100
AcDbLine
 10
0.0
 20
0.0
 30
0.0
 11
-1.0
 21
0.0
 31
0.0
  0
LINE
  5
A2
330
9E
100
AcDbEntity
  8
0
  6
CONTINUOUS
 62
     0
100
AcDbLine
 10
0.0
 20
0.0
 30
0.0
 11
0.7071067811865475
 21
0.7071067811865475
 31
0.0
  0
LINE
  5
A3
330
9E
100
AcDbEntity
  8
0
  6
CONTINUOUS
 62
     0
100
AcDbLine
 10
0.0
 20
0.0
 30
0.0
 11
-0.7071067811865475
 21
-0.7071067811865475
 31
0.0
  0
ENDBLK
  5
A0
330
9E
100
AcDbEntity
  8
0
100
AcDbBlockEnd
  0
BLOCK
  5
A5
330
A4
100
AcDbEntity
  8
0
100
AcDbBlockBegin
  2
FXTIP_CIVIL_S
 70
     0
 10
0.0
 20
0.0
 30
0.0
  3
FXTIP_CIVIL_S
  1
FXTIP_CIVIL_S
  0
LINE
  5
A7
330
A4
100
AcDbEntity
  8
0
  6
CONTINUOUS
 62
     0
100
AcDbLine
 10
0.0
 20
0.0
 30
0.0
 11
-1.0
 21
0.0000000000000001
 31
0.0
  0
LINE
  5
A8
330
A4
100
AcDbEntity
  8
0
  6
CONTINUOUS
 62
     0
100
AcDbLine
 10
0.0
 20
-0.1
 30
0.0
 11
-1.0
 21
-0.0999999999999999
 31
0.0
  0
LINE
  5
A9
330
A4
100
AcDbEntity
  8
0
  6
CONTINUOUS
 62
     0
100
AcDbLine
 10
0.0
 20
-0.2
 30
0.0
 11
-1.0
 21
-0.1999999999999999
 31
0.0
  0
ENDBLK
  5
A6
330
A4
100
AcDbEntity
  8
0
100
AcDbBlockEnd
  0
BLOCK
  5
AB
330
AA
100
AcDbEntity
  8
0
100
AcDbBlockBegin
  2
FXTIP_CIVIL_E
 70
     0
 10
0.0
 20
0.0
 30
0.0
  3
FXTIP_CIVIL_E
  1
FXTIP_CIVIL_E
  0
LINE
  5
AD
330
AA
100
AcDbEntity
  8
0
  6
CONTINUOUS
 62
     0
100
AcDbLine
 10
0.0
 20
0.0
 30
0.0
 11
-1.0
 21
0.0
 31
0.0
  0
LINE
  5
AE
330
AA
100
AcDbEntity
  8
0
  6
CONTINUOUS
 62
     0
100
AcDbLine
 10
0.0
 20
0.1
 30
0.0
 11
-1.0
 21
0.1
 31
0.0
  0
LINE
  5
AF
330
AA
100
AcDbEntity
  8
0
  6
CONTINUOUS
 62
     0
100
AcDbLine
 10
0.0
 20
0.2
 30
0.0
 11
-1.0
 21
0.2
 31
0.0
  0
ENDBLK
  5
AC
330
AA
100
AcDbEntity
  8
0
100
AcDbBlockEnd
  0
BLOCK
  5
B1
330
B0
100
AcDbEntity
  8
0
100
AcDbBlockBegin
  2
FXTIP_WHITEDOT_S
 70
     0
 10
0.0
 20
0.0
 30
0.0
  3
FXTIP_WHITEDOT_S
  1
FXTIP_WHITEDOT_S
  0
LINE
  5
B3
330
B0
100
AcDbEntity
  8
0
  6
CONTINUOUS
 62
     0
100
AcDbLine
 10
0.0
 20
0.0
 30
0.0
 11
-1.0
 21
0.0000000000000001
 31
0.0
  0
CIRCLE
  5
B4
330
B0
100
AcDbEntity
  8
0
  6
CONTINUOUS
 62
     0
100
AcDbCircle
 10
0.0
 20
0.0
 30
0.0
 40
0.2
  0
ENDBLK
  5
B2
330
B0
100
AcDbEntity
  8
0
100
AcDbBlockEnd
  0
BLOCK
  5
B6
330
B5
100
AcDbEntity
  8
0
100
AcDbBlockBegin
  2
FXTIP_WHITEDOT_E
 70
     0
 10
0.0
 20
0.0
 30
0.0
  3
FXTIP_WHITEDOT_E
  1
FXTIP_WHITEDOT_E
  0
LINE
  5
B8
330
B5
100
AcDbEntity
  8
0
  6
CONTINUOUS
 62
     0
100
AcDbLine
 10
0.0
 20
0.0
 30
0.0
 11
-1.0
 21
0.0
 31
0.0
  0
CIRCLE
  5
B9
330
B5
100
AcDbEntity
  8
0
  6
CONTINUOUS
 62
     0
100
AcDbCircle
 10
0.0
 20
0.0
 30
0.0
 40
0.2
  0
ENDBLK
  5
B7
330
B5
100
AcDbEntity
  8
0
100
AcDbBlockEnd
  0
BLOCK
  5
BB
330
BA
100
AcDbEntity
  8
0
100
AcDbBlockBegin
  2
FXTIP_UPARROW_S
 70
     0
 10
0.0
 20
0.0
 30
0.0
  3
FXTIP_UPARROW_S
  1
FXTIP_UPARROW_S
  0
LINE
  5
BD
330
BA
100
AcDbEntity
  8
0
  6
CONTINUOUS
 62
     0
100
AcDbLine
 10
0.0
 20
0.0
 30
0.0
 11
-1.0
 21
0.0000000000000001
 31
0.0
  0
LINE
  5
BE
330
BA
100
AcDbEntity
  8
0
  6
CONTINUOUS
 62
     0
100
AcDbLine
 10
0.0
 20
0.0
 30
0.0
 11
-0.9659258262890683
 21
-0.2588190451025206
 31
0.0
  0
ENDBLK
  5
BC
330
BA
100
AcDbEntity
  8
0
100
AcDbBlockEnd
  0
BLOCK
  5
C0
330
BF
100
AcDbEntity
  8
0
100
AcDbBlockBegin
  2
FXTIP_UPARROW_E
 70
     0
 10
0.0
 20
0.0
 30
0.0
  3
FXTIP_UPARROW_E
  1
FXTIP_UPARROW_E
  0
LINE
  5
C2
330
BF
100
AcDbEntity
  8
0
  6
CONTINUOUS
 62
     0
100
AcDbLine
 10
0.0
 20
0.0
 30
0.0
 11
-1.0
 21
0.0
 31
0.0
  0
LINE
  5
C3
330
BF
100
AcDbEntity
  8
0
  6
CONTINUOUS
 62
     0
100
AcDbLine
 10
0.0
 20
0.0
 30
0.0
 11
-0.9659258262890683
 21
0.2588190451025207
 31
0.0
  0
ENDBLK
  5
C1
330
BF
100
AcDbEntity
  8
0
100
AcDbBlockEnd
  0
BLOCK
  5
C5
330
C4
100
AcDbEntity
  8
0
100
AcDbBlockBegin
  2
FXTIP_DOWNARROW_S
 70
     0
 10
0.0
 20
0.0
 30
0.0
  3
FXTIP_DOWNARROW_S
  1
FXTIP_DOWNARROW_S
  0
LINE
  5
C7
330
C4
100
AcDbEntity
  8
0
  6
CONTINUOUS
 62
     0
100
AcDbLine
 10
0.0
 20
0.0
 30
0.0
 11
-1.0
 21
0.0000000000000001
 31
0.0
  0
LINE
  5
C8
330
C4
100
AcDbEntity
  8
0
  6
CONTINUOUS
 62
     0
100
AcDbLine
 10
0.0
 20
0.0
 30
0.0
 11
-0.9659258262890683
 21
0.2588190451025209
 31
0.0
  0
ENDBLK
  5
C6
330
C4
100
AcDbEntity
  8
0
100
AcDbBlockEnd
  0
BLOCK
  5
CA
330
C9
100
AcDbEntity
  8
0
100
AcDbBlockBegin
  2
FXTIP_DOWNARROW_E
 70
     0
 10
0.0
 20
0.0
 30
0.0
  3
FXTIP_DOWNARROW_E
  1
FXTIP_DOWNARROW_E
  0
LINE
  5
CC
330
C9
100
AcDbEntity
  8
0
  6
CONTINUOUS
 62
     0
100
AcDbLine
 10
0.0
 20
0.0
 30
0.0
 11
-1.0
 21
0.0
 31
0.0
  0
LINE
  5
CD
330
C9
100
AcDbEntity
  8
0
  6
CONTINUOUS
 62
     0
100
AcDbLine
 10
0.0
 20
0.0
 30
0.0
 11
-0.9659258262890683
 21
-0.2588190451025207
 31
0.0
  0
ENDBLK
  5
CB
330
C9
100
AcDbEntity
  8
0
100
AcDbBlockEnd
  0
BLOCK
  5
CF
330
CE
100
AcDbEntity
  8
0
100
AcDbBlockBegin
  2
FXTIP_BLACKTRIANGLE_S
 70
     0
 10
0.0
 20
0.0
 30
0.0
  3
FXTIP_BLACKTRIANGLE_S
  1
FXTIP_BLACKTRIANGLE_S
  0
LINE
  5
D1
330
CE
100
AcDbEntity
  8
0
  6
CONTINUOUS
 62
     0
100
AcDbLine
 10
0.0
 20
0.0
 30
0.0
 11
-1.0
 21
0.0000000000000001
 31
0.0
  0
SOLID
  5
D2
330
CE
100
AcDbEntity
  8
0
  6
CONTINUOUS
 62
     0
100
AcDbTrace
 10
0.0
 20
0.0
 30
0.0
 11
-0.9659258262890683
 21
-0.2588190451025206
 31
0.0
 12
-0.9659258262890683
 22
0.2588190451025209
 32
0.0
 13
-0.9659258262890683
 23
0.2588190451025209
 33
0.0
  0
ENDBLK
  5
D0
330
CE
100
AcDbEntity
  8
0
100
AcDbBlockEnd
  0
BLOCK
  5
D4
330
D3
100
AcDbEntity
  8
0
100
AcDbBlockBegin
  2
FXTIP_BLACKTRIANGLE_E
 70
     0
 10
0.0
 20
0.0
 30
0.0
  3
FXTIP_BLACKTRIANGLE_E
  1
FXTIP_BLACKTRIANGLE_E
  0
LINE
  5
D6
330
D3
100
AcDbEntity
  8
0
  6
CONTINUOUS
 62
     0
100
AcDbLine
 10
0.0
 20
0.0
 30
0.0
 11
-1.0
 21
0.0
 31
0.0
  0
SOLID
  5
D7
330
D3
100
AcDbEntity
  8
0
  6
CONTINUOUS
 62
     0
100
AcDbTrace
 10
0.0
 20
0.0
 30
0.0
 11
-0.9659258262890683
 21
0.2588190451025207
 31
0.0
 12
-0.9659258262890683
 22
-0.2588190451025207
 32
0.0
 13
-0.9659258262890683
 23
-0.2588190451025207
 33
0.0
  0
ENDBLK
  5
D5
330
D3
100
AcDbEntity
  8
0
100
AcDbBlockEnd
  0
ENDSEC
  0
SECTION
  2
ENTITIES
  0
LINE
  5
DD
330
1F
100
AcDbEntity
  8
GR1_16
 62
     7
100
AcDbLine
 10
25.0
 20
12.0
 30
0.0
 11
25.0
 21
285.0
 31
0.0
  0
LINE
  5
DE
330
1F
100
AcDbEntity
  8
GR1_16
 62
     7
100
AcDbLine
 10
198.0
 20
285.0
 30
0.0
 11
25.0
 21
285.0
 31
0.0
  0
LINE
  5
DF
330
1F
100
AcDbEntity
  8
GR1_16
 62
     7
100
AcDbLine
 10
198.0
 20
285.0
 30
0.0
 11
198.0
 21
12.0
 31
0.0
  0
LINE
  5
E0
330
1F
100
AcDbEntity
  8
GR1_16
 62
     7
100
AcDbLine
 10
198.0
 20
12.0
 30
0.0
 11
25.0
 21
12.0
 31
0.0
  0
LINE
  5
E2
330
1F
100
AcDbEntity
  8
GR2_01
 62
     7
100
AcDbLine
 10
37.0
 20
190.0
 30
0.0
 11
54.50000000000003
 21
190.0
 31
0.0
  0
TEXT
  5
E3
330
1F
100
AcDbEntity
  8
GR2_01
 62
     7
100
AcDbText
 10
40.58107757568359
 20
191.0535663951527
 30
0.0
 40
3.03030303030303
  1
裏面
 41
1.269230769230769
  7
ＭＳ_ゴシック
 72
     1
 11
45.58107757568359
 21
190.5000152587891
 31
0.0
100
AcDbText
 73
     1
  0
LINE
  5
E4
330
1F
100
AcDbEntity
  8
GR2_01
 62
     7
100
AcDbLine
 10
36.15522636782842
 20
250.0
 30
0.0
 11
53.65522636782842
 21
250.0
 31
0.0
  0
TEXT
  5
E5
330
1F
100
AcDbEntity
  8
GR2_01
 62
     7
100
AcDbText
 10
40.58107757568359
 20
251.0535816539418
 30
0.0
 40
3.03030303030303
  1
表面
 41
1.269230769230769
  7
ＭＳ_ゴシック
 72
     1
 11
45.58107757568359
 21
250.5000305175781
 31
0.0
100
AcDbText
 73
     1
  0
LINE
  5
E6
330
1F
100
AcDbEntity
  8
GR2_01
 62
     7
100
AcDbLine
 10
37.0
 20
164.0000000000001
 30
0.0
 11
185.747341525925
 21
164.0
 31
0.0
  0
LINE
  5
E7
330
1F
100
AcDbEntity
  8
GR2_01
 62
     7
100
AcDbLine
 10
185.747341525925
 20
245.0
 30
0.0
 11
37.0
 21
245.0
 31
0.0
  0
LINE
  5
E8
330
1F
100
AcDbEntity
  8
GR2_01
 62
     7
100
AcDbLine
 10
184.047341525925
 20
240.0
 30
0.0
 11
54.71000000000004
 21
239.9999999999999
 31
0.0
  0
LINE
  5
E9
330
1F
100
AcDbEntity
  8
GR2_01
 62
     7
100
AcDbLine
 10
185.747341525925
 20
185.0
 30
0.0
 11
37.0
 21
185.0
 31
0.0
  0
LINE
  5
EA
330
1F
100
AcDbEntity
  8
GR2_01
 62
     7
100
AcDbLine
 10
36.99999999999994
 20
174.5
 30
0.0
 11
49.03999999999996
 21
174.5
 31
0.0
  0
LINE
  5
EB
330
1F
100
AcDbEntity
  8
GR2_01
 62
     7
100
AcDbLine
 10
37.0
 20
245.0
 30
0.0
 11
37.0
 21
224.0000000000001
 31
0.0
  0
LINE
  5
EC
330
1F
100
AcDbEntity
  8
GR2_01
 62
     7
100
AcDbLine
 10
37.0
 20
224.0000000000001
 30
0.0
 11
185.747341525925
 21
224.0
 31
0.0
  0
LINE
  5
ED
330
1F
100
AcDbEntity
  8
GR2_01
 62
     7
100
AcDbLine
 10
37.0
 20
185.0
 30
0.0
 11
37.0
 21
164.0
 31
0.0
  0
LINE
  5
EE
330
1F
100
AcDbEntity
  8
GR2_01
 62
     7
100
AcDbLine
 10
185.747341525925
 20
245.0
 30
0.0
 11
185.747341525925
 21
224.0
 31
0.0
  0
LINE
  5
EF
330
1F
100
AcDbEntity
  8
GR2_01
 62
     7
100
AcDbLine
 10
39.91000000000003
 20
245.0
 30
0.0
 11
39.91000000000003
 21
224.0000000000001
 31
0.0
  0
LINE
  5
F0
330
1F
100
AcDbEntity
  8
GR2_01
 62
     7
100
AcDbLine
 10
43.72000000000003
 20
245.0
 30
0.0
 11
43.72000000000003
 21
224.0000000000001
 31
0.0
  0
LINE
  5
F1
330
1F
100
AcDbEntity
  8
GR2_01
 62
     7
100
AcDbLine
 10
47.53000000000003
 20
245.0
 30
0.0
 11
47.53000000000003
 21
224.0000000000001
 31
0.0
  0
LINE
  5
F2
330
1F
100
AcDbEntity
  8
GR2_01
 62
     7
100
AcDbLine
 10
54.71000000000004
 20
245.0
 30
0.0
 11
54.71000000000004
 21
224.0000000000001
 31
0.0
  0
LINE
  5
F3
330
1F
100
AcDbEntity
  8
GR2_01
 62
     7
100
AcDbLine
 10
58.52000000000004
 20
245.0
 30
0.0
 11
58.52000000000004
 21
224.0000000000001
 31
0.0
  0
LINE
  5
F4
330
1F
100
AcDbEntity
  8
GR2_01
 62
     7
100
AcDbLine
 10
62.33000000000004
 20
245.0
 30
0.0
 11
62.33000000000004
 21
224.0000000000001
 31
0.0
  0
LINE
  5
F5
330
1F
100
AcDbEntity
  8
GR2_01
 62
     7
100
AcDbLine
 10
66.14000000000004
 20
245.0
 30
0.0
 11
66.14000000000004
 21
224.0000000000001
 31
0.0
  0
LINE
  5
F6
330
1F
100
AcDbEntity
  8
GR2_01
 62
     7
100
AcDbLine
 10
69.95000000000005
 20
245.0
 30
0.0
 11
69.95000000000005
 21
224.0000000000001
 31
0.0
  0
LINE
  5
F7
330
1F
100
AcDbEntity
  8
GR2_01
 62
     7
100
AcDbLine
 10
73.76000000000005
 20
245.0
 30
0.0
 11
73.76000000000005
 21
224.0000000000001
 31
0.0
  0
LINE
  5
F8
330
1F
100
AcDbEntity
  8
GR2_01
 62
     7
100
AcDbLine
 10
77.57000000000005
 20
245.0
 30
0.0
 11
77.57000000000005
 21
224.0000000000001
 31
0.0
  0
LINE
  5
F9
330
1F
100
AcDbEntity
  8
GR2_01
 62
     7
100
AcDbLine
 10
81.38000000000005
 20
245.0
 30
0.0
 11
81.38000000000005
 21
224.0000000000001
 31
0.0
  0
LINE
  5
FA
330
1F
100
AcDbEntity
  8
GR2_01
 62
     7
100
AcDbLine
 10
85.19
 20
245.0
 30
0.0
 11
85.19
 21
224.0000000000001
 31
0.0
  0
LINE
  5
FB
330
1F
100
AcDbEntity
  8
GR2_01
 62
     7
100
AcDbLine
 10
89.0
 20
245.0
 30
0.0
 11
89.0
 21
224.0000000000001
 31
0.0
  0
LINE
  5
FC
330
1F
100
AcDbEntity
  8
GR2_01
 62
     7
100
AcDbLine
 10
92.81
 20
245.0
 30
0.0
 11
92.81
 21
224.0000000000001
 31
0.0
  0
LINE
  5
FD
330
1F
100
AcDbEntity
  8
GR2_01
 62
     7
100
AcDbLine
 10
96.62
 20
245.0
 30
0.0
 11
96.62
 21
224.0000000000001
 31
0.0
  0
LINE
  5
FE
330
1F
100
AcDbEntity
  8
GR2_01
 62
     7
100
AcDbLine
 10
100.43
 20
245.0
 30
0.0
 11
100.43
 21
224.0000000000001
 31
0.0
  0
LINE
  5
FF
330
1F
100
AcDbEntity
  8
GR2_01
 62
     7
100
AcDbLine
 10
104.24
 20
245.0
 30
0.0
 11
104.24
 21
224.0000000000001
 31
0.0
  0
LINE
  5
100
330
1F
100
AcDbEntity
  8
GR2_01
 62
     7
100
AcDbLine
 10
108.05
 20
245.0
 30
0.0
 11
108.05
 21
224.0000000000001
 31
0.0
  0
LINE
  5
101
330
1F
100
AcDbEntity
  8
GR2_01
 62
     7
100
AcDbLine
 10
111.86
 20
245.0
 30
0.0
 11
111.86
 21
224.0000000000001
 31
0.0
  0
LINE
  5
102
330
1F
100
AcDbEntity
  8
GR2_01
 62
     7
100
AcDbLine
 10
115.67
 20
245.0
 30
0.0
 11
115.67
 21
224.0000000000001
 31
0.0
  0
LINE
  5
103
330
1F
100
AcDbEntity
  8
GR2_01
 62
     7
100
AcDbLine
 10
180.237341525925
 20
245.0
 30
0.0
 11
180.237341525925
 21
224.0000000000001
 31
0.0
  0
LINE
  5
104
330
1F
100
AcDbEntity
  8
GR2_01
 62
     7
100
AcDbLine
 10
184.047341525925
 20
245.0
 30
0.0
 11
184.047341525925
 21
224.0000000000001
 31
0.0
  0
LINE
  5
105
330
1F
100
AcDbEntity
  8
GR2_01
 62
     7
100
AcDbLine
 10
47.53000000000003
 20
239.9999999999999
 30
0.0
 11
39.91000000000003
 21
240.0
 31
0.0
  0
LINE
  5
106
330
1F
100
AcDbEntity
  8
GR2_01
 62
     7
100
AcDbLine
 10
41.41999999999996
 20
174.5
 30
0.0
 11
41.41999999999996
 21
164.0
 31
0.0
  0
LINE
  5
107
330
1F
100
AcDbEntity
  8
GR2_01
 62
     7
100
AcDbLine
 10
44.92499999999995
 20
185.0
 30
0.0
 11
44.92499999999995
 21
174.5
 31
0.0
  0
LINE
  5
108
330
1F
100
AcDbEntity
  8
GR2_01
 62
     7
100
AcDbLine
 10
52.10499999999996
 20
185.0
 30
0.0
 11
52.10499999999996
 21
174.5
 31
0.0
  0
LINE
  5
109
330
1F
100
AcDbEntity
  8
GR2_01
 62
     7
100
AcDbLine
 10
59.72499999999997
 20
185.0
 30
0.0
 11
59.72499999999997
 21
174.5
 31
0.0
  0
LINE
  5
10A
330
1F
100
AcDbEntity
  8
GR2_01
 62
     7
100
AcDbLine
 10
67.34499999999997
 20
185.0
 30
0.0
 11
67.34499999999997
 21
174.5
 31
0.0
  0
LINE
  5
10B
330
1F
100
AcDbEntity
  8
GR2_01
 62
     7
100
AcDbLine
 10
74.96499999999992
 20
185.0
 30
0.0
 11
74.96499999999992
 21
174.5
 31
0.0
  0
LINE
  5
10C
330
1F
100
AcDbEntity
  8
GR2_01
 62
     7
100
AcDbLine
 10
82.58499999999992
 20
185.0
 30
0.0
 11
82.58499999999992
 21
174.5
 31
0.0
  0
LINE
  5
10D
330
1F
100
AcDbEntity
  8
GR2_01
 62
     7
100
AcDbLine
 10
90.20499999999993
 20
185.0
 30
0.0
 11
90.20499999999993
 21
174.5
 31
0.0
  0
LINE
  5
10E
330
1F
100
AcDbEntity
  8
GR2_01
 62
     7
100
AcDbLine
 10
97.82499999999993
 20
185.0
 30
0.0
 11
97.82499999999993
 21
174.5
 31
0.0
  0
LINE
  5
10F
330
1F
100
AcDbEntity
  8
GR2_01
 62
     7
100
AcDbLine
 10
105.4449999999999
 20
185.0
 30
0.0
 11
105.4449999999999
 21
174.5
 31
0.0
  0
LINE
  5
110
330
1F
100
AcDbEntity
  8
GR2_01
 62
     7
100
AcDbLine
 10
113.0649999999999
 20
185.0
 30
0.0
 11
113.0649999999999
 21
174.5
 31
0.0
  0
LINE
  5
111
330
1F
100
AcDbEntity
  8
GR2_01
 62
     7
100
AcDbLine
 10
181.645
 20
185.0
 30
0.0
 11
181.645
 21
174.5
 31
0.0
  0
LINE
  5
112
330
1F
100
AcDbEntity
  8
GR2_01
 62
     7
100
AcDbLine
 10
185.7473415259249
 20
185.0
 30
0.0
 11
185.747341525925
 21
164.0
 31
0.0
  0
LINE
  5
113
330
1F
100
AcDbEntity
  8
GR2_01
 62
     7
100
AcDbLine
 10
49.03999999999996
 20
174.5
 30
0.0
 11
49.03999999999996
 21
164.0
 31
0.0
  0
LINE
  5
114
330
1F
100
AcDbEntity
  8
GR2_01
 62
     7
100
AcDbLine
 10
56.21999999999997
 20
174.5
 30
0.0
 11
56.21999999999997
 21
164.0
 31
0.0
  0
LINE
  5
115
330
1F
100
AcDbEntity
  8
GR2_01
 62
     7
100
AcDbLine
 10
63.83999999999997
 20
174.5
 30
0.0
 11
63.83999999999997
 21
164.0
 31
0.0
  0
LINE
  5
116
330
1F
100
AcDbEntity
  8
GR2_01
 62
     7
100
AcDbLine
 10
71.45999999999998
 20
174.5
 30
0.0
 11
71.45999999999998
 21
164.0
 31
0.0
  0
LINE
  5
117
330
1F
100
AcDbEntity
  8
GR2_01
 62
     7
100
AcDbLine
 10
79.07999999999993
 20
174.5
 30
0.0
 11
79.07999999999993
 21
164.0
 31
0.0
  0
LINE
  5
118
330
1F
100
AcDbEntity
  8
GR2_01
 62
     7
100
AcDbLine
 10
86.69999999999993
 20
174.5
 30
0.0
 11
86.69999999999993
 21
164.0
 31
0.0
  0
LINE
  5
119
330
1F
100
AcDbEntity
  8
GR2_01
 62
     7
100
AcDbLine
 10
94.31999999999994
 20
174.5
 30
0.0
 11
94.31999999999994
 21
164.0
 31
0.0
  0
LINE
  5
11A
330
1F
100
AcDbEntity
  8
GR2_01
 62
     7
100
AcDbLine
 10
101.9399999999999
 20
174.5
 30
0.0
 11
101.9399999999999
 21
164.0
 31
0.0
  0
LINE
  5
11B
330
1F
100
AcDbEntity
  8
GR2_01
 62
     7
100
AcDbLine
 10
109.5599999999999
 20
174.5
 30
0.0
 11
109.5599999999999
 21
164.0
 31
0.0
  0
LINE
  5
11C
330
1F
100
AcDbEntity
  8
GR2_01
 62
     7
100
AcDbLine
 10
178.14
 20
174.5
 30
0.0
 11
178.14
 21
164.0
 31
0.0
  0
LINE
  5
11D
330
1F
100
AcDbEntity
  8
GR2_01
 62
     7
100
AcDbLine
 10
52.10499999999996
 20
174.5
 30
0.0
 11
185.747341525925
 21
174.5
 31
0.0
  0
TEXT
  5
11E
330
1F
100
AcDbEntity
  8
GR2_01
 62
     7
100
AcDbText
 10
38.0
 20
182.2767297918146
 30
0.0
 40
1.515151515151515
  1
ＤＣ
 41
0.7615384615384615
  7
ＭＳ_ゴシック
 11
38.0
 21
181.9999542236328
 31
0.0
100
AcDbText
 73
     1
  0
TEXT
  5
11F
330
1F
100
AcDbEntity
  8
GR2_01
 62
     7
100
AcDbText
 10
42.42001342773438
 20
171.7767450506037
 30
0.0
 40
1.515151515151515
  1
ＤＣ
 41
0.7615384615384615
  7
ＭＳ_ゴシック
 11
42.42001342773438
 21
171.4999694824219
 31
0.0
100
AcDbText
 73
     1
  0
TEXT
  5
120
330
1F
100
AcDbEntity
  8
GR2_01
 62
     7
100
AcDbText
 10
38.0
 20
179.7767450506037
 30
0.0
 40
1.515151515151515
  1
２４Ｖ
 41
0.7615384615384615
  7
ＭＳ_ゴシック
 11
38.0
 21
179.4999694824219
 31
0.0
100
AcDbText
 73
     1
  0
TEXT
  5
121
330
1F
100
AcDbEntity
  8
GR2_01
 62
     7
100
AcDbText
 10
42.42001342773438
 20
169.2767450506037
 30
0.0
 40
1.515151515151515
  1
０Ｖ
 41
0.7615384615384615
  7
ＭＳ_ゴシック
 11
42.42001342773438
 21
168.9999694824219
 31
0.0
100
AcDbText
 73
     1
  0
TEXT
  5
122
330
1F
100
AcDbEntity
  8
GR2_01
 62
     7
100
AcDbText
 10
114.0650177001953
 20
182.2767297918146
 30
0.0
 40
1.515151515151515
  1
Ｘ０
 41
0.7615384615384615
  7
ＭＳ_ゴシック
 11
114.0650177001953
 21
181.9999542236328
 31
0.0
100
AcDbText
 73
     1
  0
TEXT
  5
123
330
1F
100
AcDbEntity
  8
GR2_01
 62
     7
100
AcDbText
 10
106.4450073242188
 20
182.2767297918146
 30
0.0
 40
1.515151515151515
  1
Ｘ７
 41
0.7615384615384615
  7
ＭＳ_ゴシック
 11
106.4450073242188
 21
181.9999542236328
 31
0.0
100
AcDbText
 73
     1
  0
TEXT
  5
124
330
1F
100
AcDbEntity
  8
GR2_01
 62
     7
100
AcDbText
 10
98.82498168945312
 20
182.2767297918146
 30
0.0
 40
1.515151515151515
  1
Ｘ６
 41
0.7615384615384615
  7
ＭＳ_ゴシック
 11
98.82498168945312
 21
181.9999542236328
 31
0.0
100
AcDbText
 73
     1
  0
TEXT
  5
125
330
1F
100
AcDbEntity
  8
GR2_01
 62
     7
100
AcDbText
 10
91.20501708984375
 20
182.2767297918146
 30
0.0
 40
1.515151515151515
  1
Ｘ５
 41
0.7615384615384615
  7
ＭＳ_ゴシック
 11
91.20501708984375
 21
181.9999542236328
 31
0.0
100
AcDbText
 73
     1
  0
TEXT
  5
126
330
1F
100
AcDbEntity
  8
GR2_01
 62
     7
100
AcDbText
 10
83.58502197265625
 20
182.2767297918146
 30
0.0
 40
1.515151515151515
  1
Ｘ４
 41
0.7615384615384615
  7
ＭＳ_ゴシック
 11
83.58502197265625
 21
181.9999542236328
 31
0.0
100
AcDbText
 73
     1
  0
TEXT
  5
127
330
1F
100
AcDbEntity
  8
GR2_01
 62
     7
100
AcDbText
 10
75.96499633789062
 20
182.2767297918146
 30
0.0
 40
1.515151515151515
  1
Ｘ３
 41
0.7615384615384615
  7
ＭＳ_ゴシック
 11
75.96499633789062
 21
181.9999542236328
 31
0.0
100
AcDbText
 73
     1
  0
TEXT
  5
128
330
1F
100
AcDbEntity
  8
GR2_01
 62
     7
100
AcDbText
 10
68.34500122070312
 20
182.2767297918146
 30
0.0
 40
1.515151515151515
  1
Ｘ２
 41
0.7615384615384615
  7
ＭＳ_ゴシック
 11
68.34500122070312
 21
181.9999542236328
 31
0.0
100
AcDbText
 73
     1
  0
TEXT
  5
129
330
1F
100
AcDbEntity
  8
GR2_01
 62
     7
100
AcDbText
 10
60.72500610351562
 20
182.2767297918146
 30
0.0
 40
1.515151515151515
  1
Ｘ１
 41
0.7615384615384615
  7
ＭＳ_ゴシック
 11
60.72500610351562
 21
181.9999542236328
 31
0.0
100
AcDbText
 73
     1
  0
TEXT
  5
12A
330
1F
100
AcDbEntity
  8
GR2_01
 62
     7
100
AcDbText
 10
53.10501098632812
 20
182.2767297918146
 30
0.0
 40
1.515151515151515
  1
Ｘ０
 41
0.7615384615384615
  7
ＭＳ_ゴシック
 11
53.10501098632812
 21
181.9999542236328
 31
0.0
100
AcDbText
 73
     1
  0
TEXT
  5
12B
330
1F
100
AcDbEntity
  8
GR2_01
 62
     7
100
AcDbText
 10
57.22000122070312
 20
171.7767450506037
 30
0.0
 40
1.515151515151515
  1
ＣＯＭ　
 41
0.7615384615384615
  7
ＭＳ_ゴシック
 11
57.22000122070312
 21
171.4999694824219
 31
0.0
100
AcDbText
 73
     1
  0
TEXT
  5
12C
330
1F
100
AcDbEntity
  8
GR2_01
 62
     7
100
AcDbText
 10
57.22000122070312
 20
169.2767450506037
 30
0.0
 40
1.515151515151515
  1
　２
 41
0.7615384615384615
  7
ＭＳ_ゴシック
 11
57.22000122070312
 21
168.9999694824219
 31
0.0
100
AcDbText
 73
     1
  0
TEXT
  5
12D
330
1F
100
AcDbEntity
  8
GR2_01
 62
     7
100
AcDbText
 10
183.1767843839374
 20
175.2499694824219
 30
0.0
 40
0.9090909452149363
  1
８４５３６８６５－００２
 50
90.0
 41
0.6346153593980359
  7
ＭＳ_ゴシック
 72
     1
 11
183.3428497314453
 21
179.7499694824219
 31
0.0
100
AcDbText
 73
     1
  0
TEXT
  5
12E
330
1F
100
AcDbEntity
  8
GR2_01
 62
     7
100
AcDbText
 10
40.31500244140625
 20
240.7075664173473
 30
0.0
 40
1.136363636363636
  1
２４Ｖ
 41
0.676923076923077
  7
ＭＳ_ゴシック
 11
40.31500244140625
 21
240.4999847412109
 31
0.0
100
AcDbText
 73
     1
  0
TEXT
  5
12F
330
1F
100
AcDbEntity
  8
GR2_01
 62
     7
100
AcDbText
 10
40.31500244140625
 20
242.4575511585582
 30
0.0
 40
1.136363636363636
  1
ＤＣ　
 41
0.676923076923077
  7
ＭＳ_ゴシック
 11
40.31500244140625
 21
242.2499694824219
 31
0.0
100
AcDbText
 73
     1
  0
TEXT
  5
130
330
1F
100
AcDbEntity
  8
GR2_01
 62
     7
100
AcDbText
 10
44.625
 20
240.7075664173473
 30
0.0
 40
1.136363636363636
  1
０Ｖ
 41
0.676923076923077
  7
ＭＳ_ゴシック
 11
44.625
 21
240.4999847412109
 31
0.0
100
AcDbText
 73
     1
  0
TEXT
  5
131
330
1F
100
AcDbEntity
  8
GR2_01
 62
     7
100
AcDbText
 10
44.625
 20
242.4575511585582
 30
0.0
 40
1.136363636363636
  1
ＤＣ
 41
0.676923076923077
  7
ＭＳ_ゴシック
 11
44.625
 21
242.2499694824219
 31
0.0
100
AcDbText
 73
     1
  0
TEXT
  5
132
330
1F
100
AcDbEntity
  8
GR2_01
 62
     7
100
AcDbText
 10
55.614990234375
 20
241.4318029230291
 30
0.0
 40
1.136363636363636
  1
Ｘ０
 41
0.676923076923077
  7
ＭＳ_ゴシック
 72
     1
 11
56.614990234375
 21
241.9999847412109
 31
0.0
100
AcDbText
 73
     2
  0
TEXT
  5
133
330
1F
100
AcDbEntity
  8
GR2_01
 62
     7
100
AcDbText
 10
59.92498779296875
 20
240.7075664173473
 30
0.0
 40
1.136363636363636
  1
２
 41
0.676923076923077
  7
ＭＳ_ゴシック
 72
     1
 11
60.42498779296875
 21
240.4999847412109
 31
0.0
100
AcDbText
 73
     1
  0
TEXT
  5
134
330
1F
100
AcDbEntity
  8
GR2_01
 62
     7
100
AcDbText
 10
58.92498779296875
 20
242.4575664173473
 30
0.0
 40
1.136363636363636
  1
ＣＯＭ
 41
0.676923076923077
  7
ＭＳ_ゴシック
 72
     1
 11
60.42498779296875
 21
242.2499847412109
 31
0.0
100
AcDbText
 73
     1
  0
TEXT
  5
135
330
1F
100
AcDbEntity
  8
GR2_01
 62
     7
100
AcDbText
 10
39.20999034534801
 20
225.3999698162079
 30
0.0
 40
1.136363636363636
  1
ＦＡ－ＴＨ１６Ｘ２００Ａ３１
 50
90.0
 41
0.8799999677217926
  7
ＭＳ_ゴシック
 72
     1
 11
39.41757202148438
 21
234.4999694824219
 31
0.0
100
AcDbText
 73
     1
  0
LINE
  5
136
330
1F
100
AcDbEntity
  8
GR2_01
 62
     7
100
AcDbLine
 10
119.48
 20
245.0
 30
0.0
 11
119.48
 21
224.0000000000001
 31
0.0
  0
LINE
  5
137
330
1F
100
AcDbEntity
  8
GR2_01
 62
     7
100
AcDbLine
 10
123.29
 20
245.0
 30
0.0
 11
123.29
 21
224.0000000000001
 31
0.0
  0
LINE
  5
138
330
1F
100
AcDbEntity
  8
GR2_01
 62
     7
100
AcDbLine
 10
127.0999999999999
 20
245.0
 30
0.0
 11
127.0999999999999
 21
224.0000000000001
 31
0.0
  0
LINE
  5
139
330
1F
100
AcDbEntity
  8
GR2_01
 62
     7
100
AcDbLine
 10
130.9099999999999
 20
245.0
 30
0.0
 11
130.9099999999999
 21
224.0000000000001
 31
0.0
  0
LINE
  5
13A
330
1F
100
AcDbEntity
  8
GR2_01
 62
     7
100
AcDbLine
 10
134.7199999999999
 20
245.0
 30
0.0
 11
134.7199999999999
 21
224.0000000000001
 31
0.0
  0
LINE
  5
13B
330
1F
100
AcDbEntity
  8
GR2_01
 62
     7
100
AcDbLine
 10
138.5299999999999
 20
245.0
 30
0.0
 11
138.5299999999999
 21
224.0000000000001
 31
0.0
  0
LINE
  5
13C
330
1F
100
AcDbEntity
  8
GR2_01
 62
     7
100
AcDbLine
 10
142.3399999999998
 20
245.0
 30
0.0
 11
142.3399999999998
 21
224.0000000000001
 31
0.0
  0
LINE
  5
13D
330
1F
100
AcDbEntity
  8
GR2_01
 62
     7
100
AcDbLine
 10
146.1499999999998
 20
245.0
 30
0.0
 11
146.1499999999998
 21
224.0000000000001
 31
0.0
  0
LINE
  5
13E
330
1F
100
AcDbEntity
  8
GR2_01
 62
     7
100
AcDbLine
 10
149.9599999999998
 20
245.0
 30
0.0
 11
149.9599999999998
 21
224.0000000000001
 31
0.0
  0
LINE
  5
13F
330
1F
100
AcDbEntity
  8
GR2_01
 62
     7
100
AcDbLine
 10
153.7699999999998
 20
245.0
 30
0.0
 11
153.7699999999998
 21
224.0000000000001
 31
0.0
  0
LINE
  5
140
330
1F
100
AcDbEntity
  8
GR2_01
 62
     7
100
AcDbLine
 10
157.5799999999997
 20
245.0
 30
0.0
 11
157.5799999999997
 21
224.0000000000001
 31
0.0
  0
LINE
  5
141
330
1F
100
AcDbEntity
  8
GR2_01
 62
     7
100
AcDbLine
 10
161.1873415259251
 20
245.0
 30
0.0
 11
161.1873415259251
 21
224.0000000000001
 31
0.0
  0
LINE
  5
142
330
1F
100
AcDbEntity
  8
GR2_01
 62
     7
100
AcDbLine
 10
164.9973415259251
 20
245.0
 30
0.0
 11
164.9973415259251
 21
224.0000000000001
 31
0.0
  0
LINE
  5
143
330
1F
100
AcDbEntity
  8
GR2_01
 62
     7
100
AcDbLine
 10
176.427341525925
 20
245.0
 30
0.0
 11
176.427341525925
 21
224.0000000000001
 31
0.0
  0
LINE
  5
144
330
1F
100
AcDbEntity
  8
GR2_01
 62
     7
100
AcDbLine
 10
120.6849999999999
 20
185.0
 30
0.0
 11
120.6849999999999
 21
174.5
 31
0.0
  0
LINE
  5
145
330
1F
100
AcDbEntity
  8
GR2_01
 62
     7
100
AcDbLine
 10
117.1799999999999
 20
174.5
 30
0.0
 11
117.1799999999999
 21
164.0
 31
0.0
  0
TEXT
  5
146
330
1F
100
AcDbEntity
  8
GR2_01
 62
     7
100
AcDbText
 10
121.6850128173828
 20
182.2767297918146
 30
0.0
 40
1.515151515151515
  1
Ｘ１
 41
0.7615384615384615
  7
ＭＳ_ゴシック
 11
121.6850128173828
 21
181.9999542236328
 31
0.0
100
AcDbText
 73
     1
  0
LINE
  5
147
330
1F
100
AcDbEntity
  8
GR2_01
 62
     7
100
AcDbLine
 10
128.3049999999999
 20
185.0
 30
0.0
 11
128.3049999999999
 21
174.5
 31
0.0
  0
LINE
  5
148
330
1F
100
AcDbEntity
  8
GR2_01
 62
     7
100
AcDbLine
 10
124.8
 20
174.5
 30
0.0
 11
124.8
 21
164.0
 31
0.0
  0
TEXT
  5
149
330
1F
100
AcDbEntity
  8
GR2_01
 62
     7
100
AcDbText
 10
129.3049926757812
 20
182.2767297918146
 30
0.0
 40
1.515151515151515
  1
Ｘ２
 41
0.7615384615384615
  7
ＭＳ_ゴシック
 11
129.3049926757812
 21
181.9999542236328
 31
0.0
100
AcDbText
 73
     1
  0
LINE
  5
14A
330
1F
100
AcDbEntity
  8
GR2_01
 62
     7
100
AcDbLine
 10
135.925
 20
185.0
 30
0.0
 11
135.925
 21
174.5
 31
0.0
  0
LINE
  5
14B
330
1F
100
AcDbEntity
  8
GR2_01
 62
     7
100
AcDbLine
 10
132.42
 20
174.5
 30
0.0
 11
132.42
 21
164.0
 31
0.0
  0
TEXT
  5
14C
330
1F
100
AcDbEntity
  8
GR2_01
 62
     7
100
AcDbText
 10
136.9249877929688
 20
182.2767297918146
 30
0.0
 40
1.515151515151515
  1
Ｘ３
 41
0.7615384615384615
  7
ＭＳ_ゴシック
 11
136.9249877929688
 21
181.9999542236328
 31
0.0
100
AcDbText
 73
     1
  0
LINE
  5
14D
330
1F
100
AcDbEntity
  8
GR2_01
 62
     7
100
AcDbLine
 10
143.545
 20
185.0
 30
0.0
 11
143.545
 21
174.5
 31
0.0
  0
LINE
  5
14E
330
1F
100
AcDbEntity
  8
GR2_01
 62
     7
100
AcDbLine
 10
140.04
 20
174.5
 30
0.0
 11
140.04
 21
164.0
 31
0.0
  0
TEXT
  5
14F
330
1F
100
AcDbEntity
  8
GR2_01
 62
     7
100
AcDbText
 10
144.5449829101562
 20
182.2767297918146
 30
0.0
 40
1.515151515151515
  1
Ｘ４
 41
0.7615384615384615
  7
ＭＳ_ゴシック
 11
144.5449829101562
 21
181.9999542236328
 31
0.0
100
AcDbText
 73
     1
  0
LINE
  5
150
330
1F
100
AcDbEntity
  8
GR2_01
 62
     7
100
AcDbLine
 10
151.165
 20
185.0
 30
0.0
 11
151.165
 21
174.5
 31
0.0
  0
LINE
  5
151
330
1F
100
AcDbEntity
  8
GR2_01
 62
     7
100
AcDbLine
 10
147.66
 20
174.5
 30
0.0
 11
147.66
 21
164.0
 31
0.0
  0
TEXT
  5
152
330
1F
100
AcDbEntity
  8
GR2_01
 62
     7
100
AcDbText
 10
152.1650238037109
 20
182.2767297918146
 30
0.0
 40
1.515151515151515
  1
Ｘ５
 41
0.7615384615384615
  7
ＭＳ_ゴシック
 11
152.1650238037109
 21
181.9999542236328
 31
0.0
100
AcDbText
 73
     1
  0
LINE
  5
153
330
1F
100
AcDbEntity
  8
GR2_01
 62
     7
100
AcDbLine
 10
158.785
 20
185.0
 30
0.0
 11
158.785
 21
174.5
 31
0.0
  0
LINE
  5
154
330
1F
100
AcDbEntity
  8
GR2_01
 62
     7
100
AcDbLine
 10
155.28
 20
174.5
 30
0.0
 11
155.28
 21
164.0
 31
0.0
  0
TEXT
  5
155
330
1F
100
AcDbEntity
  8
GR2_01
 62
     7
100
AcDbText
 10
159.7850189208984
 20
182.2767297918146
 30
0.0
 40
1.515151515151515
  1
Ｘ６
 41
0.7615384615384615
  7
ＭＳ_ゴシック
 11
159.7850189208984
 21
181.9999542236328
 31
0.0
100
AcDbText
 73
     1
  0
LINE
  5
156
330
1F
100
AcDbEntity
  8
GR2_01
 62
     7
100
AcDbLine
 10
174.025
 20
185.0
 30
0.0
 11
174.025
 21
174.5
 31
0.0
  0
LINE
  5
157
330
1F
100
AcDbEntity
  8
GR2_01
 62
     7
100
AcDbLine
 10
162.9
 20
174.5
 30
0.0
 11
162.9
 21
164.0
 31
0.0
  0
TEXT
  5
158
330
1F
100
AcDbEntity
  8
GR2_01
 62
     7
100
AcDbText
 10
175.0250091552734
 20
182.2767297918146
 30
0.0
 40
1.515151515151515
  1
ＣＯＭ　
 41
0.7615384615384615
  7
ＭＳ_ゴシック
 11
175.0250091552734
 21
181.9999542236328
 31
0.0
100
AcDbText
 73
     1
  0
TEXT
  5
159
330
1F
100
AcDbEntity
  8
GR2_01
 62
     7
100
AcDbText
 10
175.0250091552734
 20
179.7767450506037
 30
0.0
 40
1.515151515151515
  1
　１
 41
0.7615384615384615
  7
ＭＳ_ゴシック
 11
175.0250091552734
 21
179.4999694824219
 31
0.0
100
AcDbText
 73
     1
  0
LINE
  5
15A
330
1F
100
AcDbEntity
  8
GR2_01
 62
     7
100
AcDbLine
 10
166.405
 20
185.0
 30
0.0
 11
166.405
 21
174.5
 31
0.0
  0
TEXT
  5
15B
330
1F
100
AcDbEntity
  8
GR2_01
 62
     7
100
AcDbText
 10
167.4050140380859
 20
182.2767297918146
 30
0.0
 40
1.515151515151515
  1
Ｘ７
 41
0.7615384615384615
  7
ＭＳ_ゴシック
 11
167.4050140380859
 21
181.9999542236328
 31
0.0
100
AcDbText
 73
     1
  0
LINE
  5
15C
330
1F
100
AcDbEntity
  8
GR2_01
 62
     7
100
AcDbLine
 10
170.5200000000001
 20
174.5
 30
0.0
 11
170.5200000000001
 21
164.0
 31
0.0
  0
LINE
  5
15D
330
1F
100
AcDbEntity
  8
GR2_01
 62
     7
100
AcDbLine
 10
168.8073415259251
 20
245.0
 30
0.0
 11
168.8073415259251
 21
224.0000000000001
 31
0.0
  0
LINE
  5
15E
330
1F
100
AcDbEntity
  8
GR2_01
 62
     7
100
AcDbLine
 10
172.617341525925
 20
245.0
 30
0.0
 11
172.617341525925
 21
224.0000000000001
 31
0.0
  0
TEXT
  5
15F
330
1F
100
AcDbEntity
  8
GR2_01
 62
     7
100
AcDbText
 10
63.2349853515625
 20
241.4318029230291
 30
0.0
 40
1.136363636363636
  1
Ｘ１
 41
0.676923076923077
  7
ＭＳ_ゴシック
 72
     1
 11
64.2349853515625
 21
241.9999847412109
 31
0.0
100
AcDbText
 73
     2
  0
TEXT
  5
160
330
1F
100
AcDbEntity
  8
GR2_01
 62
     7
100
AcDbText
 10
67.54501342773438
 20
240.7075664173473
 30
0.0
 40
1.136363636363636
  1
２
 41
0.676923076923077
  7
ＭＳ_ゴシック
 72
     1
 11
68.04501342773438
 21
240.4999847412109
 31
0.0
100
AcDbText
 73
     1
  0
TEXT
  5
161
330
1F
100
AcDbEntity
  8
GR2_01
 62
     7
100
AcDbText
 10
66.54501342773438
 20
242.4575664173473
 30
0.0
 40
1.136363636363636
  1
ＣＯＭ
 41
0.676923076923077
  7
ＭＳ_ゴシック
 72
     1
 11
68.04501342773438
 21
242.2499847412109
 31
0.0
100
AcDbText
 73
     1
  0
TEXT
  5
162
330
1F
100
AcDbEntity
  8
GR2_01
 62
     7
100
AcDbText
 10
70.85498046875
 20
241.4318029230291
 30
0.0
 40
1.136363636363636
  1
Ｘ２
 41
0.676923076923077
  7
ＭＳ_ゴシック
 72
     1
 11
71.85498046875
 21
241.9999847412109
 31
0.0
100
AcDbText
 73
     2
  0
TEXT
  5
163
330
1F
100
AcDbEntity
  8
GR2_01
 62
     7
100
AcDbText
 10
75.16500854492188
 20
240.7075664173473
 30
0.0
 40
1.136363636363636
  1
２
 41
0.676923076923077
  7
ＭＳ_ゴシック
 72
     1
 11
75.66500854492188
 21
240.4999847412109
 31
0.0
100
AcDbText
 73
     1
  0
TEXT
  5
164
330
1F
100
AcDbEntity
  8
GR2_01
 62
     7
100
AcDbText
 10
74.16500854492188
 20
242.4575664173473
 30
0.0
 40
1.136363636363636
  1
ＣＯＭ
 41
0.676923076923077
  7
ＭＳ_ゴシック
 72
     1
 11
75.66500854492188
 21
242.2499847412109
 31
0.0
100
AcDbText
 73
     1
  0
TEXT
  5
165
330
1F
100
AcDbEntity
  8
GR2_01
 62
     7
100
AcDbText
 10
78.47500610351562
 20
241.4318029230291
 30
0.0
 40
1.136363636363636
  1
Ｘ３
 41
0.676923076923077
  7
ＭＳ_ゴシック
 72
     1
 11
79.47500610351562
 21
241.9999847412109
 31
0.0
100
AcDbText
 73
     2
  0
TEXT
  5
166
330
1F
100
AcDbEntity
  8
GR2_01
 62
     7
100
AcDbText
 10
82.78500366210938
 20
240.7075664173473
 30
0.0
 40
1.136363636363636
  1
２
 41
0.676923076923077
  7
ＭＳ_ゴシック
 72
     1
 11
83.28500366210938
 21
240.4999847412109
 31
0.0
100
AcDbText
 73
     1
  0
TEXT
  5
167
330
1F
100
AcDbEntity
  8
GR2_01
 62
     7
100
AcDbText
 10
81.78500366210938
 20
242.4575664173473
 30
0.0
 40
1.136363636363636
  1
ＣＯＭ
 41
0.676923076923077
  7
ＭＳ_ゴシック
 72
     1
 11
83.28500366210938
 21
242.2499847412109
 31
0.0
100
AcDbText
 73
     1
  0
TEXT
  5
168
330
1F
100
AcDbEntity
  8
GR2_01
 62
     7
100
AcDbText
 10
86.09500122070312
 20
241.4318029230291
 30
0.0
 40
1.136363636363636
  1
Ｘ４
 41
0.676923076923077
  7
ＭＳ_ゴシック
 72
     1
 11
87.09500122070312
 21
241.9999847412109
 31
0.0
100
AcDbText
 73
     2
  0
TEXT
  5
169
330
1F
100
AcDbEntity
  8
GR2_01
 62
     7
100
AcDbText
 10
90.40499877929688
 20
240.7075664173473
 30
0.0
 40
1.136363636363636
  1
２
 41
0.676923076923077
  7
ＭＳ_ゴシック
 72
     1
 11
90.90499877929688
 21
240.4999847412109
 31
0.0
100
AcDbText
 73
     1
  0
TEXT
  5
16A
330
1F
100
AcDbEntity
  8
GR2_01
 62
     7
100
AcDbText
 10
89.40499877929688
 20
242.4575664173473
 30
0.0
 40
1.136363636363636
  1
ＣＯＭ
 41
0.676923076923077
  7
ＭＳ_ゴシック
 72
     1
 11
90.90499877929688
 21
242.2499847412109
 31
0.0
100
AcDbText
 73
     1
  0
TEXT
  5
16B
330
1F
100
AcDbEntity
  8
GR2_01
 62
     7
100
AcDbText
 10
93.71499633789062
 20
241.4318029230291
 30
0.0
 40
1.136363636363636
  1
Ｘ５
 41
0.676923076923077
  7
ＭＳ_ゴシック
 72
     1
 11
94.71499633789062
 21
241.9999847412109
 31
0.0
100
AcDbText
 73
     2
  0
TEXT
  5
16C
330
1F
100
AcDbEntity
  8
GR2_01
 62
     7
100
AcDbText
 10
98.02499389648438
 20
240.7075664173473
 30
0.0
 40
1.136363636363636
  1
２
 41
0.676923076923077
  7
ＭＳ_ゴシック
 72
     1
 11
98.52499389648438
 21
240.4999847412109
 31
0.0
100
AcDbText
 73
     1
  0
TEXT
  5
16D
330
1F
100
AcDbEntity
  8
GR2_01
 62
     7
100
AcDbText
 10
97.02499389648438
 20
242.4575664173473
 30
0.0
 40
1.136363636363636
  1
ＣＯＭ
 41
0.676923076923077
  7
ＭＳ_ゴシック
 72
     1
 11
98.52499389648438
 21
242.2499847412109
 31
0.0
100
AcDbText
 73
     1
  0
TEXT
  5
16E
330
1F
100
AcDbEntity
  8
GR2_01
 62
     7
100
AcDbText
 10
101.3349914550781
 20
241.4318029230291
 30
0.0
 40
1.136363636363636
  1
Ｘ６
 41
0.676923076923077
  7
ＭＳ_ゴシック
 72
     1
 11
102.3349914550781
 21
241.9999847412109
 31
0.0
100
AcDbText
 73
     2
  0
TEXT
  5
16F
330
1F
100
AcDbEntity
  8
GR2_01
 62
     7
100
AcDbText
 10
105.6449890136719
 20
240.7075664173473
 30
0.0
 40
1.136363636363636
  1
２
 41
0.676923076923077
  7
ＭＳ_ゴシック
 72
     1
 11
106.1449890136719
 21
240.4999847412109
 31
0.0
100
AcDbText
 73
     1
  0
TEXT
  5
170
330
1F
100
AcDbEntity
  8
GR2_01
 62
     7
100
AcDbText
 10
104.6449890136719
 20
242.4575664173473
 30
0.0
 40
1.136363636363636
  1
ＣＯＭ
 41
0.676923076923077
  7
ＭＳ_ゴシック
 72
     1
 11
106.1449890136719
 21
242.2499847412109
 31
0.0
100
AcDbText
 73
     1
  0
TEXT
  5
171
330
1F
100
AcDbEntity
  8
GR2_01
 62
     7
100
AcDbText
 10
108.9550018310547
 20
241.4318029230291
 30
0.0
 40
1.136363636363636
  1
Ｘ７
 41
0.676923076923077
  7
ＭＳ_ゴシック
 72
     1
 11
109.9550018310547
 21
241.9999847412109
 31
0.0
100
AcDbText
 73
     2
  0
TEXT
  5
172
330
1F
100
AcDbEntity
  8
GR2_01
 62
     7
100
AcDbText
 10
113.2649993896484
 20
240.7075664173473
 30
0.0
 40
1.136363636363636
  1
２
 41
0.676923076923077
  7
ＭＳ_ゴシック
 72
     1
 11
113.7649993896484
 21
240.4999847412109
 31
0.0
100
AcDbText
 73
     1
  0
TEXT
  5
173
330
1F
100
AcDbEntity
  8
GR2_01
 62
     7
100
AcDbText
 10
112.2649993896484
 20
242.4575664173473
 30
0.0
 40
1.136363636363636
  1
ＣＯＭ
 41
0.676923076923077
  7
ＭＳ_ゴシック
 72
     1
 11
113.7649993896484
 21
242.2499847412109
 31
0.0
100
AcDbText
 73
     1
  0
TEXT
  5
174
330
1F
100
AcDbEntity
  8
GR2_01
 62
     7
100
AcDbText
 10
116.5749969482422
 20
241.4318029230291
 30
0.0
 40
1.136363636363636
  1
Ｘ０
 41
0.676923076923077
  7
ＭＳ_ゴシック
 72
     1
 11
117.5749969482422
 21
241.9999847412109
 31
0.0
100
AcDbText
 73
     2
  0
TEXT
  5
175
330
1F
100
AcDbEntity
  8
GR2_01
 62
     7
100
AcDbText
 10
120.8849945068359
 20
240.7075664173473
 30
0.0
 40
1.136363636363636
  1
２
 41
0.676923076923077
  7
ＭＳ_ゴシック
 72
     1
 11
121.3849945068359
 21
240.4999847412109
 31
0.0
100
AcDbText
 73
     1
  0
TEXT
  5
176
330
1F
100
AcDbEntity
  8
GR2_01
 62
     7
100
AcDbText
 10
119.8849945068359
 20
242.4575664173473
 30
0.0
 40
1.136363636363636
  1
ＣＯＭ
 41
0.676923076923077
  7
ＭＳ_ゴシック
 72
     1
 11
121.3849945068359
 21
242.2499847412109
 31
0.0
100
AcDbText
 73
     1
  0
TEXT
  5
177
330
1F
100
AcDbEntity
  8
GR2_01
 62
     7
100
AcDbText
 10
124.1949920654297
 20
241.4318029230291
 30
0.0
 40
1.136363636363636
  1
Ｘ１
 41
0.676923076923077
  7
ＭＳ_ゴシック
 72
     1
 11
125.1949920654297
 21
241.9999847412109
 31
0.0
100
AcDbText
 73
     2
  0
TEXT
  5
178
330
1F
100
AcDbEntity
  8
GR2_01
 62
     7
100
AcDbText
 10
128.5049743652344
 20
240.7075664173473
 30
0.0
 40
1.136363636363636
  1
２
 41
0.676923076923077
  7
ＭＳ_ゴシック
 72
     1
 11
129.0049743652344
 21
240.4999847412109
 31
0.0
100
AcDbText
 73
     1
  0
TEXT
  5
179
330
1F
100
AcDbEntity
  8
GR2_01
 62
     7
100
AcDbText
 10
127.5049743652344
 20
242.4575664173473
 30
0.0
 40
1.136363636363636
  1
ＣＯＭ
 41
0.676923076923077
  7
ＭＳ_ゴシック
 72
     1
 11
129.0049743652344
 21
242.2499847412109
 31
0.0
100
AcDbText
 73
     1
  0
TEXT
  5
17A
330
1F
100
AcDbEntity
  8
GR2_01
 62
     7
100
AcDbText
 10
131.8149719238281
 20
241.4318029230291
 30
0.0
 40
1.136363636363636
  1
Ｘ２
 41
0.676923076923077
  7
ＭＳ_ゴシック
 72
     1
 11
132.8149719238281
 21
241.9999847412109
 31
0.0
100
AcDbText
 73
     2
  0
TEXT
  5
17B
330
1F
100
AcDbEntity
  8
GR2_01
 62
     7
100
AcDbText
 10
136.125
 20
240.7075664173473
 30
0.0
 40
1.136363636363636
  1
２
 41
0.676923076923077
  7
ＭＳ_ゴシック
 72
     1
 11
136.625
 21
240.4999847412109
 31
0.0
100
AcDbText
 73
     1
  0
TEXT
  5
17C
330
1F
100
AcDbEntity
  8
GR2_01
 62
     7
100
AcDbText
 10
135.125
 20
242.4575664173473
 30
0.0
 40
1.136363636363636
  1
ＣＯＭ
 41
0.676923076923077
  7
ＭＳ_ゴシック
 72
     1
 11
136.625
 21
242.2499847412109
 31
0.0
100
AcDbText
 73
     1
  0
TEXT
  5
17D
330
1F
100
AcDbEntity
  8
GR2_01
 62
     7
100
AcDbText
 10
139.4349975585938
 20
241.4318029230291
 30
0.0
 40
1.136363636363636
  1
Ｘ３
 41
0.676923076923077
  7
ＭＳ_ゴシック
 72
     1
 11
140.4349975585938
 21
241.9999847412109
 31
0.0
100
AcDbText
 73
     2
  0
TEXT
  5
17E
330
1F
100
AcDbEntity
  8
GR2_01
 62
     7
100
AcDbText
 10
143.7449951171875
 20
240.7075664173473
 30
0.0
 40
1.136363636363636
  1
２
 41
0.676923076923077
  7
ＭＳ_ゴシック
 72
     1
 11
144.2449951171875
 21
240.4999847412109
 31
0.0
100
AcDbText
 73
     1
  0
TEXT
  5
17F
330
1F
100
AcDbEntity
  8
GR2_01
 62
     7
100
AcDbText
 10
142.7449951171875
 20
242.4575664173473
 30
0.0
 40
1.136363636363636
  1
ＣＯＭ
 41
0.676923076923077
  7
ＭＳ_ゴシック
 72
     1
 11
144.2449951171875
 21
242.2499847412109
 31
0.0
100
AcDbText
 73
     1
  0
TEXT
  5
180
330
1F
100
AcDbEntity
  8
GR2_01
 62
     7
100
AcDbText
 10
147.0549926757812
 20
241.4318029230291
 30
0.0
 40
1.136363636363636
  1
Ｘ４
 41
0.676923076923077
  7
ＭＳ_ゴシック
 72
     1
 11
148.0549926757812
 21
241.9999847412109
 31
0.0
100
AcDbText
 73
     2
  0
TEXT
  5
181
330
1F
100
AcDbEntity
  8
GR2_01
 62
     7
100
AcDbText
 10
151.3650054931641
 20
240.7075664173473
 30
0.0
 40
1.136363636363636
  1
２
 41
0.676923076923077
  7
ＭＳ_ゴシック
 72
     1
 11
151.8650054931641
 21
240.4999847412109
 31
0.0
100
AcDbText
 73
     1
  0
TEXT
  5
182
330
1F
100
AcDbEntity
  8
GR2_01
 62
     7
100
AcDbText
 10
150.3650054931641
 20
242.4575664173473
 30
0.0
 40
1.136363636363636
  1
ＣＯＭ
 41
0.676923076923077
  7
ＭＳ_ゴシック
 72
     1
 11
151.8650054931641
 21
242.2499847412109
 31
0.0
100
AcDbText
 73
     1
  0
TEXT
  5
183
330
1F
100
AcDbEntity
  8
GR2_01
 62
     7
100
AcDbText
 10
154.6750030517578
 20
241.4318029230291
 30
0.0
 40
1.136363636363636
  1
Ｘ５
 41
0.676923076923077
  7
ＭＳ_ゴシック
 72
     1
 11
155.6750030517578
 21
241.9999847412109
 31
0.0
100
AcDbText
 73
     2
  0
TEXT
  5
184
330
1F
100
AcDbEntity
  8
GR2_01
 62
     7
100
AcDbText
 10
158.9850006103516
 20
240.7075664173473
 30
0.0
 40
1.136363636363636
  1
２
 41
0.676923076923077
  7
ＭＳ_ゴシック
 72
     1
 11
159.4850006103516
 21
240.4999847412109
 31
0.0
100
AcDbText
 73
     1
  0
TEXT
  5
185
330
1F
100
AcDbEntity
  8
GR2_01
 62
     7
100
AcDbText
 10
157.9850006103516
 20
242.4575664173473
 30
0.0
 40
1.136363636363636
  1
ＣＯＭ
 41
0.676923076923077
  7
ＭＳ_ゴシック
 72
     1
 11
159.4850006103516
 21
242.2499847412109
 31
0.0
100
AcDbText
 73
     1
  0
TEXT
  5
186
330
1F
100
AcDbEntity
  8
GR2_01
 62
     7
100
AcDbText
 10
162.0923309326172
 20
241.4318029230291
 30
0.0
 40
1.136363636363636
  1
Ｘ６
 41
0.676923076923077
  7
ＭＳ_ゴシック
 72
     1
 11
163.0923309326172
 21
241.9999847412109
 31
0.0
100
AcDbText
 73
     2
  0
TEXT
  5
187
330
1F
100
AcDbEntity
  8
GR2_01
 62
     7
100
AcDbText
 10
166.4023590087891
 20
240.7075664173473
 30
0.0
 40
1.136363636363636
  1
２
 41
0.676923076923077
  7
ＭＳ_ゴシック
 72
     1
 11
166.9023590087891
 21
240.4999847412109
 31
0.0
100
AcDbText
 73
     1
  0
TEXT
  5
188
330
1F
100
AcDbEntity
  8
GR2_01
 62
     7
100
AcDbText
 10
165.4023590087891
 20
242.4575664173473
 30
0.0
 40
1.136363636363636
  1
ＣＯＭ
 41
0.676923076923077
  7
ＭＳ_ゴシック
 72
     1
 11
166.9023590087891
 21
242.2499847412109
 31
0.0
100
AcDbText
 73
     1
  0
TEXT
  5
189
330
1F
100
AcDbEntity
  8
GR2_01
 62
     7
100
AcDbText
 10
169.7123260498047
 20
241.4318029230291
 30
0.0
 40
1.136363636363636
  1
Ｘ７
 41
0.676923076923077
  7
ＭＳ_ゴシック
 72
     1
 11
170.7123260498047
 21
241.9999847412109
 31
0.0
100
AcDbText
 73
     2
  0
TEXT
  5
18A
330
1F
100
AcDbEntity
  8
GR2_01
 62
     7
100
AcDbText
 10
174.0223541259766
 20
240.7075664173473
 30
0.0
 40
1.136363636363636
  1
２
 41
0.676923076923077
  7
ＭＳ_ゴシック
 72
     1
 11
174.5223541259766
 21
240.4999847412109
 31
0.0
100
AcDbText
 73
     1
  0
TEXT
  5
18B
330
1F
100
AcDbEntity
  8
GR2_01
 62
     7
100
AcDbText
 10
173.0223541259766
 20
242.4575664173473
 30
0.0
 40
1.136363636363636
  1
ＣＯＭ
 41
0.676923076923077
  7
ＭＳ_ゴシック
 72
     1
 11
174.5223541259766
 21
242.2499847412109
 31
0.0
100
AcDbText
 73
     1
  0
TEXT
  5
18C
330
1F
100
AcDbEntity
  8
GR2_01
 62
     7
100
AcDbText
 10
181.6423492431641
 20
240.7075664173473
 30
0.0
 40
1.136363636363636
  1
２
 41
0.676923076923077
  7
ＭＳ_ゴシック
 72
     1
 11
182.1423492431641
 21
240.4999847412109
 31
0.0
100
AcDbText
 73
     1
  0
TEXT
  5
18D
330
1F
100
AcDbEntity
  8
GR2_01
 62
     7
100
AcDbText
 10
180.6423492431641
 20
242.4575664173473
 30
0.0
 40
1.136363636363636
  1
ＣＯＭ
 41
0.676923076923077
  7
ＭＳ_ゴシック
 72
     1
 11
182.1423492431641
 21
242.2499847412109
 31
0.0
100
AcDbText
 73
     1
  0
TEXT
  5
18E
330
1F
100
AcDbEntity
  8
GR2_01
 62
     7
100
AcDbText
 10
177.8323516845703
 20
240.7075664173473
 30
0.0
 40
1.136363636363636
  1
１
 41
0.676923076923077
  7
ＭＳ_ゴシック
 72
     1
 11
178.3323516845703
 21
240.4999847412109
 31
0.0
100
AcDbText
 73
     1
  0
TEXT
  5
18F
330
1F
100
AcDbEntity
  8
GR2_01
 62
     7
100
AcDbText
 10
176.8323516845703
 20
242.4575664173473
 30
0.0
 40
1.136363636363636
  1
ＣＯＭ
 41
0.676923076923077
  7
ＭＳ_ゴシック
 72
     1
 11
178.3323516845703
 21
242.2499847412109
 31
0.0
100
AcDbText
 73
     1
  0
TEXT
  5
190
330
1F
100
AcDbEntity
  8
GR2_01
 62
     7
100
AcDbText
 10
64.84002685546875
 20
171.7767450506037
 30
0.0
 40
1.515151515151515
  1
ＣＯＭ　
 41
0.7615384615384615
  7
ＭＳ_ゴシック
 11
64.84002685546875
 21
171.4999694824219
 31
0.0
100
AcDbText
 73
     1
  0
TEXT
  5
191
330
1F
100
AcDbEntity
  8
GR2_01
 62
     7
100
AcDbText
 10
64.83999633789062
 20
169.2767450506037
 30
0.0
 40
1.515151515151515
  1
　２
 41
0.7615384615384615
  7
ＭＳ_ゴシック
 11
64.83999633789062
 21
168.9999694824219
 31
0.0
100
AcDbText
 73
     1
  0
TEXT
  5
192
330
1F
100
AcDbEntity
  8
GR2_01
 62
     7
100
AcDbText
 10
72.46002197265625
 20
171.7767450506037
 30
0.0
 40
1.515151515151515
  1
ＣＯＭ　
 41
0.7615384615384615
  7
ＭＳ_ゴシック
 11
72.46002197265625
 21
171.4999694824219
 31
0.0
100
AcDbText
 73
     1
  0
TEXT
  5
193
330
1F
100
AcDbEntity
  8
GR2_01
 62
     7
100
AcDbText
 10
72.45999145507812
 20
169.2767450506037
 30
0.0
 40
1.515151515151515
  1
　２
 41
0.7615384615384615
  7
ＭＳ_ゴシック
 11
72.45999145507812
 21
168.9999694824219
 31
0.0
100
AcDbText
 73
     1
  0
TEXT
  5
194
330
1F
100
AcDbEntity
  8
GR2_01
 62
     7
100
AcDbText
 10
80.08001708984375
 20
171.7767450506037
 30
0.0
 40
1.515151515151515
  1
ＣＯＭ　
 41
0.7615384615384615
  7
ＭＳ_ゴシック
 11
80.08001708984375
 21
171.4999694824219
 31
0.0
100
AcDbText
 73
     1
  0
TEXT
  5
195
330
1F
100
AcDbEntity
  8
GR2_01
 62
     7
100
AcDbText
 10
80.08001708984375
 20
169.2767450506037
 30
0.0
 40
1.515151515151515
  1
　２
 41
0.7615384615384615
  7
ＭＳ_ゴシック
 11
80.08001708984375
 21
168.9999694824219
 31
0.0
100
AcDbText
 73
     1
  0
TEXT
  5
196
330
1F
100
AcDbEntity
  8
GR2_01
 62
     7
100
AcDbText
 10
87.70001220703125
 20
171.7767450506037
 30
0.0
 40
1.515151515151515
  1
ＣＯＭ　
 41
0.7615384615384615
  7
ＭＳ_ゴシック
 11
87.70001220703125
 21
171.4999694824219
 31
0.0
100
AcDbText
 73
     1
  0
TEXT
  5
197
330
1F
100
AcDbEntity
  8
GR2_01
 62
     7
100
AcDbText
 10
87.70001220703125
 20
169.2767450506037
 30
0.0
 40
1.515151515151515
  1
　２
 41
0.7615384615384615
  7
ＭＳ_ゴシック
 11
87.70001220703125
 21
168.9999694824219
 31
0.0
100
AcDbText
 73
     1
  0
TEXT
  5
198
330
1F
100
AcDbEntity
  8
GR2_01
 62
     7
100
AcDbText
 10
95.32000732421875
 20
171.7767450506037
 30
0.0
 40
1.515151515151515
  1
ＣＯＭ　
 41
0.7615384615384615
  7
ＭＳ_ゴシック
 11
95.32000732421875
 21
171.4999694824219
 31
0.0
100
AcDbText
 73
     1
  0
TEXT
  5
199
330
1F
100
AcDbEntity
  8
GR2_01
 62
     7
100
AcDbText
 10
95.32000732421875
 20
169.2767450506037
 30
0.0
 40
1.515151515151515
  1
　２
 41
0.7615384615384615
  7
ＭＳ_ゴシック
 11
95.32000732421875
 21
168.9999694824219
 31
0.0
100
AcDbText
 73
     1
  0
TEXT
  5
19A
330
1F
100
AcDbEntity
  8
GR2_01
 62
     7
100
AcDbText
 10
102.9400024414062
 20
171.7767450506037
 30
0.0
 40
1.515151515151515
  1
ＣＯＭ　
 41
0.7615384615384615
  7
ＭＳ_ゴシック
 11
102.9400024414062
 21
171.4999694824219
 31
0.0
100
AcDbText
 73
     1
  0
TEXT
  5
19B
330
1F
100
AcDbEntity
  8
GR2_01
 62
     7
100
AcDbText
 10
102.9400024414062
 20
169.2767450506037
 30
0.0
 40
1.515151515151515
  1
　２
 41
0.7615384615384615
  7
ＭＳ_ゴシック
 11
102.9400024414062
 21
168.9999694824219
 31
0.0
100
AcDbText
 73
     1
  0
TEXT
  5
19C
330
1F
100
AcDbEntity
  8
GR2_01
 62
     7
100
AcDbText
 10
110.5600128173828
 20
171.7767450506037
 30
0.0
 40
1.515151515151515
  1
ＣＯＭ　
 41
0.7615384615384615
  7
ＭＳ_ゴシック
 11
110.5600128173828
 21
171.4999694824219
 31
0.0
100
AcDbText
 73
     1
  0
TEXT
  5
19D
330
1F
100
AcDbEntity
  8
GR2_01
 62
     7
100
AcDbText
 10
110.5600128173828
 20
169.2767450506037
 30
0.0
 40
1.515151515151515
  1
　２
 41
0.7615384615384615
  7
ＭＳ_ゴシック
 11
110.5600128173828
 21
168.9999694824219
 31
0.0
100
AcDbText
 73
     1
  0
TEXT
  5
19E
330
1F
100
AcDbEntity
  8
GR2_01
 62
     7
100
AcDbText
 10
118.1800079345703
 20
171.7767450506037
 30
0.0
 40
1.515151515151515
  1
ＣＯＭ　
 41
0.7615384615384615
  7
ＭＳ_ゴシック
 11
118.1800079345703
 21
171.4999694824219
 31
0.0
100
AcDbText
 73
     1
  0
TEXT
  5
19F
330
1F
100
AcDbEntity
  8
GR2_01
 62
     7
100
AcDbText
 10
118.1800079345703
 20
169.2767450506037
 30
0.0
 40
1.515151515151515
  1
　２
 41
0.7615384615384615
  7
ＭＳ_ゴシック
 11
118.1800079345703
 21
168.9999694824219
 31
0.0
100
AcDbText
 73
     1
  0
TEXT
  5
1A0
330
1F
100
AcDbEntity
  8
GR2_01
 62
     7
100
AcDbText
 10
125.8000030517578
 20
171.7767450506037
 30
0.0
 40
1.515151515151515
  1
ＣＯＭ　
 41
0.7615384615384615
  7
ＭＳ_ゴシック
 11
125.8000030517578
 21
171.4999694824219
 31
0.0
100
AcDbText
 73
     1
  0
TEXT
  5
1A1
330
1F
100
AcDbEntity
  8
GR2_01
 62
     7
100
AcDbText
 10
125.8000030517578
 20
169.2767450506037
 30
0.0
 40
1.515151515151515
  1
　２
 41
0.7615384615384615
  7
ＭＳ_ゴシック
 11
125.8000030517578
 21
168.9999694824219
 31
0.0
100
AcDbText
 73
     1
  0
TEXT
  5
1A2
330
1F
100
AcDbEntity
  8
GR2_01
 62
     7
100
AcDbText
 10
133.4200134277344
 20
171.7767450506037
 30
0.0
 40
1.515151515151515
  1
ＣＯＭ　
 41
0.7615384615384615
  7
ＭＳ_ゴシック
 11
133.4200134277344
 21
171.4999694824219
 31
0.0
100
AcDbText
 73
     1
  0
TEXT
  5
1A3
330
1F
100
AcDbEntity
  8
GR2_01
 62
     7
100
AcDbText
 10
133.4199829101562
 20
169.2767450506037
 30
0.0
 40
1.515151515151515
  1
　２
 41
0.7615384615384615
  7
ＭＳ_ゴシック
 11
133.4199829101562
 21
168.9999694824219
 31
0.0
100
AcDbText
 73
     1
  0
TEXT
  5
1A4
330
1F
100
AcDbEntity
  8
GR2_01
 62
     7
100
AcDbText
 10
141.0400085449219
 20
171.7767450506037
 30
0.0
 40
1.515151515151515
  1
ＣＯＭ　
 41
0.7615384615384615
  7
ＭＳ_ゴシック
 11
141.0400085449219
 21
171.4999694824219
 31
0.0
100
AcDbText
 73
     1
  0
TEXT
  5
1A5
330
1F
100
AcDbEntity
  8
GR2_01
 62
     7
100
AcDbText
 10
141.0400085449219
 20
169.2767450506037
 30
0.0
 40
1.515151515151515
  1
　２
 41
0.7615384615384615
  7
ＭＳ_ゴシック
 11
141.0400085449219
 21
168.9999694824219
 31
0.0
100
AcDbText
 73
     1
  0
TEXT
  5
1A6
330
1F
100
AcDbEntity
  8
GR2_01
 62
     7
100
AcDbText
 10
148.6600036621094
 20
171.7767450506037
 30
0.0
 40
1.515151515151515
  1
ＣＯＭ　
 41
0.7615384615384615
  7
ＭＳ_ゴシック
 11
148.6600036621094
 21
171.4999694824219
 31
0.0
100
AcDbText
 73
     1
  0
TEXT
  5
1A7
330
1F
100
AcDbEntity
  8
GR2_01
 62
     7
100
AcDbText
 10
148.6600036621094
 20
169.2767450506037
 30
0.0
 40
1.515151515151515
  1
　２
 41
0.7615384615384615
  7
ＭＳ_ゴシック
 11
148.6600036621094
 21
168.9999694824219
 31
0.0
100
AcDbText
 73
     1
  0
TEXT
  5
1A8
330
1F
100
AcDbEntity
  8
GR2_01
 62
     7
100
AcDbText
 10
156.2800140380859
 20
171.7767450506037
 30
0.0
 40
1.515151515151515
  1
ＣＯＭ　
 41
0.7615384615384615
  7
ＭＳ_ゴシック
 11
156.2800140380859
 21
171.4999694824219
 31
0.0
100
AcDbText
 73
     1
  0
TEXT
  5
1A9
330
1F
100
AcDbEntity
  8
GR2_01
 62
     7
100
AcDbText
 10
156.2800140380859
 20
169.2767450506037
 30
0.0
 40
1.515151515151515
  1
　２
 41
0.7615384615384615
  7
ＭＳ_ゴシック
 11
156.2800140380859
 21
168.9999694824219
 31
0.0
100
AcDbText
 73
     1
  0
TEXT
  5
1AA
330
1F
100
AcDbEntity
  8
GR2_01
 62
     7
100
AcDbText
 10
163.9000091552734
 20
171.7767450506037
 30
0.0
 40
1.515151515151515
  1
ＣＯＭ　
 41
0.7615384615384615
  7
ＭＳ_ゴシック
 11
163.9000091552734
 21
171.4999694824219
 31
0.0
100
AcDbText
 73
     1
  0
TEXT
  5
1AB
330
1F
100
AcDbEntity
  8
GR2_01
 62
     7
100
AcDbText
 10
163.9000091552734
 20
169.2767450506037
 30
0.0
 40
1.515151515151515
  1
　２
 41
0.7615384615384615
  7
ＭＳ_ゴシック
 11
163.9000091552734
 21
168.9999694824219
 31
0.0
100
AcDbText
 73
     1
  0
TEXT
  5
1AC
330
1F
100
AcDbEntity
  8
GR2_01
 62
     7
100
AcDbText
 10
171.5200042724609
 20
171.7767450506037
 30
0.0
 40
1.515151515151515
  1
ＣＯＭ　
 41
0.7615384615384615
  7
ＭＳ_ゴシック
 11
171.5200042724609
 21
171.4999694824219
 31
0.0
100
AcDbText
 73
     1
  0
TEXT
  5
1AD
330
1F
100
AcDbEntity
  8
GR2_01
 62
     7
100
AcDbText
 10
171.5200042724609
 20
169.2767450506037
 30
0.0
 40
1.515151515151515
  1
　２
 41
0.7615384615384615
  7
ＭＳ_ゴシック
 11
171.5200042724609
 21
168.9999694824219
 31
0.0
100
AcDbText
 73
     1
  0
TEXT
  5
1AE
330
1F
100
AcDbEntity
  8
GR2_01
 62
     7
100
AcDbText
 10
179.1273651123047
 20
171.7767450506037
 30
0.0
 40
1.515151515151515
  1
ＣＯＭ　
 41
0.7615384615384615
  7
ＭＳ_ゴシック
 11
179.1273651123047
 21
171.4999694824219
 31
0.0
100
AcDbText
 73
     1
  0
TEXT
  5
1AF
330
1F
100
AcDbEntity
  8
GR2_01
 62
     7
100
AcDbText
 10
179.1273651123047
 20
169.2767450506037
 30
0.0
 40
1.515151515151515
  1
　２
 41
0.7615384615384615
  7
ＭＳ_ゴシック
 11
179.1273651123047
 21
168.9999694824219
 31
0.0
100
AcDbText
 73
     1
  0
HATCH
  5
1B0
330
1F
100
AcDbEntity
  8
GR2_01
 62
     7
100
AcDbHatch
 10
0.0
 20
0.0
 30
0.0
210
0.0
220
0.0
230
1.0
  2
_USER
 70
     0
 71
     0
 91
        1
 92
        0
 93
        4
 72
     1
 10
54.71000000000001
 20
245.0
 11
47.53
 21
245.0
 72
     1
 10
47.53
 20
245.0
 11
47.53
 21
224.0000000000001
 72
     1
 10
47.53
 20
224.0000000000001
 11
54.71000000000001
 21
224.0
 72
     1
 10
54.71000000000004
 20
224.0000000000001
 11
54.71000000000001
 21
245.0
 97
        0
 75
     0
 76
     0
 52
45.0
 41
0.3
 77
     0
 78
     1
 53
45.0
 43
0.0
 44
0.0
 45
-0.2121320343559642
 46
0.2121320343559643
 79
     0
 98
        0
  0
HATCH
  5
1B1
330
1F
100
AcDbEntity
  8
GR2_01
 62
     7
100
AcDbHatch
 10
0.0
 20
0.0
 30
0.0
210
0.0
220
0.0
230
1.0
  2
_USER
 70
     0
 71
     0
 91
        2
 92
        0
 93
        8
 72
     1
 10
52.10499999999996
 20
185.0
 11
44.92499999999995
 21
185.0
 72
     1
 10
44.92499999999995
 20
185.0
 11
44.92499999999993
 21
174.5
 72
     1
 10
44.92499999999993
 20
174.5
 11
49.03999999999996
 21
174.5
 72
     1
 10
49.03999999999996
 20
174.5
 11
49.03999999999996
 21
164.0000000000001
 72
     1
 10
49.03999999999996
 20
164.0000000000001
 11
56.21999999999994
 21
164.0
 72
     1
 10
56.21999999999997
 20
164.0
 11
56.21999999999997
 21
174.5000000000001
 72
     1
 10
56.21999999999997
 20
174.5000000000001
 11
52.10499999999993
 21
174.5
 72
     1
 10
52.10499999999996
 20
174.5
 11
52.10499999999996
 21
185.0
 97
        0
 92
        0
 93
        5
 72
     1
 10
41.41999999999996
 20
174.5
 11
37.0
 21
174.5
 72
     1
 10
37.0
 20
174.5
 11
37.0
 21
164.0000000000001
 72
     1
 10
37.0
 20
164.0000000000001
 11
41.41999999999996
 21
164.0000000000001
 72
     1
 10
41.41999999999996
 20
164.0
 11
41.41999999999996
 21
170.1912818130058
 72
     1
 10
41.41999999999996
 20
170.1912818130058
 11
41.41999999999996
 21
174.5
 97
        0
 75
     0
 76
     0
 52
45.0
 41
0.3
 77
     0
 78
     1
 53
45.0
 43
0.0
 44
0.0
 45
-0.2121320343559642
 46
0.2121320343559643
 79
     0
 98
        0
  0
LINE
  5
1B2
330
1F
100
AcDbEntity
  8
GR2_01
 62
     7
100
AcDbLine
 10
115.47
 20
245.0
 30
0.0
 11
115.47
 21
224.0000000000001
 31
0.0
  0
LINE
  5
1B3
330
1F
100
AcDbEntity
  8
GR2_01
 62
     7
100
AcDbLine
 10
115.87
 20
245.0
 30
0.0
 11
115.87
 21
224.0000000000001
 31
0.0
  0
LINE
  5
1B4
330
1F
100
AcDbEntity
  8
GR2_01
 62
     7
100
AcDbLine
 10
176.2273415259251
 20
245.0
 30
0.0
 11
176.2273415259251
 21
224.0000000000001
 31
0.0
  0
LINE
  5
1B5
330
1F
100
AcDbEntity
  8
GR2_01
 62
     7
100
AcDbLine
 10
176.627341525925
 20
245.0
 30
0.0
 11
176.627341525925
 21
224.0000000000001
 31
0.0
  0
LINE
  5
1B6
330
1F
100
AcDbEntity
  8
GR2_01
 62
     7
100
AcDbLine
 10
112.865
 20
185.0
 30
0.0
 11
112.8649999999999
 21
174.3
 31
0.0
  0
LINE
  5
1B7
330
1F
100
AcDbEntity
  8
GR2_01
 62
     7
100
AcDbLine
 10
113.2649999999999
 20
185.0
 30
0.0
 11
113.2649999999999
 21
174.7000000000001
 31
0.0
  0
LINE
  5
1B8
330
1F
100
AcDbEntity
  8
GR2_01
 62
     7
100
AcDbLine
 10
116.98
 20
174.3
 30
0.0
 11
116.98
 21
164.0
 31
0.0
  0
LINE
  5
1B9
330
1F
100
AcDbEntity
  8
GR2_01
 62
     7
100
AcDbLine
 10
117.3799999999999
 20
174.7
 30
0.0
 11
117.3799999999999
 21
164.0
 31
0.0
  0
LINE
  5
1BA
330
1F
100
AcDbEntity
  8
GR2_01
 62
     7
100
AcDbLine
 10
113.2649999999999
 20
174.7000000000001
 30
0.0
 11
117.38
 21
174.7
 31
0.0
  0
LINE
  5
1BB
330
1F
100
AcDbEntity
  8
GR2_01
 62
     7
100
AcDbLine
 10
112.865
 20
174.3
 30
0.0
 11
116.98
 21
174.3
 31
0.0
  0
LINE
  5
1BC
330
1F
100
AcDbEntity
  8
GR2_01
 62
     7
100
AcDbLine
 10
173.825
 20
185.0
 30
0.0
 11
173.825
 21
174.3
 31
0.0
  0
LINE
  5
1BD
330
1F
100
AcDbEntity
  8
GR2_01
 62
     7
100
AcDbLine
 10
174.225
 20
185.0
 30
0.0
 11
174.225
 21
174.7000000000001
 31
0.0
  0
LINE
  5
1BE
330
1F
100
AcDbEntity
  8
GR2_01
 62
     7
100
AcDbLine
 10
177.94
 20
174.3
 30
0.0
 11
177.94
 21
164.0
 31
0.0
  0
LINE
  5
1BF
330
1F
100
AcDbEntity
  8
GR2_01
 62
     7
100
AcDbLine
 10
178.34
 20
174.7
 30
0.0
 11
178.34
 21
164.0
 31
0.0
  0
LINE
  5
1C0
330
1F
100
AcDbEntity
  8
GR2_01
 62
     7
100
AcDbLine
 10
174.225
 20
174.7000000000001
 30
0.0
 11
178.34
 21
174.7
 31
0.0
  0
LINE
  5
1C1
330
1F
100
AcDbEntity
  8
GR2_01
 62
     7
100
AcDbLine
 10
173.825
 20
174.3
 30
0.0
 11
177.94
 21
174.3
 31
0.0
  0
LINE
  5
1C2
330
1F
100
AcDbEntity
  8
GR2_01
 62
     7
100
AcDbLine
 10
185.747341525925
 20
125.0
 30
0.0
 11
37.0
 21
125.0
 31
0.0
  0
LINE
  5
1C3
330
1F
100
AcDbEntity
  8
GR2_01
 62
     7
100
AcDbLine
 10
184.047341525925
 20
120.0
 30
0.0
 11
54.71000000000004
 21
119.9999999999999
 31
0.0
  0
LINE
  5
1C4
330
1F
100
AcDbEntity
  8
GR2_01
 62
     7
100
AcDbLine
 10
37.0
 20
125.0
 30
0.0
 11
37.0
 21
104.0
 31
0.0
  0
LINE
  5
1C5
330
1F
100
AcDbEntity
  8
GR2_01
 62
     7
100
AcDbLine
 10
185.747341525925
 20
125.0
 30
0.0
 11
185.747341525925
 21
104.0
 31
0.0
  0
LINE
  5
1C6
330
1F
100
AcDbEntity
  8
GR2_01
 62
     7
100
AcDbLine
 10
39.91000000000003
 20
125.0
 30
0.0
 11
39.91000000000003
 21
104.0
 31
0.0
  0
LINE
  5
1C7
330
1F
100
AcDbEntity
  8
GR2_01
 62
     7
100
AcDbLine
 10
43.72000000000003
 20
125.0
 30
0.0
 11
43.72000000000003
 21
104.0
 31
0.0
  0
LINE
  5
1C8
330
1F
100
AcDbEntity
  8
GR2_01
 62
     7
100
AcDbLine
 10
47.53000000000003
 20
125.0
 30
0.0
 11
47.53000000000003
 21
104.0
 31
0.0
  0
LINE
  5
1C9
330
1F
100
AcDbEntity
  8
GR2_01
 62
     7
100
AcDbLine
 10
54.71000000000004
 20
125.0
 30
0.0
 11
54.71000000000004
 21
104.0
 31
0.0
  0
LINE
  5
1CA
330
1F
100
AcDbEntity
  8
GR2_01
 62
     7
100
AcDbLine
 10
58.52000000000004
 20
125.0
 30
0.0
 11
58.52000000000004
 21
104.0
 31
0.0
  0
LINE
  5
1CB
330
1F
100
AcDbEntity
  8
GR2_01
 62
     7
100
AcDbLine
 10
62.33000000000004
 20
125.0
 30
0.0
 11
62.33000000000004
 21
104.0
 31
0.0
  0
LINE
  5
1CC
330
1F
100
AcDbEntity
  8
GR2_01
 62
     7
100
AcDbLine
 10
66.14000000000004
 20
125.0
 30
0.0
 11
66.14000000000004
 21
104.0
 31
0.0
  0
LINE
  5
1CD
330
1F
100
AcDbEntity
  8
GR2_01
 62
     7
100
AcDbLine
 10
69.95000000000005
 20
125.0
 30
0.0
 11
69.95000000000005
 21
104.0
 31
0.0
  0
LINE
  5
1CE
330
1F
100
AcDbEntity
  8
GR2_01
 62
     7
100
AcDbLine
 10
73.76000000000005
 20
125.0
 30
0.0
 11
73.76000000000005
 21
104.0
 31
0.0
  0
LINE
  5
1CF
330
1F
100
AcDbEntity
  8
GR2_01
 62
     7
100
AcDbLine
 10
77.57000000000005
 20
125.0
 30
0.0
 11
77.57000000000005
 21
104.0
 31
0.0
  0
LINE
  5
1D0
330
1F
100
AcDbEntity
  8
GR2_01
 62
     7
100
AcDbLine
 10
81.38000000000005
 20
125.0
 30
0.0
 11
81.38000000000005
 21
104.0
 31
0.0
  0
LINE
  5
1D1
330
1F
100
AcDbEntity
  8
GR2_01
 62
     7
100
AcDbLine
 10
85.19
 20
125.0
 30
0.0
 11
85.19
 21
104.0
 31
0.0
  0
LINE
  5
1D2
330
1F
100
AcDbEntity
  8
GR2_01
 62
     7
100
AcDbLine
 10
89.0
 20
125.0
 30
0.0
 11
89.0
 21
104.0
 31
0.0
  0
LINE
  5
1D3
330
1F
100
AcDbEntity
  8
GR2_01
 62
     7
100
AcDbLine
 10
92.81
 20
125.0
 30
0.0
 11
92.81
 21
104.0
 31
0.0
  0
LINE
  5
1D4
330
1F
100
AcDbEntity
  8
GR2_01
 62
     7
100
AcDbLine
 10
96.62
 20
125.0
 30
0.0
 11
96.62
 21
104.0
 31
0.0
  0
LINE
  5
1D5
330
1F
100
AcDbEntity
  8
GR2_01
 62
     7
100
AcDbLine
 10
100.43
 20
125.0
 30
0.0
 11
100.43
 21
104.0
 31
0.0
  0
LINE
  5
1D6
330
1F
100
AcDbEntity
  8
GR2_01
 62
     7
100
AcDbLine
 10
104.24
 20
125.0
 30
0.0
 11
104.24
 21
104.0
 31
0.0
  0
LINE
  5
1D7
330
1F
100
AcDbEntity
  8
GR2_01
 62
     7
100
AcDbLine
 10
108.05
 20
125.0
 30
0.0
 11
108.05
 21
104.0
 31
0.0
  0
LINE
  5
1D8
330
1F
100
AcDbEntity
  8
GR2_01
 62
     7
100
AcDbLine
 10
111.86
 20
125.0
 30
0.0
 11
111.86
 21
104.0
 31
0.0
  0
LINE
  5
1D9
330
1F
100
AcDbEntity
  8
GR2_01
 62
     7
100
AcDbLine
 10
115.67
 20
125.0
 30
0.0
 11
115.67
 21
104.0
 31
0.0
  0
LINE
  5
1DA
330
1F
100
AcDbEntity
  8
GR2_01
 62
     7
100
AcDbLine
 10
180.237341525925
 20
125.0
 30
0.0
 11
180.237341525925
 21
104.0
 31
0.0
  0
LINE
  5
1DB
330
1F
100
AcDbEntity
  8
GR2_01
 62
     7
100
AcDbLine
 10
184.047341525925
 20
125.0
 30
0.0
 11
184.047341525925
 21
104.0
 31
0.0
  0
LINE
  5
1DC
330
1F
100
AcDbEntity
  8
GR2_01
 62
     7
100
AcDbLine
 10
47.53000000000003
 20
119.9999999999999
 30
0.0
 11
39.91000000000003
 21
119.9999999999999
 31
0.0
  0
TEXT
  5
1DD
330
1F
100
AcDbEntity
  8
GR2_01
 62
     7
100
AcDbText
 10
40.31500244140625
 20
120.7075740467418
 30
0.0
 40
1.136363636363636
  1
２４Ｖ
 41
0.676923076923077
  7
ＭＳ_ゴシック
 11
40.31500244140625
 21
120.4999923706055
 31
0.0
100
AcDbText
 73
     1
  0
TEXT
  5
1DE
330
1F
100
AcDbEntity
  8
GR2_01
 62
     7
100
AcDbText
 10
40.31500244140625
 20
122.4575587879528
 30
0.0
 40
1.136363636363636
  1
ＤＣ　
 41
0.676923076923077
  7
ＭＳ_ゴシック
 11
40.31500244140625
 21
122.2499771118164
 31
0.0
100
AcDbText
 73
     1
  0
TEXT
  5
1DF
330
1F
100
AcDbEntity
  8
GR2_01
 62
     7
100
AcDbText
 10
44.625
 20
120.7075740467418
 30
0.0
 40
1.136363636363636
  1
０Ｖ
 41
0.676923076923077
  7
ＭＳ_ゴシック
 11
44.625
 21
120.4999923706055
 31
0.0
100
AcDbText
 73
     1
  0
TEXT
  5
1E0
330
1F
100
AcDbEntity
  8
GR2_01
 62
     7
100
AcDbText
 10
44.625
 20
122.4575587879528
 30
0.0
 40
1.136363636363636
  1
ＤＣ
 41
0.676923076923077
  7
ＭＳ_ゴシック
 11
44.625
 21
122.2499771118164
 31
0.0
100
AcDbText
 73
     1
  0
TEXT
  5
1E1
330
1F
100
AcDbEntity
  8
GR2_01
 62
     7
100
AcDbText
 10
55.614990234375
 20
121.4318105524237
 30
0.0
 40
1.136363636363636
  1
Ｘ０
 41
0.676923076923077
  7
ＭＳ_ゴシック
 72
     1
 11
56.614990234375
 21
121.9999923706055
 31
0.0
100
AcDbText
 73
     2
  0
TEXT
  5
1E2
330
1F
100
AcDbEntity
  8
GR2_01
 62
     7
100
AcDbText
 10
59.92498779296875
 20
120.7075740467418
 30
0.0
 40
1.136363636363636
  1
２
 41
0.676923076923077
  7
ＭＳ_ゴシック
 72
     1
 11
60.42498779296875
 21
120.4999923706055
 31
0.0
100
AcDbText
 73
     1
  0
TEXT
  5
1E3
330
1F
100
AcDbEntity
  8
GR2_01
 62
     7
100
AcDbText
 10
58.92498779296875
 20
122.4575740467418
 30
0.0
 40
1.136363636363636
  1
ＣＯＭ
 41
0.676923076923077
  7
ＭＳ_ゴシック
 72
     1
 11
60.42498779296875
 21
122.2499923706055
 31
0.0
100
AcDbText
 73
     1
  0
TEXT
  5
1E4
330
1F
100
AcDbEntity
  8
GR2_01
 62
     7
100
AcDbText
 10
39.20999034534801
 20
105.3999774456024
 30
0.0
 40
1.136363636363636
  1
ＦＡ－ＴＨ１６Ｘ２００Ａ３１
 50
90.0
 41
0.8799999677217926
  7
ＭＳ_ゴシック
 72
     1
 11
39.41757202148438
 21
114.4999771118164
 31
0.0
100
AcDbText
 73
     1
  0
LINE
  5
1E5
330
1F
100
AcDbEntity
  8
GR2_01
 62
     7
100
AcDbLine
 10
119.48
 20
125.0
 30
0.0
 11
119.48
 21
104.0
 31
0.0
  0
LINE
  5
1E6
330
1F
100
AcDbEntity
  8
GR2_01
 62
     7
100
AcDbLine
 10
123.29
 20
125.0
 30
0.0
 11
123.29
 21
104.0
 31
0.0
  0
LINE
  5
1E7
330
1F
100
AcDbEntity
  8
GR2_01
 62
     7
100
AcDbLine
 10
127.0999999999999
 20
125.0
 30
0.0
 11
127.0999999999999
 21
104.0
 31
0.0
  0
LINE
  5
1E8
330
1F
100
AcDbEntity
  8
GR2_01
 62
     7
100
AcDbLine
 10
130.9099999999999
 20
125.0
 30
0.0
 11
130.9099999999999
 21
104.0
 31
0.0
  0
LINE
  5
1E9
330
1F
100
AcDbEntity
  8
GR2_01
 62
     7
100
AcDbLine
 10
134.7199999999999
 20
125.0
 30
0.0
 11
134.7199999999999
 21
104.0
 31
0.0
  0
LINE
  5
1EA
330
1F
100
AcDbEntity
  8
GR2_01
 62
     7
100
AcDbLine
 10
138.5299999999999
 20
125.0
 30
0.0
 11
138.5299999999999
 21
104.0
 31
0.0
  0
LINE
  5
1EB
330
1F
100
AcDbEntity
  8
GR2_01
 62
     7
100
AcDbLine
 10
142.3399999999998
 20
125.0
 30
0.0
 11
142.3399999999998
 21
104.0
 31
0.0
  0
LINE
  5
1EC
330
1F
100
AcDbEntity
  8
GR2_01
 62
     7
100
AcDbLine
 10
146.1499999999998
 20
125.0
 30
0.0
 11
146.1499999999998
 21
104.0
 31
0.0
  0
LINE
  5
1ED
330
1F
100
AcDbEntity
  8
GR2_01
 62
     7
100
AcDbLine
 10
149.9599999999998
 20
125.0
 30
0.0
 11
149.9599999999998
 21
104.0
 31
0.0
  0
LINE
  5
1EE
330
1F
100
AcDbEntity
  8
GR2_01
 62
     7
100
AcDbLine
 10
153.7699999999998
 20
125.0
 30
0.0
 11
153.7699999999998
 21
104.0
 31
0.0
  0
LINE
  5
1EF
330
1F
100
AcDbEntity
  8
GR2_01
 62
     7
100
AcDbLine
 10
157.5799999999997
 20
125.0
 30
0.0
 11
157.5799999999997
 21
104.0
 31
0.0
  0
LINE
  5
1F0
330
1F
100
AcDbEntity
  8
GR2_01
 62
     7
100
AcDbLine
 10
161.1873415259251
 20
125.0
 30
0.0
 11
161.1873415259251
 21
104.0
 31
0.0
  0
LINE
  5
1F1
330
1F
100
AcDbEntity
  8
GR2_01
 62
     7
100
AcDbLine
 10
164.9973415259251
 20
125.0
 30
0.0
 11
164.9973415259251
 21
104.0
 31
0.0
  0
LINE
  5
1F2
330
1F
100
AcDbEntity
  8
GR2_01
 62
     7
100
AcDbLine
 10
176.427341525925
 20
125.0
 30
0.0
 11
176.427341525925
 21
104.0
 31
0.0
  0
LINE
  5
1F3
330
1F
100
AcDbEntity
  8
GR2_01
 62
     7
100
AcDbLine
 10
168.8073415259251
 20
125.0
 30
0.0
 11
168.8073415259251
 21
104.0
 31
0.0
  0
LINE
  5
1F4
330
1F
100
AcDbEntity
  8
GR2_01
 62
     7
100
AcDbLine
 10
172.617341525925
 20
125.0
 30
0.0
 11
172.617341525925
 21
104.0
 31
0.0
  0
TEXT
  5
1F5
330
1F
100
AcDbEntity
  8
GR2_01
 62
     7
100
AcDbText
 10
63.2349853515625
 20
121.4318105524237
 30
0.0
 40
1.136363636363636
  1
Ｘ１
 41
0.676923076923077
  7
ＭＳ_ゴシック
 72
     1
 11
64.2349853515625
 21
121.9999923706055
 31
0.0
100
AcDbText
 73
     2
  0
TEXT
  5
1F6
330
1F
100
AcDbEntity
  8
GR2_01
 62
     7
100
AcDbText
 10
67.54501342773438
 20
120.7075740467418
 30
0.0
 40
1.136363636363636
  1
２
 41
0.676923076923077
  7
ＭＳ_ゴシック
 72
     1
 11
68.04501342773438
 21
120.4999923706055
 31
0.0
100
AcDbText
 73
     1
  0
TEXT
  5
1F7
330
1F
100
AcDbEntity
  8
GR2_01
 62
     7
100
AcDbText
 10
66.54501342773438
 20
122.4575740467418
 30
0.0
 40
1.136363636363636
  1
ＣＯＭ
 41
0.676923076923077
  7
ＭＳ_ゴシック
 72
     1
 11
68.04501342773438
 21
122.2499923706055
 31
0.0
100
AcDbText
 73
     1
  0
TEXT
  5
1F8
330
1F
100
AcDbEntity
  8
GR2_01
 62
     7
100
AcDbText
 10
70.85498046875
 20
121.4318105524237
 30
0.0
 40
1.136363636363636
  1
Ｘ２
 41
0.676923076923077
  7
ＭＳ_ゴシック
 72
     1
 11
71.85498046875
 21
121.9999923706055
 31
0.0
100
AcDbText
 73
     2
  0
TEXT
  5
1F9
330
1F
100
AcDbEntity
  8
GR2_01
 62
     7
100
AcDbText
 10
75.16500854492188
 20
120.7075740467418
 30
0.0
 40
1.136363636363636
  1
２
 41
0.676923076923077
  7
ＭＳ_ゴシック
 72
     1
 11
75.66500854492188
 21
120.4999923706055
 31
0.0
100
AcDbText
 73
     1
  0
TEXT
  5
1FA
330
1F
100
AcDbEntity
  8
GR2_01
 62
     7
100
AcDbText
 10
74.16500854492188
 20
122.4575740467418
 30
0.0
 40
1.136363636363636
  1
ＣＯＭ
 41
0.676923076923077
  7
ＭＳ_ゴシック
 72
     1
 11
75.66500854492188
 21
122.2499923706055
 31
0.0
100
AcDbText
 73
     1
  0
TEXT
  5
1FB
330
1F
100
AcDbEntity
  8
GR2_01
 62
     7
100
AcDbText
 10
78.47500610351562
 20
121.4318105524237
 30
0.0
 40
1.136363636363636
  1
Ｘ３
 41
0.676923076923077
  7
ＭＳ_ゴシック
 72
     1
 11
79.47500610351562
 21
121.9999923706055
 31
0.0
100
AcDbText
 73
     2
  0
TEXT
  5
1FC
330
1F
100
AcDbEntity
  8
GR2_01
 62
     7
100
AcDbText
 10
82.78500366210938
 20
120.7075740467418
 30
0.0
 40
1.136363636363636
  1
２
 41
0.676923076923077
  7
ＭＳ_ゴシック
 72
     1
 11
83.28500366210938
 21
120.4999923706055
 31
0.0
100
AcDbText
 73
     1
  0
TEXT
  5
1FD
330
1F
100
AcDbEntity
  8
GR2_01
 62
     7
100
AcDbText
 10
81.78500366210938
 20
122.4575740467418
 30
0.0
 40
1.136363636363636
  1
ＣＯＭ
 41
0.676923076923077
  7
ＭＳ_ゴシック
 72
     1
 11
83.28500366210938
 21
122.2499923706055
 31
0.0
100
AcDbText
 73
     1
  0
TEXT
  5
1FE
330
1F
100
AcDbEntity
  8
GR2_01
 62
     7
100
AcDbText
 10
86.09500122070312
 20
121.4318105524237
 30
0.0
 40
1.136363636363636
  1
Ｘ４
 41
0.676923076923077
  7
ＭＳ_ゴシック
 72
     1
 11
87.09500122070312
 21
121.9999923706055
 31
0.0
100
AcDbText
 73
     2
  0
TEXT
  5
1FF
330
1F
100
AcDbEntity
  8
GR2_01
 62
     7
100
AcDbText
 10
90.40499877929688
 20
120.7075740467418
 30
0.0
 40
1.136363636363636
  1
２
 41
0.676923076923077
  7
ＭＳ_ゴシック
 72
     1
 11
90.90499877929688
 21
120.4999923706055
 31
0.0
100
AcDbText
 73
     1
  0
TEXT
  5
200
330
1F
100
AcDbEntity
  8
GR2_01
 62
     7
100
AcDbText
 10
89.40499877929688
 20
122.4575740467418
 30
0.0
 40
1.136363636363636
  1
ＣＯＭ
 41
0.676923076923077
  7
ＭＳ_ゴシック
 72
     1
 11
90.90499877929688
 21
122.2499923706055
 31
0.0
100
AcDbText
 73
     1
  0
TEXT
  5
201
330
1F
100
AcDbEntity
  8
GR2_01
 62
     7
100
AcDbText
 10
93.71499633789062
 20
121.4318105524237
 30
0.0
 40
1.136363636363636
  1
Ｘ５
 41
0.676923076923077
  7
ＭＳ_ゴシック
 72
     1
 11
94.71499633789062
 21
121.9999923706055
 31
0.0
100
AcDbText
 73
     2
  0
TEXT
  5
202
330
1F
100
AcDbEntity
  8
GR2_01
 62
     7
100
AcDbText
 10
98.02499389648438
 20
120.7075740467418
 30
0.0
 40
1.136363636363636
  1
２
 41
0.676923076923077
  7
ＭＳ_ゴシック
 72
     1
 11
98.52499389648438
 21
120.4999923706055
 31
0.0
100
AcDbText
 73
     1
  0
TEXT
  5
203
330
1F
100
AcDbEntity
  8
GR2_01
 62
     7
100
AcDbText
 10
97.02499389648438
 20
122.4575740467418
 30
0.0
 40
1.136363636363636
  1
ＣＯＭ
 41
0.676923076923077
  7
ＭＳ_ゴシック
 72
     1
 11
98.52499389648438
 21
122.2499923706055
 31
0.0
100
AcDbText
 73
     1
  0
TEXT
  5
204
330
1F
100
AcDbEntity
  8
GR2_01
 62
     7
100
AcDbText
 10
101.3349914550781
 20
121.4318105524237
 30
0.0
 40
1.136363636363636
  1
Ｘ６
 41
0.676923076923077
  7
ＭＳ_ゴシック
 72
     1
 11
102.3349914550781
 21
121.9999923706055
 31
0.0
100
AcDbText
 73
     2
  0
TEXT
  5
205
330
1F
100
AcDbEntity
  8
GR2_01
 62
     7
100
AcDbText
 10
105.6449890136719
 20
120.7075740467418
 30
0.0
 40
1.136363636363636
  1
２
 41
0.676923076923077
  7
ＭＳ_ゴシック
 72
     1
 11
106.1449890136719
 21
120.4999923706055
 31
0.0
100
AcDbText
 73
     1
  0
TEXT
  5
206
330
1F
100
AcDbEntity
  8
GR2_01
 62
     7
100
AcDbText
 10
104.6449890136719
 20
122.4575740467418
 30
0.0
 40
1.136363636363636
  1
ＣＯＭ
 41
0.676923076923077
  7
ＭＳ_ゴシック
 72
     1
 11
106.1449890136719
 21
122.2499923706055
 31
0.0
100
AcDbText
 73
     1
  0
TEXT
  5
207
330
1F
100
AcDbEntity
  8
GR2_01
 62
     7
100
AcDbText
 10
108.9550018310547
 20
121.4318105524237
 30
0.0
 40
1.136363636363636
  1
Ｘ７
 41
0.676923076923077
  7
ＭＳ_ゴシック
 72
     1
 11
109.9550018310547
 21
121.9999923706055
 31
0.0
100
AcDbText
 73
     2
  0
TEXT
  5
208
330
1F
100
AcDbEntity
  8
GR2_01
 62
     7
100
AcDbText
 10
113.2649993896484
 20
120.7075740467418
 30
0.0
 40
1.136363636363636
  1
２
 41
0.676923076923077
  7
ＭＳ_ゴシック
 72
     1
 11
113.7649993896484
 21
120.4999923706055
 31
0.0
100
AcDbText
 73
     1
  0
TEXT
  5
209
330
1F
100
AcDbEntity
  8
GR2_01
 62
     7
100
AcDbText
 10
112.2649993896484
 20
122.4575740467418
 30
0.0
 40
1.136363636363636
  1
ＣＯＭ
 41
0.676923076923077
  7
ＭＳ_ゴシック
 72
     1
 11
113.7649993896484
 21
122.2499923706055
 31
0.0
100
AcDbText
 73
     1
  0
TEXT
  5
20A
330
1F
100
AcDbEntity
  8
GR2_01
 62
     7
100
AcDbText
 10
116.5749969482422
 20
121.4318105524237
 30
0.0
 40
1.136363636363636
  1
Ｘ０
 41
0.676923076923077
  7
ＭＳ_ゴシック
 72
     1
 11
117.5749969482422
 21
121.9999923706055
 31
0.0
100
AcDbText
 73
     2
  0
TEXT
  5
20B
330
1F
100
AcDbEntity
  8
GR2_01
 62
     7
100
AcDbText
 10
120.8849945068359
 20
120.7075740467418
 30
0.0
 40
1.136363636363636
  1
２
 41
0.676923076923077
  7
ＭＳ_ゴシック
 72
     1
 11
121.3849945068359
 21
120.4999923706055
 31
0.0
100
AcDbText
 73
     1
  0
TEXT
  5
20C
330
1F
100
AcDbEntity
  8
GR2_01
 62
     7
100
AcDbText
 10
119.8849945068359
 20
122.4575740467418
 30
0.0
 40
1.136363636363636
  1
ＣＯＭ
 41
0.676923076923077
  7
ＭＳ_ゴシック
 72
     1
 11
121.3849945068359
 21
122.2499923706055
 31
0.0
100
AcDbText
 73
     1
  0
TEXT
  5
20D
330
1F
100
AcDbEntity
  8
GR2_01
 62
     7
100
AcDbText
 10
124.1949920654297
 20
121.4318105524237
 30
0.0
 40
1.136363636363636
  1
Ｘ１
 41
0.676923076923077
  7
ＭＳ_ゴシック
 72
     1
 11
125.1949920654297
 21
121.9999923706055
 31
0.0
100
AcDbText
 73
     2
  0
TEXT
  5
20E
330
1F
100
AcDbEntity
  8
GR2_01
 62
     7
100
AcDbText
 10
128.5049743652344
 20
120.7075740467418
 30
0.0
 40
1.136363636363636
  1
２
 41
0.676923076923077
  7
ＭＳ_ゴシック
 72
     1
 11
129.0049743652344
 21
120.4999923706055
 31
0.0
100
AcDbText
 73
     1
  0
TEXT
  5
20F
330
1F
100
AcDbEntity
  8
GR2_01
 62
     7
100
AcDbText
 10
127.5049743652344
 20
122.4575740467418
 30
0.0
 40
1.136363636363636
  1
ＣＯＭ
 41
0.676923076923077
  7
ＭＳ_ゴシック
 72
     1
 11
129.0049743652344
 21
122.2499923706055
 31
0.0
100
AcDbText
 73
     1
  0
TEXT
  5
210
330
1F
100
AcDbEntity
  8
GR2_01
 62
     7
100
AcDbText
 10
131.8149719238281
 20
121.4318105524237
 30
0.0
 40
1.136363636363636
  1
Ｘ２
 41
0.676923076923077
  7
ＭＳ_ゴシック
 72
     1
 11
132.8149719238281
 21
121.9999923706055
 31
0.0
100
AcDbText
 73
     2
  0
TEXT
  5
211
330
1F
100
AcDbEntity
  8
GR2_01
 62
     7
100
AcDbText
 10
136.125
 20
120.7075740467418
 30
0.0
 40
1.136363636363636
  1
２
 41
0.676923076923077
  7
ＭＳ_ゴシック
 72
     1
 11
136.625
 21
120.4999923706055
 31
0.0
100
AcDbText
 73
     1
  0
TEXT
  5
212
330
1F
100
AcDbEntity
  8
GR2_01
 62
     7
100
AcDbText
 10
135.125
 20
122.4575740467418
 30
0.0
 40
1.136363636363636
  1
ＣＯＭ
 41
0.676923076923077
  7
ＭＳ_ゴシック
 72
     1
 11
136.625
 21
122.2499923706055
 31
0.0
100
AcDbText
 73
     1
  0
TEXT
  5
213
330
1F
100
AcDbEntity
  8
GR2_01
 62
     7
100
AcDbText
 10
139.4349975585938
 20
121.4318105524237
 30
0.0
 40
1.136363636363636
  1
Ｘ３
 41
0.676923076923077
  7
ＭＳ_ゴシック
 72
     1
 11
140.4349975585938
 21
121.9999923706055
 31
0.0
100
AcDbText
 73
     2
  0
TEXT
  5
214
330
1F
100
AcDbEntity
  8
GR2_01
 62
     7
100
AcDbText
 10
143.7449951171875
 20
120.7075740467418
 30
0.0
 40
1.136363636363636
  1
２
 41
0.676923076923077
  7
ＭＳ_ゴシック
 72
     1
 11
144.2449951171875
 21
120.4999923706055
 31
0.0
100
AcDbText
 73
     1
  0
TEXT
  5
215
330
1F
100
AcDbEntity
  8
GR2_01
 62
     7
100
AcDbText
 10
142.7449951171875
 20
122.4575740467418
 30
0.0
 40
1.136363636363636
  1
ＣＯＭ
 41
0.676923076923077
  7
ＭＳ_ゴシック
 72
     1
 11
144.2449951171875
 21
122.2499923706055
 31
0.0
100
AcDbText
 73
     1
  0
TEXT
  5
216
330
1F
100
AcDbEntity
  8
GR2_01
 62
     7
100
AcDbText
 10
147.0549926757812
 20
121.4318105524237
 30
0.0
 40
1.136363636363636
  1
Ｘ４
 41
0.676923076923077
  7
ＭＳ_ゴシック
 72
     1
 11
148.0549926757812
 21
121.9999923706055
 31
0.0
100
AcDbText
 73
     2
  0
TEXT
  5
217
330
1F
100
AcDbEntity
  8
GR2_01
 62
     7
100
AcDbText
 10
151.3650054931641
 20
120.7075740467418
 30
0.0
 40
1.136363636363636
  1
２
 41
0.676923076923077
  7
ＭＳ_ゴシック
 72
     1
 11
151.8650054931641
 21
120.4999923706055
 31
0.0
100
AcDbText
 73
     1
  0
TEXT
  5
218
330
1F
100
AcDbEntity
  8
GR2_01
 62
     7
100
AcDbText
 10
150.3650054931641
 20
122.4575740467418
 30
0.0
 40
1.136363636363636
  1
ＣＯＭ
 41
0.676923076923077
  7
ＭＳ_ゴシック
 72
     1
 11
151.8650054931641
 21
122.2499923706055
 31
0.0
100
AcDbText
 73
     1
  0
TEXT
  5
219
330
1F
100
AcDbEntity
  8
GR2_01
 62
     7
100
AcDbText
 10
154.6750030517578
 20
121.4318105524237
 30
0.0
 40
1.136363636363636
  1
Ｘ５
 41
0.676923076923077
  7
ＭＳ_ゴシック
 72
     1
 11
155.6750030517578
 21
121.9999923706055
 31
0.0
100
AcDbText
 73
     2
  0
TEXT
  5
21A
330
1F
100
AcDbEntity
  8
GR2_01
 62
     7
100
AcDbText
 10
158.9850006103516
 20
120.7075740467418
 30
0.0
 40
1.136363636363636
  1
２
 41
0.676923076923077
  7
ＭＳ_ゴシック
 72
     1
 11
159.4850006103516
 21
120.4999923706055
 31
0.0
100
AcDbText
 73
     1
  0
TEXT
  5
21B
330
1F
100
AcDbEntity
  8
GR2_01
 62
     7
100
AcDbText
 10
157.9850006103516
 20
122.4575740467418
 30
0.0
 40
1.136363636363636
  1
ＣＯＭ
 41
0.676923076923077
  7
ＭＳ_ゴシック
 72
     1
 11
159.4850006103516
 21
122.2499923706055
 31
0.0
100
AcDbText
 73
     1
  0
TEXT
  5
21C
330
1F
100
AcDbEntity
  8
GR2_01
 62
     7
100
AcDbText
 10
162.0923309326172
 20
121.4318105524237
 30
0.0
 40
1.136363636363636
  1
Ｘ６
 41
0.676923076923077
  7
ＭＳ_ゴシック
 72
     1
 11
163.0923309326172
 21
121.9999923706055
 31
0.0
100
AcDbText
 73
     2
  0
TEXT
  5
21D
330
1F
100
AcDbEntity
  8
GR2_01
 62
     7
100
AcDbText
 10
166.4023590087891
 20
120.7075740467418
 30
0.0
 40
1.136363636363636
  1
２
 41
0.676923076923077
  7
ＭＳ_ゴシック
 72
     1
 11
166.9023590087891
 21
120.4999923706055
 31
0.0
100
AcDbText
 73
     1
  0
TEXT
  5
21E
330
1F
100
AcDbEntity
  8
GR2_01
 62
     7
100
AcDbText
 10
165.4023590087891
 20
122.4575740467418
 30
0.0
 40
1.136363636363636
  1
ＣＯＭ
 41
0.676923076923077
  7
ＭＳ_ゴシック
 72
     1
 11
166.9023590087891
 21
122.2499923706055
 31
0.0
100
AcDbText
 73
     1
  0
TEXT
  5
21F
330
1F
100
AcDbEntity
  8
GR2_01
 62
     7
100
AcDbText
 10
169.7123260498047
 20
121.4318105524237
 30
0.0
 40
1.136363636363636
  1
Ｘ７
 41
0.676923076923077
  7
ＭＳ_ゴシック
 72
     1
 11
170.7123260498047
 21
121.9999923706055
 31
0.0
100
AcDbText
 73
     2
  0
TEXT
  5
220
330
1F
100
AcDbEntity
  8
GR2_01
 62
     7
100
AcDbText
 10
174.0223541259766
 20
120.7075740467418
 30
0.0
 40
1.136363636363636
  1
２
 41
0.676923076923077
  7
ＭＳ_ゴシック
 72
     1
 11
174.5223541259766
 21
120.4999923706055
 31
0.0
100
AcDbText
 73
     1
  0
TEXT
  5
221
330
1F
100
AcDbEntity
  8
GR2_01
 62
     7
100
AcDbText
 10
173.0223541259766
 20
122.4575740467418
 30
0.0
 40
1.136363636363636
  1
ＣＯＭ
 41
0.676923076923077
  7
ＭＳ_ゴシック
 72
     1
 11
174.5223541259766
 21
122.2499923706055
 31
0.0
100
AcDbText
 73
     1
  0
TEXT
  5
222
330
1F
100
AcDbEntity
  8
GR2_01
 62
     7
100
AcDbText
 10
181.6423492431641
 20
120.7075740467418
 30
0.0
 40
1.136363636363636
  1
２
 41
0.676923076923077
  7
ＭＳ_ゴシック
 72
     1
 11
182.1423492431641
 21
120.4999923706055
 31
0.0
100
AcDbText
 73
     1
  0
TEXT
  5
223
330
1F
100
AcDbEntity
  8
GR2_01
 62
     7
100
AcDbText
 10
180.6423492431641
 20
122.4575740467418
 30
0.0
 40
1.136363636363636
  1
ＣＯＭ
 41
0.676923076923077
  7
ＭＳ_ゴシック
 72
     1
 11
182.1423492431641
 21
122.2499923706055
 31
0.0
100
AcDbText
 73
     1
  0
TEXT
  5
224
330
1F
100
AcDbEntity
  8
GR2_01
 62
     7
100
AcDbText
 10
177.8323516845703
 20
120.7075740467418
 30
0.0
 40
1.136363636363636
  1
１
 41
0.676923076923077
  7
ＭＳ_ゴシック
 72
     1
 11
178.3323516845703
 21
120.4999923706055
 31
0.0
100
AcDbText
 73
     1
  0
TEXT
  5
225
330
1F
100
AcDbEntity
  8
GR2_01
 62
     7
100
AcDbText
 10
176.8323516845703
 20
122.4575740467418
 30
0.0
 40
1.136363636363636
  1
ＣＯＭ
 41
0.676923076923077
  7
ＭＳ_ゴシック
 72
     1
 11
178.3323516845703
 21
122.2499923706055
 31
0.0
100
AcDbText
 73
     1
  0
HATCH
  5
226
330
1F
100
AcDbEntity
  8
GR2_01
 62
     7
100
AcDbHatch
 10
0.0
 20
0.0
 30
0.0
210
0.0
220
0.0
230
1.0
  2
_USER
 70
     0
 71
     0
 91
        1
 92
        0
 93
        4
 72
     1
 10
54.71000000000001
 20
124.9999999999999
 11
47.53
 21
125.0
 72
     1
 10
47.53
 20
125.0
 11
47.53
 21
104.0
 72
     1
 10
47.53
 20
104.0
 11
54.71000000000001
 21
104.0
 72
     1
 10
54.71000000000004
 20
104.0
 11
54.71000000000001
 21
124.9999999999999
 97
        0
 75
     0
 76
     0
 52
45.0
 41
0.3
 77
     0
 78
     1
 53
45.0
 43
0.0
 44
0.0
 45
-0.2121320343559642
 46
0.2121320343559643
 79
     0
 98
        0
  0
LINE
  5
227
330
1F
100
AcDbEntity
  8
GR2_01
 62
     7
100
AcDbLine
 10
115.47
 20
125.0
 30
0.0
 11
115.47
 21
104.0
 31
0.0
  0
LINE
  5
228
330
1F
100
AcDbEntity
  8
GR2_01
 62
     7
100
AcDbLine
 10
115.87
 20
125.0
 30
0.0
 11
115.87
 21
104.0
 31
0.0
  0
LINE
  5
229
330
1F
100
AcDbEntity
  8
GR2_01
 62
     7
100
AcDbLine
 10
176.2273415259251
 20
125.0
 30
0.0
 11
176.2273415259251
 21
104.0
 31
0.0
  0
LINE
  5
22A
330
1F
100
AcDbEntity
  8
GR2_01
 62
     7
100
AcDbLine
 10
176.627341525925
 20
125.0
 30
0.0
 11
176.627341525925
 21
104.0
 31
0.0
  0
LINE
  5
22B
330
1F
100
AcDbEntity
  8
GR2_01
 62
     7
100
AcDbLine
 10
37.0
 20
83.00000000000009
 30
0.0
 11
185.747341525925
 21
82.99999999999997
 31
0.0
  0
LINE
  5
22C
330
1F
100
AcDbEntity
  8
GR2_01
 62
     7
100
AcDbLine
 10
36.99999999999994
 20
93.50000000000003
 30
0.0
 11
49.03999999999996
 21
93.50000000000003
 31
0.0
  0
LINE
  5
22D
330
1F
100
AcDbEntity
  8
GR2_01
 62
     7
100
AcDbLine
 10
37.0
 20
104.0
 30
0.0
 11
37.0
 21
83.00000000000003
 31
0.0
  0
LINE
  5
22E
330
1F
100
AcDbEntity
  8
GR2_01
 62
     7
100
AcDbLine
 10
41.41999999999996
 20
93.50000000000003
 30
0.0
 11
41.41999999999996
 21
83.00000000000003
 31
0.0
  0
LINE
  5
22F
330
1F
100
AcDbEntity
  8
GR2_01
 62
     7
100
AcDbLine
 10
44.92499999999995
 20
104.0
 30
0.0
 11
44.92499999999995
 21
93.50000000000003
 31
0.0
  0
LINE
  5
230
330
1F
100
AcDbEntity
  8
GR2_01
 62
     7
100
AcDbLine
 10
52.10499999999996
 20
104.0
 30
0.0
 11
52.10499999999996
 21
93.50000000000003
 31
0.0
  0
LINE
  5
231
330
1F
100
AcDbEntity
  8
GR2_01
 62
     7
100
AcDbLine
 10
59.72499999999997
 20
104.0
 30
0.0
 11
59.72499999999997
 21
93.50000000000003
 31
0.0
  0
LINE
  5
232
330
1F
100
AcDbEntity
  8
GR2_01
 62
     7
100
AcDbLine
 10
67.34499999999997
 20
104.0
 30
0.0
 11
67.34499999999997
 21
93.50000000000003
 31
0.0
  0
LINE
  5
233
330
1F
100
AcDbEntity
  8
GR2_01
 62
     7
100
AcDbLine
 10
74.96499999999992
 20
104.0
 30
0.0
 11
74.96499999999992
 21
93.50000000000003
 31
0.0
  0
LINE
  5
234
330
1F
100
AcDbEntity
  8
GR2_01
 62
     7
100
AcDbLine
 10
82.58499999999992
 20
104.0
 30
0.0
 11
82.58499999999992
 21
93.50000000000003
 31
0.0
  0
LINE
  5
235
330
1F
100
AcDbEntity
  8
GR2_01
 62
     7
100
AcDbLine
 10
90.20499999999993
 20
104.0
 30
0.0
 11
90.20499999999993
 21
93.50000000000003
 31
0.0
  0
LINE
  5
236
330
1F
100
AcDbEntity
  8
GR2_01
 62
     7
100
AcDbLine
 10
97.82499999999993
 20
104.0
 30
0.0
 11
97.82499999999993
 21
93.50000000000003
 31
0.0
  0
LINE
  5
237
330
1F
100
AcDbEntity
  8
GR2_01
 62
     7
100
AcDbLine
 10
105.4449999999999
 20
104.0
 30
0.0
 11
105.4449999999999
 21
93.50000000000003
 31
0.0
  0
LINE
  5
238
330
1F
100
AcDbEntity
  8
GR2_01
 62
     7
100
AcDbLine
 10
113.0649999999999
 20
104.0
 30
0.0
 11
113.0649999999999
 21
93.50000000000003
 31
0.0
  0
LINE
  5
239
330
1F
100
AcDbEntity
  8
GR2_01
 62
     7
100
AcDbLine
 10
181.645
 20
104.0
 30
0.0
 11
181.645
 21
93.50000000000003
 31
0.0
  0
LINE
  5
23A
330
1F
100
AcDbEntity
  8
GR2_01
 62
     7
100
AcDbLine
 10
185.7473415259249
 20
104.0
 30
0.0
 11
185.747341525925
 21
82.99999999999997
 31
0.0
  0
LINE
  5
23B
330
1F
100
AcDbEntity
  8
GR2_01
 62
     7
100
AcDbLine
 10
49.03999999999996
 20
93.50000000000003
 30
0.0
 11
49.03999999999996
 21
83.00000000000003
 31
0.0
  0
LINE
  5
23C
330
1F
100
AcDbEntity
  8
GR2_01
 62
     7
100
AcDbLine
 10
56.21999999999997
 20
93.50000000000003
 30
0.0
 11
56.21999999999997
 21
83.00000000000003
 31
0.0
  0
LINE
  5
23D
330
1F
100
AcDbEntity
  8
GR2_01
 62
     7
100
AcDbLine
 10
63.83999999999997
 20
93.50000000000003
 30
0.0
 11
63.83999999999997
 21
83.00000000000003
 31
0.0
  0
LINE
  5
23E
330
1F
100
AcDbEntity
  8
GR2_01
 62
     7
100
AcDbLine
 10
71.45999999999998
 20
93.50000000000003
 30
0.0
 11
71.45999999999998
 21
83.00000000000003
 31
0.0
  0
LINE
  5
23F
330
1F
100
AcDbEntity
  8
GR2_01
 62
     7
100
AcDbLine
 10
79.07999999999993
 20
93.50000000000003
 30
0.0
 11
79.07999999999993
 21
83.00000000000003
 31
0.0
  0
LINE
  5
240
330
1F
100
AcDbEntity
  8
GR2_01
 62
     7
100
AcDbLine
 10
86.69999999999993
 20
93.50000000000003
 30
0.0
 11
86.69999999999993
 21
83.00000000000003
 31
0.0
  0
LINE
  5
241
330
1F
100
AcDbEntity
  8
GR2_01
 62
     7
100
AcDbLine
 10
94.31999999999994
 20
93.50000000000003
 30
0.0
 11
94.31999999999994
 21
83.00000000000003
 31
0.0
  0
LINE
  5
242
330
1F
100
AcDbEntity
  8
GR2_01
 62
     7
100
AcDbLine
 10
101.9399999999999
 20
93.50000000000003
 30
0.0
 11
101.9399999999999
 21
83.00000000000003
 31
0.0
  0
LINE
  5
243
330
1F
100
AcDbEntity
  8
GR2_01
 62
     7
100
AcDbLine
 10
109.5599999999999
 20
93.50000000000003
 30
0.0
 11
109.5599999999999
 21
83.00000000000003
 31
0.0
  0
LINE
  5
244
330
1F
100
AcDbEntity
  8
GR2_01
 62
     7
100
AcDbLine
 10
178.14
 20
93.50000000000003
 30
0.0
 11
178.14
 21
83.00000000000003
 31
0.0
  0
LINE
  5
245
330
1F
100
AcDbEntity
  8
GR2_01
 62
     7
100
AcDbLine
 10
52.10499999999996
 20
93.50000000000003
 30
0.0
 11
185.747341525925
 21
93.50000000000003
 31
0.0
  0
TEXT
  5
246
330
1F
100
AcDbEntity
  8
GR2_01
 62
     7
100
AcDbText
 10
38.0
 20
101.2767450506037
 30
0.0
 40
1.515151515151515
  1
ＤＣ
 41
0.7615384615384615
  7
ＭＳ_ゴシック
 11
38.0
 21
100.9999694824219
 31
0.0
100
AcDbText
 73
     1
  0
TEXT
  5
247
330
1F
100
AcDbEntity
  8
GR2_01
 62
     7
100
AcDbText
 10
42.42001342773438
 20
90.77676030939276
 30
0.0
 40
1.515151515151515
  1
ＤＣ
 41
0.7615384615384615
  7
ＭＳ_ゴシック
 11
42.42001342773438
 21
90.49998474121094
 31
0.0
100
AcDbText
 73
     1
  0
TEXT
  5
248
330
1F
100
AcDbEntity
  8
GR2_01
 62
     7
100
AcDbText
 10
38.0
 20
98.77676030939276
 30
0.0
 40
1.515151515151515
  1
２４Ｖ
 41
0.7615384615384615
  7
ＭＳ_ゴシック
 11
38.0
 21
98.49998474121094
 31
0.0
100
AcDbText
 73
     1
  0
TEXT
  5
249
330
1F
100
AcDbEntity
  8
GR2_01
 62
     7
100
AcDbText
 10
42.42001342773438
 20
88.27676030939276
 30
0.0
 40
1.515151515151515
  1
０Ｖ
 41
0.7615384615384615
  7
ＭＳ_ゴシック
 11
42.42001342773438
 21
87.99998474121094
 31
0.0
100
AcDbText
 73
     1
  0
TEXT
  5
24A
330
1F
100
AcDbEntity
  8
GR2_01
 62
     7
100
AcDbText
 10
114.0650177001953
 20
101.2767450506037
 30
0.0
 40
1.515151515151515
  1
Ｘ０
 41
0.7615384615384615
  7
ＭＳ_ゴシック
 11
114.0650177001953
 21
100.9999694824219
 31
0.0
100
AcDbText
 73
     1
  0
TEXT
  5
24B
330
1F
100
AcDbEntity
  8
GR2_01
 62
     7
100
AcDbText
 10
106.4450073242188
 20
101.2767450506037
 30
0.0
 40
1.515151515151515
  1
Ｘ７
 41
0.7615384615384615
  7
ＭＳ_ゴシック
 11
106.4450073242188
 21
100.9999694824219
 31
0.0
100
AcDbText
 73
     1
  0
TEXT
  5
24C
330
1F
100
AcDbEntity
  8
GR2_01
 62
     7
100
AcDbText
 10
98.82498168945312
 20
101.2767450506037
 30
0.0
 40
1.515151515151515
  1
Ｘ６
 41
0.7615384615384615
  7
ＭＳ_ゴシック
 11
98.82498168945312
 21
100.9999694824219
 31
0.0
100
AcDbText
 73
     1
  0
TEXT
  5
24D
330
1F
100
AcDbEntity
  8
GR2_01
 62
     7
100
AcDbText
 10
91.20501708984375
 20
101.2767450506037
 30
0.0
 40
1.515151515151515
  1
Ｘ５
 41
0.7615384615384615
  7
ＭＳ_ゴシック
 11
91.20501708984375
 21
100.9999694824219
 31
0.0
100
AcDbText
 73
     1
  0
TEXT
  5
24E
330
1F
100
AcDbEntity
  8
GR2_01
 62
     7
100
AcDbText
 10
83.58502197265625
 20
101.2767450506037
 30
0.0
 40
1.515151515151515
  1
Ｘ４
 41
0.7615384615384615
  7
ＭＳ_ゴシック
 11
83.58502197265625
 21
100.9999694824219
 31
0.0
100
AcDbText
 73
     1
  0
TEXT
  5
24F
330
1F
100
AcDbEntity
  8
GR2_01
 62
     7
100
AcDbText
 10
75.96499633789062
 20
101.2767450506037
 30
0.0
 40
1.515151515151515
  1
Ｘ３
 41
0.7615384615384615
  7
ＭＳ_ゴシック
 11
75.96499633789062
 21
100.9999694824219
 31
0.0
100
AcDbText
 73
     1
  0
TEXT
  5
250
330
1F
100
AcDbEntity
  8
GR2_01
 62
     7
100
AcDbText
 10
68.34500122070312
 20
101.2767450506037
 30
0.0
 40
1.515151515151515
  1
Ｘ２
 41
0.7615384615384615
  7
ＭＳ_ゴシック
 11
68.34500122070312
 21
100.9999694824219
 31
0.0
100
AcDbText
 73
     1
  0
TEXT
  5
251
330
1F
100
AcDbEntity
  8
GR2_01
 62
     7
100
AcDbText
 10
60.72500610351562
 20
101.2767450506037
 30
0.0
 40
1.515151515151515
  1
Ｘ１
 41
0.7615384615384615
  7
ＭＳ_ゴシック
 11
60.72500610351562
 21
100.9999694824219
 31
0.0
100
AcDbText
 73
     1
  0
TEXT
  5
252
330
1F
100
AcDbEntity
  8
GR2_01
 62
     7
100
AcDbText
 10
53.10501098632812
 20
101.2767450506037
 30
0.0
 40
1.515151515151515
  1
Ｘ０
 41
0.7615384615384615
  7
ＭＳ_ゴシック
 11
53.10501098632812
 21
100.9999694824219
 31
0.0
100
AcDbText
 73
     1
  0
TEXT
  5
253
330
1F
100
AcDbEntity
  8
GR2_01
 62
     7
100
AcDbText
 10
57.22000122070312
 20
90.77676030939276
 30
0.0
 40
1.515151515151515
  1
ＣＯＭ　
 41
0.7615384615384615
  7
ＭＳ_ゴシック
 11
57.22000122070312
 21
90.49998474121094
 31
0.0
100
AcDbText
 73
     1
  0
TEXT
  5
254
330
1F
100
AcDbEntity
  8
GR2_01
 62
     7
100
AcDbText
 10
57.22000122070312
 20
88.27676030939276
 30
0.0
 40
1.515151515151515
  1
　２
 41
0.7615384615384615
  7
ＭＳ_ゴシック
 11
57.22000122070312
 21
87.99998474121094
 31
0.0
100
AcDbText
 73
     1
  0
TEXT
  5
255
330
1F
100
AcDbEntity
  8
GR2_01
 62
     7
100
AcDbText
 10
183.1767843839374
 20
94.24998474121094
 30
0.0
 40
0.9090909452149363
  1
８４５３６８６５－００２
 50
90.0
 41
0.6346153593980359
  7
ＭＳ_ゴシック
 72
     1
 11
183.3428497314453
 21
98.74998474121094
 31
0.0
100
AcDbText
 73
     1
  0
LINE
  5
256
330
1F
100
AcDbEntity
  8
GR2_01
 62
     7
100
AcDbLine
 10
120.6849999999999
 20
104.0
 30
0.0
 11
120.6849999999999
 21
93.50000000000003
 31
0.0
  0
LINE
  5
257
330
1F
100
AcDbEntity
  8
GR2_01
 62
     7
100
AcDbLine
 10
117.1799999999999
 20
93.50000000000003
 30
0.0
 11
117.1799999999999
 21
83.00000000000003
 31
0.0
  0
TEXT
  5
258
330
1F
100
AcDbEntity
  8
GR2_01
 62
     7
100
AcDbText
 10
121.6850128173828
 20
101.2767450506037
 30
0.0
 40
1.515151515151515
  1
Ｘ１
 41
0.7615384615384615
  7
ＭＳ_ゴシック
 11
121.6850128173828
 21
100.9999694824219
 31
0.0
100
AcDbText
 73
     1
  0
LINE
  5
259
330
1F
100
AcDbEntity
  8
GR2_01
 62
     7
100
AcDbLine
 10
128.3049999999999
 20
104.0
 30
0.0
 11
128.3049999999999
 21
93.50000000000003
 31
0.0
  0
LINE
  5
25A
330
1F
100
AcDbEntity
  8
GR2_01
 62
     7
100
AcDbLine
 10
124.8
 20
93.50000000000003
 30
0.0
 11
124.8
 21
83.00000000000003
 31
0.0
  0
TEXT
  5
25B
330
1F
100
AcDbEntity
  8
GR2_01
 62
     7
100
AcDbText
 10
129.3049926757812
 20
101.2767450506037
 30
0.0
 40
1.515151515151515
  1
Ｘ２
 41
0.7615384615384615
  7
ＭＳ_ゴシック
 11
129.3049926757812
 21
100.9999694824219
 31
0.0
100
AcDbText
 73
     1
  0
LINE
  5
25C
330
1F
100
AcDbEntity
  8
GR2_01
 62
     7
100
AcDbLine
 10
135.925
 20
104.0
 30
0.0
 11
135.925
 21
93.50000000000003
 31
0.0
  0
LINE
  5
25D
330
1F
100
AcDbEntity
  8
GR2_01
 62
     7
100
AcDbLine
 10
132.42
 20
93.50000000000003
 30
0.0
 11
132.42
 21
83.00000000000003
 31
0.0
  0
TEXT
  5
25E
330
1F
100
AcDbEntity
  8
GR2_01
 62
     7
100
AcDbText
 10
136.9249877929688
 20
101.2767450506037
 30
0.0
 40
1.515151515151515
  1
Ｘ３
 41
0.7615384615384615
  7
ＭＳ_ゴシック
 11
136.9249877929688
 21
100.9999694824219
 31
0.0
100
AcDbText
 73
     1
  0
LINE
  5
25F
330
1F
100
AcDbEntity
  8
GR2_01
 62
     7
100
AcDbLine
 10
143.545
 20
104.0
 30
0.0
 11
143.545
 21
93.50000000000003
 31
0.0
  0
LINE
  5
260
330
1F
100
AcDbEntity
  8
GR2_01
 62
     7
100
AcDbLine
 10
140.04
 20
93.50000000000003
 30
0.0
 11
140.04
 21
83.00000000000003
 31
0.0
  0
TEXT
  5
261
330
1F
100
AcDbEntity
  8
GR2_01
 62
     7
100
AcDbText
 10
144.5449829101562
 20
101.2767450506037
 30
0.0
 40
1.515151515151515
  1
Ｘ４
 41
0.7615384615384615
  7
ＭＳ_ゴシック
 11
144.5449829101562
 21
100.9999694824219
 31
0.0
100
AcDbText
 73
     1
  0
LINE
  5
262
330
1F
100
AcDbEntity
  8
GR2_01
 62
     7
100
AcDbLine
 10
151.165
 20
104.0
 30
0.0
 11
151.165
 21
93.50000000000003
 31
0.0
  0
LINE
  5
263
330
1F
100
AcDbEntity
  8
GR2_01
 62
     7
100
AcDbLine
 10
147.66
 20
93.50000000000003
 30
0.0
 11
147.66
 21
83.00000000000003
 31
0.0
  0
TEXT
  5
264
330
1F
100
AcDbEntity
  8
GR2_01
 62
     7
100
AcDbText
 10
152.1650238037109
 20
101.2767450506037
 30
0.0
 40
1.515151515151515
  1
Ｘ５
 41
0.7615384615384615
  7
ＭＳ_ゴシック
 11
152.1650238037109
 21
100.9999694824219
 31
0.0
100
AcDbText
 73
     1
  0
LINE
  5
265
330
1F
100
AcDbEntity
  8
GR2_01
 62
     7
100
AcDbLine
 10
158.785
 20
104.0
 30
0.0
 11
158.785
 21
93.50000000000003
 31
0.0
  0
LINE
  5
266
330
1F
100
AcDbEntity
  8
GR2_01
 62
     7
100
AcDbLine
 10
155.28
 20
93.50000000000003
 30
0.0
 11
155.28
 21
83.00000000000003
 31
0.0
  0
TEXT
  5
267
330
1F
100
AcDbEntity
  8
GR2_01
 62
     7
100
AcDbText
 10
159.7850189208984
 20
101.2767450506037
 30
0.0
 40
1.515151515151515
  1
Ｘ６
 41
0.7615384615384615
  7
ＭＳ_ゴシック
 11
159.7850189208984
 21
100.9999694824219
 31
0.0
100
AcDbText
 73
     1
  0
LINE
  5
268
330
1F
100
AcDbEntity
  8
GR2_01
 62
     7
100
AcDbLine
 10
174.025
 20
104.0
 30
0.0
 11
174.025
 21
93.50000000000003
 31
0.0
  0
LINE
  5
269
330
1F
100
AcDbEntity
  8
GR2_01
 62
     7
100
AcDbLine
 10
162.9
 20
93.50000000000003
 30
0.0
 11
162.9
 21
83.00000000000003
 31
0.0
  0
TEXT
  5
26A
330
1F
100
AcDbEntity
  8
GR2_01
 62
     7
100
AcDbText
 10
175.0250091552734
 20
101.2767450506037
 30
0.0
 40
1.515151515151515
  1
ＣＯＭ　
 41
0.7615384615384615
  7
ＭＳ_ゴシック
 11
175.0250091552734
 21
100.9999694824219
 31
0.0
100
AcDbText
 73
     1
  0
TEXT
  5
26B
330
1F
100
AcDbEntity
  8
GR2_01
 62
     7
100
AcDbText
 10
175.0250091552734
 20
98.77676030939276
 30
0.0
 40
1.515151515151515
  1
　１
 41
0.7615384615384615
  7
ＭＳ_ゴシック
 11
175.0250091552734
 21
98.49998474121094
 31
0.0
100
AcDbText
 73
     1
  0
LINE
  5
26C
330
1F
100
AcDbEntity
  8
GR2_01
 62
     7
100
AcDbLine
 10
166.405
 20
104.0
 30
0.0
 11
166.405
 21
93.50000000000003
 31
0.0
  0
TEXT
  5
26D
330
1F
100
AcDbEntity
  8
GR2_01
 62
     7
100
AcDbText
 10
167.4050140380859
 20
101.2767450506037
 30
0.0
 40
1.515151515151515
  1
Ｘ７
 41
0.7615384615384615
  7
ＭＳ_ゴシック
 11
167.4050140380859
 21
100.9999694824219
 31
0.0
100
AcDbText
 73
     1
  0
LINE
  5
26E
330
1F
100
AcDbEntity
  8
GR2_01
 62
     7
100
AcDbLine
 10
170.5200000000001
 20
93.50000000000003
 30
0.0
 11
170.5200000000001
 21
83.00000000000003
 31
0.0
  0
TEXT
  5
26F
330
1F
100
AcDbEntity
  8
GR2_01
 62
     7
100
AcDbText
 10
64.84002685546875
 20
90.77676030939276
 30
0.0
 40
1.515151515151515
  1
ＣＯＭ　
 41
0.7615384615384615
  7
ＭＳ_ゴシック
 11
64.84002685546875
 21
90.49998474121094
 31
0.0
100
AcDbText
 73
     1
  0
TEXT
  5
270
330
1F
100
AcDbEntity
  8
GR2_01
 62
     7
100
AcDbText
 10
64.83999633789062
 20
88.27676030939276
 30
0.0
 40
1.515151515151515
  1
　２
 41
0.7615384615384615
  7
ＭＳ_ゴシック
 11
64.83999633789062
 21
87.99998474121094
 31
0.0
100
AcDbText
 73
     1
  0
TEXT
  5
271
330
1F
100
AcDbEntity
  8
GR2_01
 62
     7
100
AcDbText
 10
72.46002197265625
 20
90.77676030939276
 30
0.0
 40
1.515151515151515
  1
ＣＯＭ　
 41
0.7615384615384615
  7
ＭＳ_ゴシック
 11
72.46002197265625
 21
90.49998474121094
 31
0.0
100
AcDbText
 73
     1
  0
TEXT
  5
272
330
1F
100
AcDbEntity
  8
GR2_01
 62
     7
100
AcDbText
 10
72.45999145507812
 20
88.27676030939276
 30
0.0
 40
1.515151515151515
  1
　２
 41
0.7615384615384615
  7
ＭＳ_ゴシック
 11
72.45999145507812
 21
87.99998474121094
 31
0.0
100
AcDbText
 73
     1
  0
TEXT
  5
273
330
1F
100
AcDbEntity
  8
GR2_01
 62
     7
100
AcDbText
 10
80.08001708984375
 20
90.77676030939276
 30
0.0
 40
1.515151515151515
  1
ＣＯＭ　
 41
0.7615384615384615
  7
ＭＳ_ゴシック
 11
80.08001708984375
 21
90.49998474121094
 31
0.0
100
AcDbText
 73
     1
  0
TEXT
  5
274
330
1F
100
AcDbEntity
  8
GR2_01
 62
     7
100
AcDbText
 10
80.08001708984375
 20
88.27676030939276
 30
0.0
 40
1.515151515151515
  1
　２
 41
0.7615384615384615
  7
ＭＳ_ゴシック
 11
80.08001708984375
 21
87.99998474121094
 31
0.0
100
AcDbText
 73
     1
  0
TEXT
  5
275
330
1F
100
AcDbEntity
  8
GR2_01
 62
     7
100
AcDbText
 10
87.70001220703125
 20
90.77676030939276
 30
0.0
 40
1.515151515151515
  1
ＣＯＭ　
 41
0.7615384615384615
  7
ＭＳ_ゴシック
 11
87.70001220703125
 21
90.49998474121094
 31
0.0
100
AcDbText
 73
     1
  0
TEXT
  5
276
330
1F
100
AcDbEntity
  8
GR2_01
 62
     7
100
AcDbText
 10
87.70001220703125
 20
88.27676030939276
 30
0.0
 40
1.515151515151515
  1
　２
 41
0.7615384615384615
  7
ＭＳ_ゴシック
 11
87.70001220703125
 21
87.99998474121094
 31
0.0
100
AcDbText
 73
     1
  0
TEXT
  5
277
330
1F
100
AcDbEntity
  8
GR2_01
 62
     7
100
AcDbText
 10
95.32000732421875
 20
90.77676030939276
 30
0.0
 40
1.515151515151515
  1
ＣＯＭ　
 41
0.7615384615384615
  7
ＭＳ_ゴシック
 11
95.32000732421875
 21
90.49998474121094
 31
0.0
100
AcDbText
 73
     1
  0
TEXT
  5
278
330
1F
100
AcDbEntity
  8
GR2_01
 62
     7
100
AcDbText
 10
95.32000732421875
 20
88.27676030939276
 30
0.0
 40
1.515151515151515
  1
　２
 41
0.7615384615384615
  7
ＭＳ_ゴシック
 11
95.32000732421875
 21
87.99998474121094
 31
0.0
100
AcDbText
 73
     1
  0
TEXT
  5
279
330
1F
100
AcDbEntity
  8
GR2_01
 62
     7
100
AcDbText
 10
102.9400024414062
 20
90.77676030939276
 30
0.0
 40
1.515151515151515
  1
ＣＯＭ　
 41
0.7615384615384615
  7
ＭＳ_ゴシック
 11
102.9400024414062
 21
90.49998474121094
 31
0.0
100
AcDbText
 73
     1
  0
TEXT
  5
27A
330
1F
100
AcDbEntity
  8
GR2_01
 62
     7
100
AcDbText
 10
102.9400024414062
 20
88.27676030939276
 30
0.0
 40
1.515151515151515
  1
　２
 41
0.7615384615384615
  7
ＭＳ_ゴシック
 11
102.9400024414062
 21
87.99998474121094
 31
0.0
100
AcDbText
 73
     1
  0
TEXT
  5
27B
330
1F
100
AcDbEntity
  8
GR2_01
 62
     7
100
AcDbText
 10
110.5600128173828
 20
90.77676030939276
 30
0.0
 40
1.515151515151515
  1
ＣＯＭ　
 41
0.7615384615384615
  7
ＭＳ_ゴシック
 11
110.5600128173828
 21
90.49998474121094
 31
0.0
100
AcDbText
 73
     1
  0
TEXT
  5
27C
330
1F
100
AcDbEntity
  8
GR2_01
 62
     7
100
AcDbText
 10
110.5600128173828
 20
88.27676030939276
 30
0.0
 40
1.515151515151515
  1
　２
 41
0.7615384615384615
  7
ＭＳ_ゴシック
 11
110.5600128173828
 21
87.99998474121094
 31
0.0
100
AcDbText
 73
     1
  0
TEXT
  5
27D
330
1F
100
AcDbEntity
  8
GR2_01
 62
     7
100
AcDbText
 10
118.1800079345703
 20
90.77676030939276
 30
0.0
 40
1.515151515151515
  1
ＣＯＭ　
 41
0.7615384615384615
  7
ＭＳ_ゴシック
 11
118.1800079345703
 21
90.49998474121094
 31
0.0
100
AcDbText
 73
     1
  0
TEXT
  5
27E
330
1F
100
AcDbEntity
  8
GR2_01
 62
     7
100
AcDbText
 10
118.1800079345703
 20
88.27676030939276
 30
0.0
 40
1.515151515151515
  1
　２
 41
0.7615384615384615
  7
ＭＳ_ゴシック
 11
118.1800079345703
 21
87.99998474121094
 31
0.0
100
AcDbText
 73
     1
  0
TEXT
  5
27F
330
1F
100
AcDbEntity
  8
GR2_01
 62
     7
100
AcDbText
 10
125.8000030517578
 20
90.77676030939276
 30
0.0
 40
1.515151515151515
  1
ＣＯＭ　
 41
0.7615384615384615
  7
ＭＳ_ゴシック
 11
125.8000030517578
 21
90.49998474121094
 31
0.0
100
AcDbText
 73
     1
  0
TEXT
  5
280
330
1F
100
AcDbEntity
  8
GR2_01
 62
     7
100
AcDbText
 10
125.8000030517578
 20
88.27676030939276
 30
0.0
 40
1.515151515151515
  1
　２
 41
0.7615384615384615
  7
ＭＳ_ゴシック
 11
125.8000030517578
 21
87.99998474121094
 31
0.0
100
AcDbText
 73
     1
  0
TEXT
  5
281
330
1F
100
AcDbEntity
  8
GR2_01
 62
     7
100
AcDbText
 10
133.4200134277344
 20
90.77676030939276
 30
0.0
 40
1.515151515151515
  1
ＣＯＭ　
 41
0.7615384615384615
  7
ＭＳ_ゴシック
 11
133.4200134277344
 21
90.49998474121094
 31
0.0
100
AcDbText
 73
     1
  0
TEXT
  5
282
330
1F
100
AcDbEntity
  8
GR2_01
 62
     7
100
AcDbText
 10
133.4199829101562
 20
88.27676030939276
 30
0.0
 40
1.515151515151515
  1
　２
 41
0.7615384615384615
  7
ＭＳ_ゴシック
 11
133.4199829101562
 21
87.99998474121094
 31
0.0
100
AcDbText
 73
     1
  0
TEXT
  5
283
330
1F
100
AcDbEntity
  8
GR2_01
 62
     7
100
AcDbText
 10
141.0400085449219
 20
90.77676030939276
 30
0.0
 40
1.515151515151515
  1
ＣＯＭ　
 41
0.7615384615384615
  7
ＭＳ_ゴシック
 11
141.0400085449219
 21
90.49998474121094
 31
0.0
100
AcDbText
 73
     1
  0
TEXT
  5
284
330
1F
100
AcDbEntity
  8
GR2_01
 62
     7
100
AcDbText
 10
141.0400085449219
 20
88.27676030939276
 30
0.0
 40
1.515151515151515
  1
　２
 41
0.7615384615384615
  7
ＭＳ_ゴシック
 11
141.0400085449219
 21
87.99998474121094
 31
0.0
100
AcDbText
 73
     1
  0
TEXT
  5
285
330
1F
100
AcDbEntity
  8
GR2_01
 62
     7
100
AcDbText
 10
148.6600036621094
 20
90.77676030939276
 30
0.0
 40
1.515151515151515
  1
ＣＯＭ　
 41
0.7615384615384615
  7
ＭＳ_ゴシック
 11
148.6600036621094
 21
90.49998474121094
 31
0.0
100
AcDbText
 73
     1
  0
TEXT
  5
286
330
1F
100
AcDbEntity
  8
GR2_01
 62
     7
100
AcDbText
 10
148.6600036621094
 20
88.27676030939276
 30
0.0
 40
1.515151515151515
  1
　２
 41
0.7615384615384615
  7
ＭＳ_ゴシック
 11
148.6600036621094
 21
87.99998474121094
 31
0.0
100
AcDbText
 73
     1
  0
TEXT
  5
287
330
1F
100
AcDbEntity
  8
GR2_01
 62
     7
100
AcDbText
 10
156.2800140380859
 20
90.77676030939276
 30
0.0
 40
1.515151515151515
  1
ＣＯＭ　
 41
0.7615384615384615
  7
ＭＳ_ゴシック
 11
156.2800140380859
 21
90.49998474121094
 31
0.0
100
AcDbText
 73
     1
  0
TEXT
  5
288
330
1F
100
AcDbEntity
  8
GR2_01
 62
     7
100
AcDbText
 10
156.2800140380859
 20
88.27676030939276
 30
0.0
 40
1.515151515151515
  1
　２
 41
0.7615384615384615
  7
ＭＳ_ゴシック
 11
156.2800140380859
 21
87.99998474121094
 31
0.0
100
AcDbText
 73
     1
  0
TEXT
  5
289
330
1F
100
AcDbEntity
  8
GR2_01
 62
     7
100
AcDbText
 10
163.9000091552734
 20
90.77676030939276
 30
0.0
 40
1.515151515151515
  1
ＣＯＭ　
 41
0.7615384615384615
  7
ＭＳ_ゴシック
 11
163.9000091552734
 21
90.49998474121094
 31
0.0
100
AcDbText
 73
     1
  0
TEXT
  5
28A
330
1F
100
AcDbEntity
  8
GR2_01
 62
     7
100
AcDbText
 10
163.9000091552734
 20
88.27676030939276
 30
0.0
 40
1.515151515151515
  1
　２
 41
0.7615384615384615
  7
ＭＳ_ゴシック
 11
163.9000091552734
 21
87.99998474121094
 31
0.0
100
AcDbText
 73
     1
  0
TEXT
  5
28B
330
1F
100
AcDbEntity
  8
GR2_01
 62
     7
100
AcDbText
 10
171.5200042724609
 20
90.77676030939276
 30
0.0
 40
1.515151515151515
  1
ＣＯＭ　
 41
0.7615384615384615
  7
ＭＳ_ゴシック
 11
171.5200042724609
 21
90.49998474121094
 31
0.0
100
AcDbText
 73
     1
  0
TEXT
  5
28C
330
1F
100
AcDbEntity
  8
GR2_01
 62
     7
100
AcDbText
 10
171.5200042724609
 20
88.27676030939276
 30
0.0
 40
1.515151515151515
  1
　２
 41
0.7615384615384615
  7
ＭＳ_ゴシック
 11
171.5200042724609
 21
87.99998474121094
 31
0.0
100
AcDbText
 73
     1
  0
TEXT
  5
28D
330
1F
100
AcDbEntity
  8
GR2_01
 62
     7
100
AcDbText
 10
179.1273651123047
 20
90.77676030939276
 30
0.0
 40
1.515151515151515
  1
ＣＯＭ　
 41
0.7615384615384615
  7
ＭＳ_ゴシック
 11
179.1273651123047
 21
90.49998474121094
 31
0.0
100
AcDbText
 73
     1
  0
TEXT
  5
28E
330
1F
100
AcDbEntity
  8
GR2_01
 62
     7
100
AcDbText
 10
179.1273651123047
 20
88.27676030939276
 30
0.0
 40
1.515151515151515
  1
　２
 41
0.7615384615384615
  7
ＭＳ_ゴシック
 11
179.1273651123047
 21
87.99998474121094
 31
0.0
100
AcDbText
 73
     1
  0
HATCH
  5
28F
330
1F
100
AcDbEntity
  8
GR2_01
 62
     7
100
AcDbHatch
 10
0.0
 20
0.0
 30
0.0
210
0.0
220
0.0
230
1.0
  2
_USER
 70
     0
 71
     0
 91
        2
 92
        0
 93
        8
 72
     1
 10
52.10499999999996
 20
104.0
 11
44.92499999999995
 21
104.0
 72
     1
 10
44.92499999999995
 20
104.0
 11
44.92499999999993
 21
93.50000000000003
 72
     1
 10
44.92499999999993
 20
93.50000000000003
 11
49.03999999999996
 21
93.50000000000003
 72
     1
 10
49.03999999999996
 20
93.50000000000003
 11
49.03999999999996
 21
83.00000000000006
 72
     1
 10
49.03999999999996
 20
83.00000000000006
 11
56.21999999999994
 21
83.00000000000003
 72
     1
 10
56.21999999999997
 20
83.00000000000003
 11
56.21999999999997
 21
93.50000000000006
 72
     1
 10
56.21999999999997
 20
93.50000000000006
 11
52.10499999999993
 21
93.5
 72
     1
 10
52.10499999999996
 20
93.50000000000003
 11
52.10499999999996
 21
104.0
 97
        0
 92
        0
 93
        5
 72
     1
 10
41.41999999999996
 20
93.50000000000003
 11
37.0
 21
93.50000000000003
 72
     1
 10
37.0
 20
93.50000000000003
 11
37.0
 21
83.00000000000006
 72
     1
 10
37.0
 20
83.00000000000009
 11
41.41999999999996
 21
83.00000000000006
 72
     1
 10
41.41999999999996
 20
83.00000000000003
 11
41.41999999999996
 21
89.19128181300584
 72
     1
 10
41.41999999999996
 20
89.19128181300584
 11
41.41999999999996
 21
93.50000000000003
 97
        0
 75
     0
 76
     0
 52
45.0
 41
0.3
 77
     0
 78
     1
 53
45.0
 43
0.0
 44
0.0
 45
-0.2121320343559642
 46
0.2121320343559643
 79
     0
 98
        0
  0
LINE
  5
290
330
1F
100
AcDbEntity
  8
GR2_01
 62
     7
100
AcDbLine
 10
112.865
 20
104.0
 30
0.0
 11
112.8649999999999
 21
93.30000000000001
 31
0.0
  0
LINE
  5
291
330
1F
100
AcDbEntity
  8
GR2_01
 62
     7
100
AcDbLine
 10
113.2649999999999
 20
104.0
 30
0.0
 11
113.2649999999999
 21
93.70000000000007
 31
0.0
  0
LINE
  5
292
330
1F
100
AcDbEntity
  8
GR2_01
 62
     7
100
AcDbLine
 10
116.98
 20
93.30000000000004
 30
0.0
 11
116.98
 21
83.00000000000003
 31
0.0
  0
LINE
  5
293
330
1F
100
AcDbEntity
  8
GR2_01
 62
     7
100
AcDbLine
 10
117.3799999999999
 20
93.70000000000005
 30
0.0
 11
117.3799999999999
 21
83.00000000000003
 31
0.0
  0
LINE
  5
294
330
1F
100
AcDbEntity
  8
GR2_01
 62
     7
100
AcDbLine
 10
113.2649999999999
 20
93.70000000000007
 30
0.0
 11
117.38
 21
93.70000000000005
 31
0.0
  0
LINE
  5
295
330
1F
100
AcDbEntity
  8
GR2_01
 62
     7
100
AcDbLine
 10
112.865
 20
93.30000000000004
 30
0.0
 11
116.98
 21
93.30000000000004
 31
0.0
  0
LINE
  5
296
330
1F
100
AcDbEntity
  8
GR2_01
 62
     7
100
AcDbLine
 10
173.825
 20
104.0
 30
0.0
 11
173.825
 21
93.30000000000001
 31
0.0
  0
LINE
  5
297
330
1F
100
AcDbEntity
  8
GR2_01
 62
     7
100
AcDbLine
 10
174.225
 20
104.0
 30
0.0
 11
174.225
 21
93.70000000000007
 31
0.0
  0
LINE
  5
298
330
1F
100
AcDbEntity
  8
GR2_01
 62
     7
100
AcDbLine
 10
177.94
 20
93.30000000000004
 30
0.0
 11
177.94
 21
83.00000000000003
 31
0.0
  0
LINE
  5
299
330
1F
100
AcDbEntity
  8
GR2_01
 62
     7
100
AcDbLine
 10
178.34
 20
93.70000000000005
 30
0.0
 11
178.34
 21
83.00000000000003
 31
0.0
  0
LINE
  5
29A
330
1F
100
AcDbEntity
  8
GR2_01
 62
     7
100
AcDbLine
 10
174.225
 20
93.70000000000007
 30
0.0
 11
178.34
 21
93.70000000000005
 31
0.0
  0
LINE
  5
29B
330
1F
100
AcDbEntity
  8
GR2_01
 62
     7
100
AcDbLine
 10
173.825
 20
93.30000000000004
 30
0.0
 11
177.94
 21
93.30000000000004
 31
0.0
  0
HATCH
  5
29C
330
1F
100
AcDbEntity
  8
GR2_01
 62
     7
100
AcDbHatch
 10
0.0
 20
0.0
 30
0.0
210
0.0
220
0.0
230
1.0
  2
_USER
 70
     0
 71
     0
 91
        1
 92
        0
 93
        4
 72
     1
 10
185.747341525925
 20
245.0
 11
184.047341525925
 21
245.0
 72
     1
 10
184.047341525925
 20
245.0
 11
184.0473415259251
 21
224.0
 72
     1
 10
184.0473415259251
 20
224.0
 11
185.747341525925
 21
224.0
 72
     1
 10
185.747341525925
 20
224.0
 11
185.747341525925
 21
245.0
 97
        0
 75
     0
 76
     0
 52
45.0
 41
0.3
 77
     0
 78
     1
 53
45.0
 43
0.0
 44
0.0
 45
-0.2121320343559642
 46
0.2121320343559643
 79
     0
 98
        0
  0
HATCH
  5
29D
330
1F
100
AcDbEntity
  8
GR2_01
 62
     7
100
AcDbHatch
 10
0.0
 20
0.0
 30
0.0
210
0.0
220
0.0
230
1.0
  2
_USER
 70
     0
 71
     0
 91
        1
 92
        0
 93
        4
 72
     1
 10
185.747341525925
 20
125.0
 11
184.047341525925
 21
125.0
 72
     1
 10
184.047341525925
 20
125.0
 11
184.0473415259251
 21
104.0
 72
     1
 10
184.0473415259251
 20
104.0
 11
185.747341525925
 21
103.9999999999999
 72
     1
 10
185.747341525925
 20
104.0
 11
185.747341525925
 21
125.0
 97
        0
 75
     0
 76
     0
 52
45.0
 41
0.3
 77
     0
 78
     1
 53
45.0
 43
0.0
 44
0.0
 45
-0.2121320343559642
 46
0.2121320343559643
 79
     0
 98
        0
  0
LINE
  5
29E
330
1F
100
AcDbEntity
  8
GR2_01
 62
     7
100
AcDbLine
 10
37.0
 20
104.0
 30
0.0
 11
185.747341525925
 21
104.0
 31
0.0
  0
LINE
  5
2A0
330
1F
100
AcDbEntity
  8
GR2_01
  6
0_35点線
 62
     7
100
AcDbLine
 10
37.00000000000001
 20
104.0
 30
0.0
 11
25.0
 21
104.0
 31
0.0
  0
LINE
  5
2A1
330
1F
100
AcDbEntity
  8
GR2_01
  6
0_35点線
 62
     7
100
AcDbLine
 10
185.7473415259249
 20
104.0
 30
0.0
 11
198.0
 21
104.0
 31
0.0
  0
TEXT
  5
2A2
330
1F
100
AcDbEntity
  8
GR2_01
 62
     7
100
AcDbText
 10
154.9427032470703
 20
13.55355113636364
 30
0.0
 40
3.03030303030303
  1
（ｉＱ－Ｆ，Ｆｘ用）
 41
0.8884615384615386
  7
ＭＳ_ゴシック
 72
     1
 11
172.4427032470703
 21
13.0
 31
0.0
100
AcDbText
 73
     1
  0
TEXT
  5
2A3
330
1F
100
AcDbEntity
  8
GR2_01
 62
     7
100
AcDbText
 10
147.9427032470703
 20
18.05355113636364
 30
0.0
 40
3.03030303030303
  1
ＦＡ－ＴＨ１６Ｘ２００Ａ３１
 41
0.8884615384615387
  7
ＭＳ_ゴシック
 72
     1
 11
172.4427032470703
 21
17.5
 31
0.0
100
AcDbText
 73
     1
  0
ENDSEC
  0
SECTION
  2
OBJECTS
  0
DICTIONARY
  5
C
330
0
100
AcDbDictionary
  3
ACAD_GROUP
350
D
  3
ACAD_LAYOUT
350
1A
  3
ACAD_MATERIAL
350
43
  3
ACAD_MLEADERSTYLE
350
6B
  3
ACAD_MLINESTYLE
350
17
  3
ACAD_PLOTSETTINGS
350
19
  3
ACAD_SCALELIST
350
47
  3
ACAD_VISUALSTYLE
350
2A
  3
ACDBHEADERROUNDTRIPXREC
350
2A4
  3
ACDBVARIABLEDICTIONARY
350
2C5
  0
DICTIONARY
  5
2CE
330
8
100
AcDbDictionary
280
     1
  3
ACAD_XREC_ROUNDTRIP
360
2CF
  0
DICTIONARY
  5
D
102
{ACAD_REACTORS
330
C
102
}
330
C
100
AcDbDictionary
  0
DICTIONARY
  5
1A
102
{ACAD_REACTORS
330
C
102
}
330
C
100
AcDbDictionary
  0
DICTIONARY
  5
43
102
{ACAD_REACTORS
330
C
102
}
330
C
100
AcDbDictionary
  3
BYBLOCK
350
45
  3
BYLAYER
350
44
  3
GLOBAL
350
46
  0
DICTIONARY
  5
6B
102
{ACAD_REACTORS
330
C
102
}
330
C
100
AcDbDictionary
  3
STANDARD
350
6C
  0
DICTIONARY
  5
17
102
{ACAD_REACTORS
330
C
102
}
330
C
100
AcDbDictionary
  3
STANDARD
350
18
  0
DICTIONARY
  5
19
102
{ACAD_REACTORS
330
C
102
}
330
C
100
AcDbDictionary
  0
DICTIONARY
  5
47
102
{ACAD_REACTORS
330
C
102
}
330
C
100
AcDbDictionary
  3
A0
350
48
  3
A1
350
49
  3
A2
350
4A
  3
A3
350
4B
  3
A4
350
4C
  3
A5
350
4D
  3
A6
350
4E
  3
A7
350
4F
  3
A8
350
50
  3
A9
350
51
  3
B0
350
52
  3
B1
350
53
  3
B2
350
54
  3
B3
350
55
  3
B4
350
56
  3
B5
350
57
  3
B6
350
58
  3
B7
350
59
  3
B8
350
5A
  3
B9
350
5B
  3
C0
350
5C
  3
C1
350
5D
  3
C2
350
5E
  3
C3
350
5F
  3
C4
350
60
  3
C5
350
61
  3
C6
350
62
  3
C7
350
63
  3
C8
350
64
  3
C9
350
65
  3
D0
350
66
  3
D1
350
67
  3
D2
350
68
  0
DICTIONARY
  5
2A
102
{ACAD_REACTORS
330
C
102
}
330
C
100
AcDbDictionary
  3
2DWIREFRAME
350
2F
  3
BASIC
350
32
  3
BRIGHTEN
350
36
  3
COLORCHANGE
350
3A
  3
CONCEPTUAL
350
34
  3
DIM
350
35
  3
EDGECOLOROFF
350
3D
  3
FACEPATTERN
350
39
  3
FLAT
350
2B
  3
FLATWITHEDGES
350
2C
  3
GOURAUD
350
2D
  3
GOURAUDWITHEDGES
350
2E
  3
HIDDEN
350
31
  3
JITTEROFF
350
3B
  3
LINEPATTERN
350
38
  3
OVERHANGOFF
350
3C
  3
REALISTIC
350
33
  3
SHADED
350
42
  3
SHADED_WITH_EDGES
350
41
  3
SHADES_OF_GRAY
350
3E
  3
SKETCHY
350
3F
  3
THICKEN
350
37
  3
WIREFRAME
350
30
  3
X-RAY
350
40
  0
DICTIONARY
  5
2A4
102
{ACAD_REACTORS
330
C
102
}
330
C
100
AcDbDictionary
  3
CEPSNID
350
2AE
  3
CEPSNTYPE
350
2AD
  3
DIMSTYLEDATA
350
2C4
  3
FINGERPRINTGUID
350
2AF
  3
HYPERLINKBASE
350
2A7
  3
INSUNITS
350
2AC
  3
LAYOUTDICT
350
2A9
  3
LWETCUNION
350
2AB
  3
PLOTSETDICT
350
2AA
  3
PSVPSCALE
350
2B1
  3
PUCSBASE
350
2B4
  3
PUCSORGBACK
350
2BA
  3
PUCSORGBOTTOM
350
2B6
  3
PUCSORGFRONT
350
2B9
  3
PUCSORGLEFT
350
2B7
  3
PUCSORGRIGHT
350
2B8
  3
PUCSORGTOP
350
2B5
  3
PUCSORTHOREF
350
2B2
  3
PUCSORTHOVIEW
350
2B3
  3
STYLESHEET
350
2A8
  3
TSTACKALIGN
350
2A5
  3
TSTACKSIZE
350
2A6
  3
UCSBASE
350
2BD
  3
UCSORGBACK
350
2C3
  3
UCSORGBOTTOM
350
2BF
  3
UCSORGFRONT
350
2C2
  3
UCSORGLEFT
350
2C0
  3
UCSORGRIGHT
350
2C1
  3
UCSORGTOP
350
2BE
  3
UCSORTHOREF
350
2BB
  3
UCSORTHOVIEW
350
2BC
  3
VERSIONGUID
350
2B0
  0
DICTIONARY
  5
2C5
102
{ACAD_REACTORS
330
C
102
}
330
C
100
AcDbDictionary
  3
CANNOSCALE
350
2D0
  3
CMLEADERSTYLE
350
2C7
  3
CTABLESTYLE
350
2C6
  3
DIMASSOC
350
2CC
  3
HIDETEXT
350
2CD
  3
MSLTSCALE
350
2D1
  3
PSOLHEIGHT
350
2C9
  3
PSOLWIDTH
350
2C8
  0
XRECORD
  5
2CF
102
{ACAD_REACTORS
330
2CE
102
}
330
2CE
100
AcDbXrecord
102
VTR_0.000_0.000_1.000_1.000_GRIDDISPLAY
 70
     3
102
VTR_0.000_0.000_1.000_1.000_GRIDMAJOR
 70
     5
102
VTR_0.000_0.000_1.000_1.000_DEFAULTLIGHTING
280
     1
102
VTR_0.000_0.000_1.000_1.000_DEFAULTLIGHTINGTYPE
 70
     1
102
VTR_0.000_0.000_1.000_1.000_BRIGHTNESS
141
0.0
102
VTR_0.000_0.000_1.000_1.000_CONTRAST
142
0.0
  0
MATERIAL
  5
45
102
{ACAD_REACTORS
330
43
102
}
102
{ACAD_XDICTIONARY
360
2D4
102
}
330
43
100
AcDbMaterial
  1
BYBLOCK
  0
MATERIAL
  5
44
102
{ACAD_REACTORS
330
43
102
}
102
{ACAD_XDICTIONARY
360
2D2
102
}
330
43
100
AcDbMaterial
  1
BYLAYER
  0
MATERIAL
  5
46
102
{ACAD_REACTORS
330
43
102
}
102
{ACAD_XDICTIONARY
360
2D6
102
}
330
43
100
AcDbMaterial
  1
GLOBAL
  0
ACAD_PROXY_OBJECT
  5
6C
102
{ACAD_REACTORS
330
6B
102
}
330
6B
100
AcDbProxyObject
 90
      499
 91
      505
 93
      610
310
40901902A4063FBFFFFFE0000000000000020400000000000020404214DD185B99185C990000000000000104090141901A00000000000004100000000000000041025764000000000000039000
340
14
340
0
340
11
340
0
 94
        0
1001
ACAD_MLEADERVER
1070
     2
  0
MLINESTYLE
  5
18
102
{ACAD_REACTORS
330
17
102
}
330
17
100
AcDbMlineStyle
  2
Standard
 70
     0
  3

 62
   256
 51
90.0
 52
90.0
 71
     2
 49
0.5
 62
   256
  6
BYLAYER
 49
-0.5
 62
   256
  6
BYLAYER
  0
ACAD_PROXY_OBJECT
  5
48
102
{ACAD_REACTORS
330
47
102
}
330
47
100
AcDbProxyObject
 90
      499
 91
      503
 93
       41
310
903313A31580
  0
ACAD_PROXY_OBJECT
  5
49
102
{ACAD_REACTORS
330
47
102
}
330
47
100
AcDbProxyObject
 90
      499
 91
      503
 93
      105
310
903313A324000000000000004000
  0
ACAD_PROXY_OBJECT
  5
4A
102
{ACAD_REACTORS
330
47
102
}
330
47
100
AcDbProxyObject
 90
      499
 91
      503
 93
      105
310
903313A344000000000000104000
  0
ACAD_PROXY_OBJECT
  5
4B
102
{ACAD_REACTORS
330
47
102
}
330
47
100
AcDbProxyObject
 90
      499
 91
      503
 93
      105
310
903313A354000000000000144000
  0
ACAD_PROXY_OBJECT
  5
4C
102
{ACAD_REACTORS
330
47
102
}
330
47
100
AcDbProxyObject
 90
      499
 91
      503
 93
      105
310
903313A384000000000000204000
  0
ACAD_PROXY_OBJECT
  5
4D
102
{ACAD_REACTORS
330
47
102
}
330
47
100
AcDbProxyObject
 90
      499
 91
      503
 93
      113
310
904313A31304000000000000244000
  0
ACAD_PROXY_OBJECT
  5
4E
102
{ACAD_REACTORS
330
47
102
}
330
47
100
AcDbProxyObject
 90
      499
 91
      503
 93
      113
310
904313A31364000000000000304000
  0
ACAD_PROXY_OBJECT
  5
4F
102
{ACAD_REACTORS
330
47
102
}
330
47
100
AcDbProxyObject
 90
      499
 91
      503
 93
      113
310
904313A32304000000000000344000
  0
ACAD_PROXY_OBJECT
  5
50
102
{ACAD_REACTORS
330
47
102
}
330
47
100
AcDbProxyObject
 90
      499
 91
      503
 93
      113
310
904313A333040000000000003E4000
  0
ACAD_PROXY_OBJECT
  5
51
102
{ACAD_REACTORS
330
47
102
}
330
47
100
AcDbProxyObject
 90
      499
 91
      503
 93
      113
310
904313A34304000000000000444000
  0
ACAD_PROXY_OBJECT
  5
52
102
{ACAD_REACTORS
330
47
102
}
330
47
100
AcDbProxyObject
 90
      499
 91
      503
 93
      113
310
904313A35304000000000000494000
  0
ACAD_PROXY_OBJECT
  5
53
102
{ACAD_REACTORS
330
47
102
}
330
47
100
AcDbProxyObject
 90
      499
 91
      503
 93
      121
310
905313A3130304000000000000594000
  0
ACAD_PROXY_OBJECT
  5
54
102
{ACAD_REACTORS
330
47
102
}
330
47
100
AcDbProxyObject
 90
      499
 91
      503
 93
      105
310
903323A310000000000000010100
  0
ACAD_PROXY_OBJECT
  5
55
102
{ACAD_REACTORS
330
47
102
}
330
47
100
AcDbProxyObject
 90
      499
 91
      503
 93
      105
310
903343A310000000000000410100
  0
ACAD_PROXY_OBJECT
  5
56
102
{ACAD_REACTORS
330
47
102
}
330
47
100
AcDbProxyObject
 90
      499
 91
      503
 93
      105
310
903383A310000000000000810100
  0
ACAD_PROXY_OBJECT
  5
57
102
{ACAD_REACTORS
330
47
102
}
330
47
100
AcDbProxyObject
 90
      499
 91
      503
 93
      113
310
90431303A310000000000000910100
  0
ACAD_PROXY_OBJECT
  5
58
102
{ACAD_REACTORS
330
47
102
}
330
47
100
AcDbProxyObject
 90
      499
 91
      503
 93
      121
310
9053130303A310000000000001650100
  0
ACAD_PROXY_OBJECT
  5
59
102
{ACAD_REACTORS
330
47
102
}
330
47
100
AcDbProxyObject
 90
      499
 91
      503
 93
      257
310
90E312F31323822203D2031272D3022000000000000200FC000000000000284000
  0
ACAD_PROXY_OBJECT
  5
5A
102
{ACAD_REACTORS
330
47
102
}
330
47
100
AcDbProxyObject
 90
      499
 91
      503
 93
      249
310
90D312F363422203D2031272D3022000000000000240FC000000000000284000
  0
ACAD_PROXY_OBJECT
  5
5B
102
{ACAD_REACTORS
330
47
102
}
330
47
100
AcDbProxyObject
 90
      499
 91
      503
 93
      249
310
90D312F333222203D2031272D3022000000000000280FC000000000000284000
  0
ACAD_PROXY_OBJECT
  5
5C
102
{ACAD_REACTORS
330
47
102
}
330
47
100
AcDbProxyObject
 90
      499
 91
      503
 93
      249
310
90D312F313622203D2031272D30220000000000002C0FC000000000000284000
  0
ACAD_PROXY_OBJECT
  5
5D
102
{ACAD_REACTORS
330
47
102
}
330
47
100
AcDbProxyObject
 90
      499
 91
      503
 93
      249
310
90D332F333222203D2031272D30220000000000002E0FC000000000000284000
  0
ACAD_PROXY_OBJECT
  5
5E
102
{ACAD_REACTORS
330
47
102
}
330
47
100
AcDbProxyObject
 90
      499
 91
      503
 93
      241
310
90C312F3822203D2031272D3022000000000000300FC000000000000284000
  0
ACAD_PROXY_OBJECT
  5
5F
102
{ACAD_REACTORS
330
47
102
}
330
47
100
AcDbProxyObject
 90
      499
 91
      503
 93
      249
310
90D332F313622203D2031272D3022000000000000320FC000000000000284000
  0
ACAD_PROXY_OBJECT
  5
60
102
{ACAD_REACTORS
330
47
102
}
330
47
100
AcDbProxyObject
 90
      499
 91
      503
 93
      241
310
90C312F3422203D2031272D3022000000000000340FC000000000000284000
  0
ACAD_PROXY_OBJECT
  5
61
102
{ACAD_REACTORS
330
47
102
}
330
47
100
AcDbProxyObject
 90
      499
 91
      503
 93
      241
310
90C332F3822203D2031272D3022000000000000360FC000000000000284000
  0
ACAD_PROXY_OBJECT
  5
62
102
{ACAD_REACTORS
330
47
102
}
330
47
100
AcDbProxyObject
 90
      499
 91
      503
 93
      241
310
90C312F3222203D2031272D3022000000000000380FC000000000000284000
  0
ACAD_PROXY_OBJECT
  5
63
102
{ACAD_REACTORS
330
47
102
}
330
47
100
AcDbProxyObject
 90
      499
 91
      503
 93
      241
310
90C332F3422203D2031272D30220000000000003A0FC000000000000284000
  0
ACAD_PROXY_OBJECT
  5
64
102
{ACAD_REACTORS
330
47
102
}
330
47
100
AcDbProxyObject
 90
      499
 91
      503
 93
      161
310
90A3122203D2031272D30224000000000000284000
  0
ACAD_PROXY_OBJECT
  5
65
102
{ACAD_REACTORS
330
47
102
}
330
47
100
AcDbProxyObject
 90
      499
 91
      503
 93
      257
310
90E312D312F3222203D2031272D30220000000000003E0FC000000000000284000
  0
ACAD_PROXY_OBJECT
  5
66
102
{ACAD_REACTORS
330
47
102
}
330
47
100
AcDbProxyObject
 90
      499
 91
      503
 93
      225
310
90A3322203D2031272D302200000000000002100000000000000284000
  0
ACAD_PROXY_OBJECT
  5
67
102
{ACAD_REACTORS
330
47
102
}
330
47
100
AcDbProxyObject
 90
      499
 91
      503
 93
      225
310
90A3622203D2031272D302200000000000006100000000000000284000
  0
ACAD_PROXY_OBJECT
  5
68
102
{ACAD_REACTORS
330
47
102
}
330
47
100
AcDbProxyObject
 90
      499
 91
      503
 93
      249
310
90D31272D3022203D2031272D30220000000000000A100000000000000284000
  0
ACAD_PROXY_OBJECT
  5
2F
102
{ACAD_REACTORS
330
2A
102
}
330
2A
100
AcDbProxyObject
 90
      499
 91
      501
 93
      436
310
42CC9915DA5C99599C985B595049028333333333333E33F0000000000000F90107901411070040501600405405064090741402480A0340
1001
ACAD
1000
AcDbSavedByObjectVersion
1070
     0
  0
ACAD_PROXY_OBJECT
  5
32
102
{ACAD_REACTORS
330
2A
102
}
330
2A
100
AcDbProxyObject
 90
      499
 91
      501
 93
      388
310
4150985CDA58D07406404333333333333E33F0000000000000F90107A41107004050150841D405064090741402480A0350
1001
ACAD
1000
AcDbSavedByObjectVersion
1070
     0
  0
ACAD_PROXY_OBJECT
  5
36
102
{ACAD_REACTORS
330
2A
102
}
330
2A
100
AcDbProxyObject
 90
      499
 91
      501
 93
      428
310
42109C9A59DA1D195B90C409028333333333333E33F0000000000000F9010790141107004050150841D405064090741402480A029950
1001
ACAD
1000
AcDbSavedByObjectVersion
1070
     0
  0
ACAD_PROXY_OBJECT
  5
3A
102
{ACAD_REACTORS
330
2A
102
}
330
2A
100
AcDbProxyObject
 90
      499
 91
      501
 93
      452
310
42D0DBDB1BDC90DA185B99D95104090240C333333333333E33F0000000000000F90108901411070040501508421405064090741402480A0350
1001
ACAD
1000
AcDbSavedByObjectVersion
1070
     0
  0
ACAD_PROXY_OBJECT
  5
34
102
{ACAD_REACTORS
330
2A
102
}
330
2A
100
AcDbProxyObject
 90
      499
 91
      501
 93
      500
310
4290DBDB98D95C1D1D585B10940D028333333333333E33F0000000000000F90107902409070040501000000000018199010841D405064090740C02480A0340
1001
ACAD
1000
AcDbSavedByObjectVersion
1070
     0
  0
ACAD_PROXY_OBJECT
  5
35
102
{ACAD_REACTORS
330
2A
102
}
330
2A
100
AcDbProxyObject
 90
      499
 91
      501
 93
      412
310
40D11A5B50B409028333333333333E33F0000000000000F9010790141107004050150841D405064090741402480A02677FFFFFD0
1001
ACAD
1000
AcDbSavedByObjectVersion
1070
     0
  0
ACAD_PROXY_OBJECT
  5
3D
102
{ACAD_REACTORS
330
2A
102
}
330
2A
100
AcDbProxyObject
 90
      499
 91
      501
 93
      452
310
43115919D950DBDB1BDC93D999916409028333333333333E33F0000000000000F9010790141107004050150841D405064090741402480A0350
1001
ACAD
1000
AcDbSavedByObjectVersion
1070
     0
  0
ACAD_PROXY_OBJECT
  5
39
102
{ACAD_REACTORS
330
2A
102
}
330
2A
100
AcDbProxyObject
 90
      499
 91
      501
 93
      444
310
42D19858D95C185D1D195C9B90F409028333333333333E33F0000000000000F9010790141107004050150841D405064090741402480A0350
1001
ACAD
1000
AcDbSavedByObjectVersion
1070
     0
  0
ACAD_PROXY_OBJECT
  5
2B
102
{ACAD_REACTORS
330
2A
102
}
330
2A
100
AcDbProxyObject
 90
      499
 91
      501
 93
      380
310
41119B185D240901404333333333333E33F0000000000000F9010740A907004050150841D405064090741402480A1B50
1001
ACAD
1000
AcDbSavedByObjectVersion
1070
     0
  0
ACAD_PROXY_OBJECT
  5
2C
102
{ACAD_REACTORS
330
2A
102
}
330
2A
100
AcDbProxyObject
 90
      499
 91
      501
 93
      468
310
43519B185D15DA5D1A115919D95CD0140901404333333333333E33F0000000000000F90107409019070040501600405405064090741402480A1B50
1001
ACAD
1000
AcDbSavedByObjectVersion
1070
     0
  0
ACAD_PROXY_OBJECT
  5
2D
102
{ACAD_REACTORS
330
2A
102
}
330
2A
100
AcDbProxyObject
 90
      499
 91
      501
 93
      404
310
41D1DBDD5C985D5910240902404333333333333E33F0000000000000F9010740A9070040501641D405064090741402480A1B50
1001
ACAD
1000
AcDbSavedByObjectVersion
1070
     0
  0
ACAD_PROXY_OBJECT
  5
2E
102
{ACAD_REACTORS
330
2A
102
}
330
2A
100
AcDbProxyObject
 90
      499
 91
      501
 93
      492
310
4411DBDD5C985D5915DA5D1A115919D95CD0340902404333333333333E33F0000000000000F90107409019070040501600405405064090741402480A1B50
1001
ACAD
1000
AcDbSavedByObjectVersion
1070
     0
  0
ACAD_PROXY_OBJECT
  5
31
102
{ACAD_REACTORS
330
2A
102
}
330
2A
100
AcDbProxyObject
 90
      499
 91
      501
 93
      476
310
41921A5919195B90640502408333333333333E33F0000000000000F901079024090700405020000000000001110200405405064090740C02480A0340
1001
ACAD
1000
AcDbSavedByObjectVersion
1070
     0
  0
ACAD_PROXY_OBJECT
  5
3B
102
{ACAD_REACTORS
330
2A
102
}
330
2A
100
AcDbProxyObject
 90
      499
 91
      501
 93
      428
310
42529A5D1D195C93D999914409028333333333333E33F0000000000000F9010790141107004050150A41D405064090741402480A0350
1001
ACAD
1000
AcDbSavedByObjectVersion
1070
     0
  0
ACAD_PROXY_OBJECT
  5
38
102
{ACAD_REACTORS
330
2A
102
}
330
2A
100
AcDbProxyObject
 90
      499
 91
      501
 93
      444
310
42D31A5B995C185D1D195C9B90E409028333333333333E33F0000000000000F9010790141107004050750841D405064090741402483A0350
1001
ACAD
1000
AcDbSavedByObjectVersion
1070
     0
  0
ACAD_PROXY_OBJECT
  5
3C
102
{ACAD_REACTORS
330
2A
102
}
330
2A
100
AcDbProxyObject
 90
      499
 91
      501
 93
      444
310
42D3DD995C9A185B99D3D999915409028333333333333E33F0000000000000F9010790141107004050150941D405064090741402480A0350
1001
ACAD
1000
AcDbSavedByObjectVersion
1070
     0
  0
ACAD_PROXY_OBJECT
  5
33
102
{ACAD_REACTORS
330
2A
102
}
330
2A
100
AcDbProxyObject
 90
      499
 91
      501
 93
      428
310
425499585B1A5CDD1A58D08409038333333333333E33F0000000000000F9010740A907004050150800405405064090740C02480A1B40
1001
ACAD
1000
AcDbSavedByObjectVersion
1070
     0
  0
ACAD_PROXY_OBJECT
  5
42
102
{ACAD_REACTORS
330
2A
102
}
330
2A
100
AcDbProxyObject
 90
      499
 91
      501
 93
      420
310
4194DA1859195911B40902404333333333333E33F0000000000000F9010740A41107004050150800405405064090840C02480A0B40
1001
ACAD
1000
AcDbSavedByObjectVersion
1070
     0
  0
ACAD_PROXY_OBJECT
  5
41
102
{ACAD_REACTORS
330
2A
102
}
330
2A
100
AcDbProxyObject
 90
      499
 91
      501
 93
      516
310
4454DA18591959081DDA5D1A08195919D95CD1A40902404333333333333E33F0000000000000F901074090142907004050250800405405064090740C02480A0B40
1001
ACAD
1000
AcDbSavedByObjectVersion
1070
     0
  0
ACAD_PROXY_OBJECT
  5
3E
102
{ACAD_REACTORS
330
2A
102
}
330
2A
100
AcDbProxyObject
 90
      499
 91
      501
 93
      532
310
4394DA1859195CC81BD98811DC985E5174090240C333333333333E33F0000000000000F901079024090741D01000000000000111010841D405064090740C02480A0340
1001
ACAD
1000
AcDbSavedByObjectVersion
1070
     0
  0
ACAD_PROXY_OBJECT
  5
3F
102
{ACAD_REACTORS
330
2A
102
}
330
2A
100
AcDbProxyObject
 90
      499
 91
      501
 93
      476
310
41D4DAD95D18DA1E51840502408333333333333E33F0000000000000F901079024090741D01000000000000111010B41D405064090741802480A0340
1001
ACAD
1000
AcDbSavedByObjectVersion
1070
     0
  0
ACAD_PROXY_OBJECT
  5
37
102
{ACAD_REACTORS
330
2A
102
}
330
2A
100
AcDbProxyObject
 90
      499
 91
      501
 93
      412
310
41D51A1A58DAD95B90D409028333333333333E33F0000000000000F9010790141107004050150C41D405064090741402480A0350
1001
ACAD
1000
AcDbSavedByObjectVersion
1070
     0
  0
ACAD_PROXY_OBJECT
  5
30
102
{ACAD_REACTORS
330
2A
102
}
330
2A
100
AcDbProxyObject
 90
      499
 91
      501
 93
      420
310
4255DA5C99599C985B595059028333333333333E33F0000000000000F90107901411070040501600405405064090740C02480A0340
1001
ACAD
1000
AcDbSavedByObjectVersion
1070
     0
  0
ACAD_PROXY_OBJECT
  5
40
102
{ACAD_REACTORS
330
2A
102
}
330
2A
100
AcDbProxyObject
 90
      499
 91
      501
 93
      404
310
41560B54985E51940902404000000000000E03F0000000000000F9010740501907004050150841D405064090740C02480A1B40
1001
ACAD
1000
AcDbSavedByObjectVersion
1070
     0
  0
XRECORD
  5
2AE
102
{ACAD_REACTORS
330
2A4
102
}
330
2A4
100
AcDbXrecord
340
0
  0
XRECORD
  5
2AD
102
{ACAD_REACTORS
330
2A4
102
}
330
2A4
100
AcDbXrecord
 90
        0
  0
XRECORD
  5
2C4
102
{ACAD_REACTORS
330
2A4
102
}
330
2A4
100
AcDbXrecord
1000
DSTYLE
1002
{
1070
   179
 70
     2
1070
   143
 40
0.03937
1070
    79
 70
     2
1070
   343
340
72
1070
   344
340
78
1070
    46
 40
4.0
1070
    43
 40
6.0
1070
   278
 70
    46
1070
    44
 40
1.0
1070
    42
 40
1.0
1070
   147
 40
1.0
1070
   341
340
72
1070
   173
 70
     1
1070
   283
 70
     1
1070
   340
340
D9
1070
   140
 40
3.0
1002
}
  0
XRECORD
  5
2AF
102
{ACAD_REACTORS
330
2A4
102
}
330
2A4
100
AcDbXrecord
  1
{778FABB4-E1C5-41CA-96AB-4A7F9AEA78A0}
  0
XRECORD
  5
2A7
102
{ACAD_REACTORS
330
2A4
102
}
330
2A4
100
AcDbXrecord
  1

  0
XRECORD
  5
2AC
102
{ACAD_REACTORS
330
2A4
102
}
330
2A4
100
AcDbXrecord
 90
        4
  0
XRECORD
  5
2A9
102
{ACAD_REACTORS
330
2A4
102
}
330
2A4
100
AcDbXrecord
340
1A
  0
XRECORD
  5
2AB
102
{ACAD_REACTORS
330
2A4
102
}
330
2A4
100
AcDbXrecord
 90
    10781
  0
XRECORD
  5
2AA
102
{ACAD_REACTORS
330
2A4
102
}
330
2A4
100
AcDbXrecord
340
19
  0
XRECORD
  5
2B1
102
{ACAD_REACTORS
330
2A4
102
}
330
2A4
100
AcDbXrecord
 40
0.0
  0
XRECORD
  5
2B4
102
{ACAD_REACTORS
330
2A4
102
}
330
2A4
100
AcDbXrecord
340
0
  0
XRECORD
  5
2BA
102
{ACAD_REACTORS
330
2A4
102
}
330
2A4
100
AcDbXrecord
 10
0.0
 20
0.0
 30
0.0
  0
XRECORD
  5
2B6
102
{ACAD_REACTORS
330
2A4
102
}
330
2A4
100
AcDbXrecord
 10
0.0
 20
0.0
 30
0.0
  0
XRECORD
  5
2B9
102
{ACAD_REACTORS
330
2A4
102
}
330
2A4
100
AcDbXrecord
 10
0.0
 20
0.0
 30
0.0
  0
XRECORD
  5
2B7
102
{ACAD_REACTORS
330
2A4
102
}
330
2A4
100
AcDbXrecord
 10
0.0
 20
0.0
 30
0.0
  0
XRECORD
  5
2B8
102
{ACAD_REACTORS
330
2A4
102
}
330
2A4
100
AcDbXrecord
 10
0.0
 20
0.0
 30
0.0
  0
XRECORD
  5
2B5
102
{ACAD_REACTORS
330
2A4
102
}
330
2A4
100
AcDbXrecord
 10
0.0
 20
0.0
 30
0.0
  0
XRECORD
  5
2B2
102
{ACAD_REACTORS
330
2A4
102
}
330
2A4
100
AcDbXrecord
340
0
  0
XRECORD
  5
2B3
102
{ACAD_REACTORS
330
2A4
102
}
330
2A4
100
AcDbXrecord
 70
     0
  0
XRECORD
  5
2A8
102
{ACAD_REACTORS
330
2A4
102
}
330
2A4
100
AcDbXrecord
  1

  0
XRECORD
  5
2A5
102
{ACAD_REACTORS
330
2A4
102
}
330
2A4
100
AcDbXrecord
 90
        1
  0
XRECORD
  5
2A6
102
{ACAD_REACTORS
330
2A4
102
}
330
2A4
100
AcDbXrecord
 90
       70
  0
XRECORD
  5
2BD
102
{ACAD_REACTORS
330
2A4
102
}
330
2A4
100
AcDbXrecord
340
0
  0
XRECORD
  5
2C3
102
{ACAD_REACTORS
330
2A4
102
}
330
2A4
100
AcDbXrecord
 10
0.0
 20
0.0
 30
0.0
  0
XRECORD
  5
2BF
102
{ACAD_REACTORS
330
2A4
102
}
330
2A4
100
AcDbXrecord
 10
0.0
 20
0.0
 30
0.0
  0
XRECORD
  5
2C2
102
{ACAD_REACTORS
330
2A4
102
}
330
2A4
100
AcDbXrecord
 10
0.0
 20
0.0
 30
0.0
  0
XRECORD
  5
2C0
102
{ACAD_REACTORS
330
2A4
102
}
330
2A4
100
AcDbXrecord
 10
0.0
 20
0.0
 30
0.0
  0
XRECORD
  5
2C1
102
{ACAD_REACTORS
330
2A4
102
}
330
2A4
100
AcDbXrecord
 10
0.0
 20
0.0
 30
0.0
  0
XRECORD
  5
2BE
102
{ACAD_REACTORS
330
2A4
102
}
330
2A4
100
AcDbXrecord
 10
0.0
 20
0.0
 30
0.0
  0
XRECORD
  5
2BB
102
{ACAD_REACTORS
330
2A4
102
}
330
2A4
100
AcDbXrecord
340
0
  0
XRECORD
  5
2BC
102
{ACAD_REACTORS
330
2A4
102
}
330
2A4
100
AcDbXrecord
 70
     0
  0
XRECORD
  5
2B0
102
{ACAD_REACTORS
330
2A4
102
}
330
2A4
100
AcDbXrecord
  1
{FAEB1C32-E019-11D5-929B-00C0DF256EC4}
  0
DICTIONARYVAR
  5
2D0
102
{ACAD_REACTORS
330
2C5
102
}
330
2C5
100
DictionaryVariables
280
     0
  1
1:1
  0
DICTIONARYVAR
  5
2C7
102
{ACAD_REACTORS
330
2C5
102
}
330
2C5
100
DictionaryVariables
280
     0
  1
Standard
  0
DICTIONARYVAR
  5
2C6
102
{ACAD_REACTORS
330
2C5
102
}
330
2C5
100
DictionaryVariables
280
     0
  1
Standard
  0
DICTIONARYVAR
  5
2CC
102
{ACAD_REACTORS
330
2C5
102
}
330
2C5
100
DictionaryVariables
280
     0
  1
2
  0
DICTIONARYVAR
  5
2CD
102
{ACAD_REACTORS
330
2C5
102
}
330
2C5
100
DictionaryVariables
280
     0
  1
1
  0
DICTIONARYVAR
  5
2D1
102
{ACAD_REACTORS
330
2C5
102
}
330
2C5
100
DictionaryVariables
280
     0
  1
1
  0
DICTIONARYVAR
  5
2C9
102
{ACAD_REACTORS
330
2C5
102
}
330
2C5
100
DictionaryVariables
280
     0
  1
80.000000
  0
DICTIONARYVAR
  5
2C8
102
{ACAD_REACTORS
330
2C5
102
}
330
2C5
100
DictionaryVariables
280
     0
  1
5.000000
  0
DICTIONARY
  5
2D4
330
45
100
AcDbDictionary
280
     1
  3
ACAD_XREC_ROUNDTRIP
360
2D5
  0
DICTIONARY
  5
2D2
330
44
100
AcDbDictionary
280
     1
  3
ACAD_XREC_ROUNDTRIP
360
2D3
  0
DICTIONARY
  5
2D6
330
46
100
AcDbDictionary
280
     1
  3
ACAD_XREC_ROUNDTRIP
360
2D7
  0
XRECORD
  5
2D5
102
{ACAD_REACTORS
330
2D4
102
}
330
2D4
100
AcDbXrecord
102
MATERIAL
148
0.0
149
0.0
149
0.0
 93
        0
 94
      127
282
     0
 72
     1
 77
     1
171
     1
175
     1
179
     1
273
     0
  0
XRECORD
  5
2D3
102
{ACAD_REACTORS
330
2D2
102
}
330
2D2
100
AcDbXrecord
102
MATERIAL
148
0.0
149
0.0
149
0.0
 93
        0
 94
      127
282
     0
 72
     1
 77
     1
171
     1
175
     1
179
     1
273
     0
  0
XRECORD
  5
2D7
102
{ACAD_REACTORS
330
2D6
102
}
330
2D6
100
AcDbXrecord
102
MATERIAL
148
0.0
149
0.0
149
0.0
 93
        0
 94
      127
282
     0
 72
     1
 77
     1
171
     1
175
     1
179
     1
273
     0
  0
ENDSEC
  0
EOF
