  0
SECTION
  2
HEADER
  9
$ACADVER
  1
AC1014
  9
$ACADMAINTVER
 70
     9
  9
$DWGCODEPAGE
  3
ASCII
  9
$INSBASE
 10
0.0
 20
0.0
 30
0.0
  9
$EXTMIN
 10
1.000000000000000E+20
 20
1.000000000000000E+20
 30
1.000000000000000E+20
  9
$EXTMAX
 10
-1.000000000000000E+20
 20
-1.000000000000000E+20
 30
-1.000000000000000E+20
  9
$LIMMIN
 10
0.0
 20
0.0
  9
$LIMMAX
 10
12.0
 20
9.0
  9
$ORTHOMODE
 70
     0
  9
$REGENMODE
 70
     1
  9
$FILLMODE
 70
     1
  9
$QTEXTMODE
 70
     0
  9
$MIRRTEXT
 70
     1
  9
$DRAGMODE
 70
     2
  9
$LTSCALE
 40
1.0
  9
$OSMODE
 70
    37
  9
$ATTMODE
 70
     1
  9
$TEXTSIZE
 40
0.2
  9
$TRACEWID
 40
0.05
  9
$TEXTSTYLE
  7
STANDARD
  9
$CLAYER
  8
0
  9
$CELTYPE
  6
BYLAYER
  9
$CECOLOR
 62
   256
  9
$CELTSCALE
 40
1.0
  9
$DELOBJ
 70
     1
  9
$DISPSILH
 70
     0
  9
$DIMSCALE
 40
1.0
  9
$DIMASZ
 40
0.18
  9
$DIMEXO
 40
0.0625
  9
$DIMDLI
 40
0.38
  9
$DIMRND
 40
0.0
  9
$DIMDLE
 40
0.0
  9
$DIMEXE
 40
0.18
  9
$DIMTP
 40
0.0
  9
$DIMTM
 40
0.0
  9
$DIMTXT
 40
0.18
  9
$DIMCEN
 40
0.09
  9
$DIMTSZ
 40
0.0
  9
$DIMTOL
 70
     0
  9
$DIMLIM
 70
     0
  9
$DIMTIH
 70
     1
  9
$DIMTOH
 70
     1
  9
$DIMSE1
 70
     0
  9
$DIMSE2
 70
     0
  9
$DIMTAD
 70
     0
  9
$DIMZIN
 70
     0
  9
$DIMBLK
  1

  9
$DIMASO
 70
     1
  9
$DIMSHO
 70
     1
  9
$DIMPOST
  1

  9
$DIMAPOST
  1

  9
$DIMALT
 70
     0
  9
$DIMALTD
 70
     2
  9
$DIMALTF
 40
25.4
  9
$DIMLFAC
 40
1.0
  9
$DIMTOFL
 70
     0
  9
$DIMTVP
 40
0.0
  9
$DIMTIX
 70
     0
  9
$DIMSOXD
 70
     0
  9
$DIMSAH
 70
     0
  9
$DIMBLK1
  1

  9
$DIMBLK2
  1

  9
$DIMSTYLE
  2
STANDARD
  9
$DIMCLRD
 70
     0
  9
$DIMCLRE
 70
     0
  9
$DIMCLRT
 70
     0
  9
$DIMTFAC
 40
1.0
  9
$DIMGAP
 40
0.09
  9
$DIMJUST
 70
     0
  9
$DIMSD1
 70
     0
  9
$DIMSD2
 70
     0
  9
$DIMTOLJ
 70
     1
  9
$DIMTZIN
 70
     0
  9
$DIMALTZ
 70
     0
  9
$DIMALTTZ
 70
     0
  9
$DIMFIT
 70
     3
  9
$DIMUPT
 70
     0
  9
$DIMUNIT
 70
     2
  9
$DIMDEC
 70
     4
  9
$DIMTDEC
 70
     4
  9
$DIMALTU
 70
     2
  9
$DIMALTTD
 70
     2
  9
$DIMTXSTY
  7
STANDARD
  9
$DIMAUNIT
 70
     0
  9
$LUNITS
 70
     2
  9
$LUPREC
 70
     4
  9
$SKETCHINC
 40
0.1
  9
$FILLETRAD
 40
0.5
  9
$AUNITS
 70
     0
  9
$AUPREC
 70
     0
  9
$MENU
  1
.
  9
$ELEVATION
 40
0.0
  9
$PELEVATION
 40
0.0
  9
$THICKNESS
 40
0.0
  9
$LIMCHECK
 70
     0
  9
$CHAMFERA
 40
0.5
  9
$CHAMFERB
 40
0.5
  9
$CHAMFERC
 40
1.0
  9
$CHAMFERD
 40
0.0
  9
$SKPOLY
 70
     0
  9
$TDCREATE
 40
2456674.768948055
  9
$TDUPDATE
 40
2456674.768948067
  9
$TDINDWG
 40
0.0000000116
  9
$TDUSRTIMER
 40
0.0000000116
  9
$USRTIMER
 70
     1
  9
$ANGBASE
 50
0.0
  9
$ANGDIR
 70
     0
  9
$PDMODE
 70
     0
  9
$PDSIZE
 40
0.0
  9
$PLINEWID
 40
0.0
  9
$COORDS
 70
     1
  9
$SPLFRAME
 70
     0
  9
$SPLINETYPE
 70
     6
  9
$SPLINESEGS
 70
     8
  9
$ATTDIA
 70
     0
  9
$ATTREQ
 70
     1
  9
$HANDLING
 70
     1
  9
$HANDSEED
  5
180
  9
$SURFTAB1
 70
     6
  9
$SURFTAB2
 70
     6
  9
$SURFTYPE
 70
     6
  9
$SURFU
 70
     6
  9
$SURFV
 70
     6
  9
$UCSNAME
  2

  9
$UCSORG
 10
0.0
 20
0.0
 30
0.0
  9
$UCSXDIR
 10
1.0
 20
0.0
 30
0.0
  9
$UCSYDIR
 10
0.0
 20
1.0
 30
0.0
  9
$PUCSNAME
  2

  9
$PUCSORG
 10
0.0
 20
0.0
 30
0.0
  9
$PUCSXDIR
 10
1.0
 20
0.0
 30
0.0
  9
$PUCSYDIR
 10
0.0
 20
1.0
 30
0.0
  9
$USERI1
 70
     0
  9
$USERI2
 70
     0
  9
$USERI3
 70
     0
  9
$USERI4
 70
     0
  9
$USERI5
 70
     0
  9
$USERR1
 40
0.0
  9
$USERR2
 40
0.0
  9
$USERR3
 40
0.0
  9
$USERR4
 40
0.0
  9
$USERR5
 40
0.0
  9
$WORLDVIEW
 70
     1
  9
$SHADEDGE
 70
     3
  9
$SHADEDIF
 70
    70
  9
$TILEMODE
 70
     1
  9
$MAXACTVP
 70
    64
  9
$PINSBASE
 10
0.0
 20
0.0
 30
0.0
  9
$PLIMCHECK
 70
     0
  9
$PEXTMIN
 10
1.000000000000000E+20
 20
1.000000000000000E+20
 30
1.000000000000000E+20
  9
$PEXTMAX
 10
-1.000000000000000E+20
 20
-1.000000000000000E+20
 30
-1.000000000000000E+20
  9
$PLIMMIN
 10
0.0
 20
0.0
  9
$PLIMMAX
 10
12.0
 20
9.0
  9
$UNITMODE
 70
     0
  9
$VISRETAIN
 70
     1
  9
$PLINEGEN
 70
     0
  9
$PSLTSCALE
 70
     1
  9
$TREEDEPTH
 70
  3020
  9
$PICKSTYLE
 70
     1
  9
$CMLSTYLE
  2
STANDARD
  9
$CMLJUST
 70
     0
  9
$CMLSCALE
 40
1.0
  9
$PROXYGRAPHICS
 70
     1
  9
$MEASUREMENT
 70
     0
  0
ENDSEC
  0
SECTION
  2
CLASSES
  0
CLASS
  1
ACDBDICTIONARYWDFLT
  2
AcDbDictionaryWithDefault
  3
ObjectDBX Classes
 90
        0
280
     0
281
     0
  0
CLASS
  1
VISUALSTYLE
  2
AcDbVisualStyle
  3
ObjectDBX Classes
 90
     4095
280
     1
281
     0
  0
CLASS
  1
ACAD_PROXY_OBJECT_WRAPPER
  2
AcDbProxyObjectWrapper
  3
AutoCAD 2000
 90
        0
280
     0
281
     0
  0
CLASS
  1
XRECORD
  2
AcDbXrecord
  3
AutoCAD 2000
 90
        0
280
     0
281
     0
  0
CLASS
  1
LWPOLYLINE
  2
AcDbPolyline
  3
AutoCAD 2000
 90
        0
280
     0
281
     1
  0
CLASS
  1
HATCH
  2
AcDbHatch
  3
AutoCAD 2000
 90
        0
280
     0
281
     1
  0
CLASS
  1
ACDBPLACEHOLDER
  2
AcDbPlaceHolder
  3
ObjectDBX Classes
 90
        0
280
     0
281
     0
  0
CLASS
  1
LAYOUT
  2
AcDbLayout
  3
ObjectDBX Classes
 90
        0
280
     0
281
     0
  0
ENDSEC
  0
SECTION
  2
TABLES
  0
TABLE
  2
VPORT
  5
8
330
0
100
AcDbSymbolTable
 70
     1
  0
VPORT
  5
29
102
{ACAD_XDICTIONARY
360
17E
102
}
330
8
100
AcDbSymbolTableRecord
100
AcDbViewportTableRecord
  2
*ACTIVE
 70
     0
 10
0.0
 20
0.0
 11
1.0
 21
1.0
 12
0.0
 22
0.0
 13
0.0
 23
0.0
 14
0.5
 24
0.5
 15
0.5
 25
0.5
 16
0.0
 26
0.0
 36
1.0
 17
105.0008091239277
 27
148.5001637099431
 37
0.0
 40
297.0003274198861
 41
0.7070753762199199
 42
50.0
 43
0.0
 44
0.0
 50
0.0
 51
0.0
 71
     0
 72
   100
 73
     1
 74
     3
 75
     0
 76
     0
 77
     0
 78
     0
  0
ENDTAB
  0
TABLE
  2
LTYPE
  5
5
330
0
100
AcDbSymbolTable
 70
    12
  0
LTYPE
  5
14
330
5
100
AcDbSymbolTableRecord
100
AcDbLinetypeTableRecord
  2
BYBLOCK
 70
     0
  3

 72
    65
 73
     0
 40
0.0
  0
LTYPE
  5
15
330
5
100
AcDbSymbolTableRecord
100
AcDbLinetypeTableRecord
  2
BYLAYER
 70
     0
  3

 72
    65
 73
     0
 40
0.0
  0
LTYPE
  5
16
330
5
100
AcDbSymbolTableRecord
100
AcDbLinetypeTableRecord
  2
CONTINUOUS
 70
     0
  3
Solid line
 72
    65
 73
     0
 40
0.0
  0
LTYPE
  5
3C
330
5
100
AcDbSymbolTableRecord
100
AcDbLinetypeTableRecord
  2
AI-LINETYPE-1
 70
     0
  3
Adobe Illustrator Linetype No. 1
 72
    65
 73
     2
 40
2.008409398018658
 49
1.338939262243778
 74
     0
 49
-0.6694701357748808
 74
     0
  0
LTYPE
  5
41
330
5
100
AcDbSymbolTableRecord
100
AcDbLinetypeTableRecord
  2
AI-LINETYPE-2
 70
     0
  3
Adobe Illustrator Linetype No. 2
 72
    65
 73
     2
 40
2.008409398018658
 49
1.338939262243778
 74
     0
 49
-0.6694701357748808
 74
     0
  0
LTYPE
  5
46
330
5
100
AcDbSymbolTableRecord
100
AcDbLinetypeTableRecord
  2
AI-LINETYPE-3
 70
     0
  3
Adobe Illustrator Linetype No. 3
 72
    65
 73
     2
 40
2.008409398018658
 49
1.338939262243778
 74
     0
 49
-0.6694701357748808
 74
     0
  0
LTYPE
  5
138
330
5
100
AcDbSymbolTableRecord
100
AcDbLinetypeTableRecord
  2
AI-LINETYPE-4
 70
     0
  3
Adobe Illustrator Linetype No. 4
 72
    65
 73
     4
 40
37.1232884358626
 49
23.20205514625087
 74
     0
 49
-4.64041109653724
 74
     0
 49
4.64041109653724
 74
     0
 49
-4.64041109653724
 74
     0
  0
LTYPE
  5
13D
330
5
100
AcDbSymbolTableRecord
100
AcDbLinetypeTableRecord
  2
AI-LINETYPE-5
 70
     0
  3
Adobe Illustrator Linetype No. 5
 72
    65
 73
     4
 40
37.1232884358626
 49
23.20205514625087
 74
     0
 49
-4.64041109653724
 74
     0
 49
4.64041109653724
 74
     0
 49
-4.64041109653724
 74
     0
  0
LTYPE
  5
142
330
5
100
AcDbSymbolTableRecord
100
AcDbLinetypeTableRecord
  2
AI-LINETYPE-6
 70
     0
  3
Adobe Illustrator Linetype No. 6
 72
    65
 73
     4
 40
37.1232884358626
 49
23.20205514625087
 74
     0
 49
-4.64041109653724
 74
     0
 49
4.64041109653724
 74
     0
 49
-4.64041109653724
 74
     0
  0
LTYPE
  5
147
330
5
100
AcDbSymbolTableRecord
100
AcDbLinetypeTableRecord
  2
AI-LINETYPE-7
 70
     0
  3
Adobe Illustrator Linetype No. 7
 72
    65
 73
     4
 40
37.1232884358626
 49
23.20205514625087
 74
     0
 49
-4.64041109653724
 74
     0
 49
4.64041109653724
 74
     0
 49
-4.64041109653724
 74
     0
  0
LTYPE
  5
14C
330
5
100
AcDbSymbolTableRecord
100
AcDbLinetypeTableRecord
  2
AI-LINETYPE-8
 70
     0
  3
Adobe Illustrator Linetype No. 8
 72
    65
 73
     4
 40
37.1232884358626
 49
23.20205514625087
 74
     0
 49
-4.64041109653724
 74
     0
 49
4.64041109653724
 74
     0
 49
-4.64041109653724
 74
     0
  0
LTYPE
  5
151
330
5
100
AcDbSymbolTableRecord
100
AcDbLinetypeTableRecord
  2
AI-LINETYPE-9
 70
     0
  3
Adobe Illustrator Linetype No. 9
 72
    65
 73
     4
 40
37.1232884358626
 49
23.20205514625087
 74
     0
 49
-4.64041109653724
 74
     0
 49
4.64041109653724
 74
     0
 49
-4.64041109653724
 74
     0
  0
LTYPE
  5
156
330
5
100
AcDbSymbolTableRecord
100
AcDbLinetypeTableRecord
  2
AI-LINETYPE-10
 70
     0
  3
Adobe Illustrator Linetype No. 10
 72
    65
 73
     4
 40
37.1232884358626
 49
23.20205514625087
 74
     0
 49
-4.64041109653724
 74
     0
 49
4.64041109653724
 74
     0
 49
-4.64041109653724
 74
     0
  0
LTYPE
  5
15B
330
5
100
AcDbSymbolTableRecord
100
AcDbLinetypeTableRecord
  2
AI-LINETYPE-11
 70
     0
  3
Adobe Illustrator Linetype No. 11
 72
    65
 73
     4
 40
37.1232884358626
 49
23.20205514625087
 74
     0
 49
-4.64041109653724
 74
     0
 49
4.64041109653724
 74
     0
 49
-4.64041109653724
 74
     0
  0
ENDTAB
  0
TABLE
  2
LAYER
  5
2
330
0
100
AcDbSymbolTable
 70
     1
  0
LAYER
  5
10
330
2
100
AcDbSymbolTableRecord
100
AcDbLayerTableRecord
  2
0
 70
     0
 62
     7
  6
CONTINUOUS
  0
ENDTAB
  0
TABLE
  2
STYLE
  5
3
330
0
100
AcDbSymbolTable
 70
     1
  0
STYLE
  5
11
330
3
100
AcDbSymbolTableRecord
100
AcDbTextStyleTableRecord
  2
STANDARD
 70
     0
 40
0.0
 41
1.0
 50
0.0
 71
     0
 42
0.2
  3
txt
  4

  0
ENDTAB
  0
TABLE
  2
VIEW
  5
6
330
0
100
AcDbSymbolTable
 70
     0
  0
ENDTAB
  0
TABLE
  2
UCS
  5
7
330
0
100
AcDbSymbolTable
 70
     0
  0
ENDTAB
  0
TABLE
  2
APPID
  5
9
330
0
100
AcDbSymbolTable
 70
     1
  0
APPID
  5
12
330
9
100
AcDbSymbolTableRecord
100
AcDbRegAppTableRecord
  2
ACAD
 70
     0
  0
ENDTAB
  0
TABLE
  2
DIMSTYLE
  5
A
330
0
100
AcDbSymbolTable
 70
     1
  0
DIMSTYLE
105
27
330
A
100
AcDbSymbolTableRecord
100
AcDbDimStyleTableRecord
  2
STANDARD
 70
     0
  3

  4

  5

  6

  7

 40
1.0
 41
0.18
 42
0.0625
 43
0.38
 44
0.18
 45
0.0
 46
0.0
 47
0.0
 48
0.0
140
0.18
141
0.09
142
0.0
143
25.4
144
1.0
145
0.0
146
1.0
147
0.09
 71
     0
 72
     0
 73
     1
 74
     1
 75
     0
 76
     0
 77
     0
 78
     0
170
     0
171
     2
172
     0
173
     0
174
     0
175
     0
176
     0
177
     0
178
     0
270
     2
271
     4
272
     4
273
     2
274
     2
340
11
275
     0
280
     0
281
     0
282
     0
283
     1
284
     0
285
     0
286
     0
287
     3
288
     0
  0
ENDTAB
  0
TABLE
  2
BLOCK_RECORD
  5
1
330
0
100
AcDbSymbolTable
 70
     1
  0
BLOCK_RECORD
  5
1F
330
1
100
AcDbSymbolTableRecord
100
AcDbBlockTableRecord
  2
*MODEL_SPACE
  0
BLOCK_RECORD
  5
1B
330
1
100
AcDbSymbolTableRecord
100
AcDbBlockTableRecord
  2
*PAPER_SPACE
  0
ENDTAB
  0
ENDSEC
  0
SECTION
  2
BLOCKS
  0
BLOCK
  5
20
330
1F
100
AcDbEntity
  8
0
100
AcDbBlockBegin
  2
*MODEL_SPACE
 70
     0
 71
     0
 10
0.0
 20
0.0
 30
0.0
  3
*MODEL_SPACE
  1

  0
ENDBLK
  5
21
330
1F
100
AcDbEntity
  8
0
100
AcDbBlockEnd
  0
BLOCK
  5
1C
330
1B
100
AcDbEntity
 67
     1
  8
0
100
AcDbBlockBegin
  2
*PAPER_SPACE
 70
     0
 71
     0
 10
0.0
 20
0.0
 30
0.0
  3
*PAPER_SPACE
  1

  0
ENDBLK
  5
1D
330
1B
100
AcDbEntity
 67
     1
  8
0
100
AcDbBlockEnd
  0
ENDSEC
  0
SECTION
  2
ENTITIES
  0
SPLINE
  5
3B
330
1F
100
AcDbEntity
  8
0
  6
AI-LINETYPE-1
 62
     7
100
AcDbSpline
210
0.0
220
0.0
230
1.0
 70
     8
 71
     3
 72
     8
 73
     4
 74
     0
 42
0.0000000001
 43
0.0000000001
 40
0.0
 40
0.0
 40
0.0
 40
0.0
 40
1.0
 40
1.0
 40
1.0
 40
1.0
 10
130.2593184834193
 20
154.1305731032238
 30
0.0
 10
130.2593184834193
 20
153.9646916461779
 30
0.0
 10
130.1156579069123
 20
153.8303328336174
 30
0.0
 10
129.9378908626015
 20
153.8303328336174
 30
0.0
  0
POLYLINE
  5
3D
330
1F
100
AcDbEntity
  8
0
  6
AI-LINETYPE-2
 62
     7
100
AcDb2dPolyline
 66
     1
 10
0.0
 20
0.0
 30
0.0
  0
VERTEX
  5
3E
330
3D
100
AcDbEntity
  8
0
  6
AI-LINETYPE-2
 62
     7
100
AcDbVertex
100
AcDb2dVertex
 10
130.2593184834193
 20
154.4306411179422
 30
0.0
  0
VERTEX
  5
3F
330
3D
100
AcDbEntity
  8
0
  6
AI-LINETYPE-2
 62
     7
100
AcDbVertex
100
AcDb2dVertex
 10
130.2593184834193
 20
154.1305731032238
 30
0.0
  0
SEQEND
  5
40
330
3D
100
AcDbEntity
  8
0
  6
AI-LINETYPE-2
  0
POLYLINE
  5
42
330
1F
100
AcDbEntity
  8
0
  6
AI-LINETYPE-3
 62
     7
100
AcDb2dPolyline
 66
     1
 10
0.0
 20
0.0
 30
0.0
  0
VERTEX
  5
43
330
42
100
AcDbEntity
  8
0
  6
AI-LINETYPE-3
 62
     7
100
AcDbVertex
100
AcDb2dVertex
 10
129.9378908626015
 20
153.8303328336174
 30
0.0
  0
VERTEX
  5
44
330
42
100
AcDbEntity
  8
0
  6
AI-LINETYPE-3
 62
     7
100
AcDbVertex
100
AcDb2dVertex
 10
128.1226688539315
 20
153.8303328336174
 30
0.0
  0
SEQEND
  5
45
330
42
100
AcDbEntity
  8
0
  6
AI-LINETYPE-3
  0
POLYLINE
  5
47
330
1F
100
AcDbEntity
  8
0
 62
     7
100
AcDb2dPolyline
 66
     1
 10
0.0
 20
0.0
 30
0.0
  0
VERTEX
  5
48
330
47
100
AcDbEntity
  8
0
 62
     7
100
AcDbVertex
100
AcDb2dVertex
 10
122.248432666831
 20
151.3641596035805
 30
0.0
  0
VERTEX
  5
49
330
47
100
AcDbEntity
  8
0
 62
     7
100
AcDbVertex
100
AcDb2dVertex
 10
118.2572869142324
 20
145.444448126075
 30
0.0
  0
SEQEND
  5
4A
330
47
100
AcDbEntity
  8
0
  0
POLYLINE
  5
4B
330
1F
100
AcDbEntity
  8
0
 62
     7
100
AcDb2dPolyline
 66
     1
 10
0.0
 20
0.0
 30
0.0
  0
VERTEX
  5
4C
330
4B
100
AcDbEntity
  8
0
 62
     7
100
AcDbVertex
100
AcDb2dVertex
 10
122.248432666831
 20
144.1008600004699
 30
0.0
  0
VERTEX
  5
4D
330
4B
100
AcDbEntity
  8
0
 62
     7
100
AcDbVertex
100
AcDb2dVertex
 10
118.2572869142324
 20
149.5699526912341
 30
0.0
  0
SEQEND
  5
4E
330
4B
100
AcDbEntity
  8
0
  0
POLYLINE
  5
4F
330
1F
100
AcDbEntity
  8
0
 62
     7
100
AcDb2dPolyline
 66
     1
 10
0.0
 20
0.0
 30
0.0
  0
VERTEX
  5
50
330
4F
100
AcDbEntity
  8
0
 62
     7
100
AcDbVertex
100
AcDb2dVertex
 10
116.907497612663
 20
153.0799905419334
 30
0.0
  0
VERTEX
  5
51
330
4F
100
AcDbEntity
  8
0
 62
     7
100
AcDbVertex
100
AcDb2dVertex
 10
116.907497612663
 20
131.8201200226639
 30
0.0
  0
SEQEND
  5
52
330
4F
100
AcDbEntity
  8
0
  0
POLYLINE
  5
53
330
1F
100
AcDbEntity
  8
0
 62
     7
100
AcDb2dPolyline
 66
     1
 10
0.0
 20
0.0
 30
0.0
  0
VERTEX
  5
54
330
53
100
AcDbEntity
  8
0
 62
     7
100
AcDbVertex
100
AcDb2dVertex
 10
116.907497612663
 20
131.8201200226639
 30
0.0
  0
VERTEX
  5
55
330
53
100
AcDbEntity
  8
0
 62
     7
100
AcDbVertex
100
AcDb2dVertex
 10
124.1704527059978
 20
131.8201200226639
 30
0.0
  0
SEQEND
  5
56
330
53
100
AcDbEntity
  8
0
  0
POLYLINE
  5
57
330
1F
100
AcDbEntity
  8
0
 62
     7
100
AcDb2dPolyline
 66
     1
 10
0.0
 20
0.0
 30
0.0
  0
VERTEX
  5
58
330
57
100
AcDbEntity
  8
0
 62
     7
100
AcDbVertex
100
AcDb2dVertex
 10
124.1704527059978
 20
153.8303328336174
 30
0.0
  0
VERTEX
  5
59
330
57
100
AcDbEntity
  8
0
 62
     7
100
AcDbVertex
100
AcDb2dVertex
 10
124.1704527059978
 20
131.0201683232652
 30
0.0
  0
SEQEND
  5
5A
330
57
100
AcDbEntity
  8
0
  0
POLYLINE
  5
5B
330
1F
100
AcDbEntity
  8
0
 62
     7
100
AcDb2dPolyline
 66
     1
 10
0.0
 20
0.0
 30
0.0
  0
VERTEX
  5
5C
330
5B
100
AcDbEntity
  8
0
 62
     7
100
AcDbVertex
100
AcDb2dVertex
 10
124.1704527059978
 20
131.0201683232652
 30
0.0
  0
VERTEX
  5
5D
330
5B
100
AcDbEntity
  8
0
 62
     7
100
AcDbVertex
100
AcDb2dVertex
 10
129.9378908626015
 20
131.0201683232652
 30
0.0
  0
SEQEND
  5
5E
330
5B
100
AcDbEntity
  8
0
  0
SPLINE
  5
5F
330
1F
100
AcDbEntity
  8
0
 62
     7
100
AcDbSpline
210
0.0
220
0.0
230
1.0
 70
     8
 71
     3
 72
     8
 73
     4
 74
     0
 42
0.0000000001
 43
0.0000000001
 40
0.0
 40
0.0
 40
0.0
 40
0.0
 40
1.0
 40
1.0
 40
1.0
 40
1.0
 10
129.9378908626015
 20
131.0201683232652
 30
0.0
 10
130.1156579069123
 20
131.0201683232652
 30
0.0
 10
130.2593184834193
 20
130.8854650009289
 30
0.0
 10
130.2593184834193
 20
130.7201003085467
 30
0.0
  0
POLYLINE
  5
60
330
1F
100
AcDbEntity
  8
0
 62
     7
100
AcDb2dPolyline
 66
     1
 10
0.0
 20
0.0
 30
0.0
  0
VERTEX
  5
61
330
60
100
AcDbEntity
  8
0
 62
     7
100
AcDbVertex
100
AcDb2dVertex
 10
130.2593184834193
 20
157.4320102846785
 30
0.0
  0
VERTEX
  5
62
330
60
100
AcDbEntity
  8
0
 62
     7
100
AcDbVertex
100
AcDb2dVertex
 10
130.2593184834193
 20
127.418663127092
 30
0.0
  0
SEQEND
  5
63
330
60
100
AcDbEntity
  8
0
  0
POLYLINE
  5
64
330
1F
100
AcDbEntity
  8
0
 62
     7
100
AcDb2dPolyline
 66
     1
 10
0.0
 20
0.0
 30
0.0
  0
VERTEX
  5
65
330
64
100
AcDbEntity
  8
0
 62
     7
100
AcDbVertex
100
AcDb2dVertex
 10
130.2593184834193
 20
127.418663127092
 30
0.0
  0
VERTEX
  5
66
330
64
100
AcDbEntity
  8
0
 62
     7
100
AcDbVertex
100
AcDb2dVertex
 10
133.4636039080995
 20
127.418663127092
 30
0.0
  0
SEQEND
  5
67
330
64
100
AcDbEntity
  8
0
  0
POLYLINE
  5
68
330
1F
100
AcDbEntity
  8
0
 62
     7
100
AcDb2dPolyline
 66
     1
 10
0.0
 20
0.0
 30
0.0
  0
VERTEX
  5
69
330
68
100
AcDbEntity
  8
0
 62
     7
100
AcDbVertex
100
AcDb2dVertex
 10
133.4636039080995
 20
127.418663127092
 30
0.0
  0
VERTEX
  5
6A
330
68
100
AcDbEntity
  8
0
 62
     7
100
AcDbVertex
100
AcDb2dVertex
 10
133.4636039080995
 20
157.4320102846785
 30
0.0
  0
SEQEND
  5
6B
330
68
100
AcDbEntity
  8
0
  0
POLYLINE
  5
6C
330
1F
100
AcDbEntity
  8
0
 62
     7
100
AcDb2dPolyline
 66
     1
 10
0.0
 20
0.0
 30
0.0
  0
VERTEX
  5
6D
330
6C
100
AcDbEntity
  8
0
 62
     7
100
AcDbVertex
100
AcDb2dVertex
 10
135.0655743655517
 20
132.4209450716524
 30
0.0
  0
VERTEX
  5
6E
330
6C
100
AcDbEntity
  8
0
 62
     7
100
AcDbVertex
100
AcDb2dVertex
 10
143.0761156723642
 20
132.4209450716524
 30
0.0
  0
SEQEND
  5
6F
330
6C
100
AcDbEntity
  8
0
  0
POLYLINE
  5
70
330
1F
100
AcDbEntity
  8
0
 62
     7
100
AcDb2dPolyline
 66
     1
 10
0.0
 20
0.0
 30
0.0
  0
VERTEX
  5
71
330
70
100
AcDbEntity
  8
0
 62
     7
100
AcDbVertex
100
AcDb2dVertex
 10
143.0761156723642
 20
132.4209450716524
 30
0.0
  0
VERTEX
  5
72
330
70
100
AcDbEntity
  8
0
 62
     7
100
AcDbVertex
100
AcDb2dVertex
 10
143.0761156723642
 20
152.429900595006
 30
0.0
  0
SEQEND
  5
73
330
70
100
AcDbEntity
  8
0
  0
POLYLINE
  5
74
330
1F
100
AcDbEntity
  8
0
 62
     7
100
AcDb2dPolyline
 66
     1
 10
0.0
 20
0.0
 30
0.0
  0
VERTEX
  5
75
330
74
100
AcDbEntity
  8
0
 62
     7
100
AcDbVertex
100
AcDb2dVertex
 10
143.0761156723642
 20
152.429900595006
 30
0.0
  0
VERTEX
  5
76
330
74
100
AcDbEntity
  8
0
 62
     7
100
AcDbVertex
100
AcDb2dVertex
 10
135.0655743655517
 20
152.429900595006
 30
0.0
  0
SEQEND
  5
77
330
74
100
AcDbEntity
  8
0
  0
POLYLINE
  5
78
330
1F
100
AcDbEntity
  8
0
 62
     7
100
AcDb2dPolyline
 66
     1
 10
0.0
 20
0.0
 30
0.0
  0
VERTEX
  5
79
330
78
100
AcDbEntity
  8
0
 62
     7
100
AcDbVertex
100
AcDb2dVertex
 10
133.4636039080995
 20
157.4320102846785
 30
0.0
  0
VERTEX
  5
7A
330
78
100
AcDbEntity
  8
0
 62
     7
100
AcDbVertex
100
AcDb2dVertex
 10
130.2593184834193
 20
157.4320102846785
 30
0.0
  0
SEQEND
  5
7B
330
78
100
AcDbEntity
  8
0
  0
POLYLINE
  5
7C
330
1F
100
AcDbEntity
  8
0
 62
     7
100
AcDb2dPolyline
 66
     1
 10
0.0
 20
0.0
 30
0.0
  0
VERTEX
  5
7D
330
7C
100
AcDbEntity
  8
0
 62
     7
100
AcDbVertex
100
AcDb2dVertex
 10
128.1226688539315
 20
153.8303328336174
 30
0.0
  0
VERTEX
  5
7E
330
7C
100
AcDbEntity
  8
0
 62
     7
100
AcDbVertex
100
AcDb2dVertex
 10
124.1704527059978
 20
153.8303328336174
 30
0.0
  0
SEQEND
  5
7F
330
7C
100
AcDbEntity
  8
0
  0
POLYLINE
  5
80
330
1F
100
AcDbEntity
  8
0
 62
     7
100
AcDb2dPolyline
 66
     1
 10
0.0
 20
0.0
 30
0.0
  0
VERTEX
  5
81
330
80
100
AcDbEntity
  8
0
 62
     7
100
AcDbVertex
100
AcDb2dVertex
 10
124.1704527059978
 20
153.2301968041805
 30
0.0
  0
VERTEX
  5
82
330
80
100
AcDbEntity
  8
0
 62
     7
100
AcDbVertex
100
AcDb2dVertex
 10
122.248432666831
 20
153.2301968041805
 30
0.0
  0
SEQEND
  5
83
330
80
100
AcDbEntity
  8
0
  0
SPLINE
  5
84
330
1F
100
AcDbEntity
  8
0
 62
     7
100
AcDbSpline
210
0.0
220
0.0
230
1.0
 70
     8
 71
     3
 72
     8
 73
     4
 74
     0
 42
0.0000000001
 43
0.0000000001
 40
0.0
 40
0.0
 40
0.0
 40
0.0
 40
1.0
 40
1.0
 40
1.0
 40
1.0
 10
122.0386262133712
 20
153.8303328336174
 30
0.0
 10
122.1547260078145
 20
153.8282657749626
 30
0.0
 10
122.248432666831
 20
153.7393822528072
 30
0.0
 10
122.248432666831
 20
153.6303449087677
 30
0.0
  0
POLYLINE
  5
85
330
1F
100
AcDbEntity
  8
0
 62
     7
100
AcDb2dPolyline
 66
     1
 10
0.0
 20
0.0
 30
0.0
  0
VERTEX
  5
86
330
85
100
AcDbEntity
  8
0
 62
     7
100
AcDbVertex
100
AcDb2dVertex
 10
122.248432666831
 20
153.6303449087677
 30
0.0
  0
VERTEX
  5
87
330
85
100
AcDbEntity
  8
0
 62
     7
100
AcDbVertex
100
AcDb2dVertex
 10
122.248432666831
 20
131.8201200226639
 30
0.0
  0
SEQEND
  5
88
330
85
100
AcDbEntity
  8
0
  0
SPLINE
  5
89
330
1F
100
AcDbEntity
  8
0
 62
     7
100
AcDbSpline
210
0.0
220
0.0
230
1.0
 70
     8
 71
     3
 72
     8
 73
     4
 74
     0
 42
0.0000000001
 43
0.0000000001
 40
0.0
 40
0.0
 40
0.0
 40
0.0
 40
1.0
 40
1.0
 40
1.0
 40
1.0
 10
116.9081866322146
 20
153.0806795614849
 30
0.0
 10
118.5570104191751
 20
153.6072627537894
 30
0.0
 10
120.2919616500846
 20
153.8603051841117
 30
0.0
 10
122.0341475862858
 20
153.8275767554111
 30
0.0
  0
POLYLINE
  5
8A
330
1F
100
AcDbEntity
  8
0
 62
     7
100
AcDb2dPolyline
 66
     1
 10
0.0
 20
0.0
 30
0.0
  0
VERTEX
  5
8B
330
8A
100
AcDbEntity
  8
0
 62
     7
100
AcDbVertex
100
AcDb2dVertex
 10
128.1226688539315
 20
153.8303328336174
 30
0.0
  0
VERTEX
  5
8C
330
8A
100
AcDbEntity
  8
0
 62
     7
100
AcDbVertex
100
AcDb2dVertex
 10
128.1226688539315
 20
154.4306411179422
 30
0.0
  0
SEQEND
  5
8D
330
8A
100
AcDbEntity
  8
0
  0
POLYLINE
  5
8E
330
1F
100
AcDbEntity
  8
0
 62
     7
100
AcDb2dPolyline
 66
     1
 10
0.0
 20
0.0
 30
0.0
  0
VERTEX
  5
8F
330
8E
100
AcDbEntity
  8
0
 62
     7
100
AcDbVertex
100
AcDb2dVertex
 10
128.1226688539315
 20
154.4306411179422
 30
0.0
  0
VERTEX
  5
90
330
8E
100
AcDbEntity
  8
0
 62
     7
100
AcDbVertex
100
AcDb2dVertex
 10
130.2593184834193
 20
154.4306411179422
 30
0.0
  0
SEQEND
  5
91
330
8E
100
AcDbEntity
  8
0
  0
POLYLINE
  5
92
330
1F
100
AcDbEntity
  8
0
 62
     7
100
AcDb2dPolyline
 66
     1
 10
0.0
 20
0.0
 30
0.0
  0
VERTEX
  5
93
330
92
100
AcDbEntity
  8
0
 62
     7
100
AcDbVertex
100
AcDb2dVertex
 10
133.4636039080995
 20
156.9319543451103
 30
0.0
  0
VERTEX
  5
94
330
92
100
AcDbEntity
  8
0
 62
     7
100
AcDbVertex
100
AcDb2dVertex
 10
135.0655743655517
 20
156.9319543451103
 30
0.0
  0
SEQEND
  5
95
330
92
100
AcDbEntity
  8
0
  0
POLYLINE
  5
96
330
1F
100
AcDbEntity
  8
0
 62
     7
100
AcDb2dPolyline
 66
     1
 10
0.0
 20
0.0
 30
0.0
  0
VERTEX
  5
97
330
96
100
AcDbEntity
  8
0
 62
     7
100
AcDbVertex
100
AcDb2dVertex
 10
135.0655743655517
 20
156.9319543451103
 30
0.0
  0
VERTEX
  5
98
330
96
100
AcDbEntity
  8
0
 62
     7
100
AcDbVertex
100
AcDb2dVertex
 10
135.0655743655517
 20
127.9185468117723
 30
0.0
  0
SEQEND
  5
99
330
96
100
AcDbEntity
  8
0
  0
POLYLINE
  5
9A
330
1F
100
AcDbEntity
  8
0
 62
     7
100
AcDb2dPolyline
 66
     1
 10
0.0
 20
0.0
 30
0.0
  0
VERTEX
  5
9B
330
9A
100
AcDbEntity
  8
0
 62
     7
100
AcDbVertex
100
AcDb2dVertex
 10
135.0655743655517
 20
127.9185468117723
 30
0.0
  0
VERTEX
  5
9C
330
9A
100
AcDbEntity
  8
0
 62
     7
100
AcDbVertex
100
AcDb2dVertex
 10
133.4636039080995
 20
127.9185468117723
 30
0.0
  0
SEQEND
  5
9D
330
9A
100
AcDbEntity
  8
0
  0
SPLINE
  5
9E
330
1F
100
AcDbEntity
  8
0
 62
     7
100
AcDbSpline
210
0.0
220
0.0
230
1.0
 70
     8
 71
     3
 72
     8
 73
     4
 74
     0
 42
0.0000000001
 43
0.0000000001
 40
0.0
 40
0.0
 40
0.0
 40
0.0
 40
1.0
 40
1.0
 40
1.0
 40
1.0
 10
117.4645699201254
 20
148.6694041373029
 30
0.0
 10
118.5594219876056
 20
150.1818020530481
 30
0.0
 10
120.308153609547
 20
151.1674445216009
 30
0.0
 10
122.248432666831
 20
151.3641596035805
 30
0.0
  0
SPLINE
  5
9F
330
1F
100
AcDbEntity
  8
0
 62
     7
100
AcDbSpline
210
0.0
220
0.0
230
1.0
 70
     8
 71
     3
 72
     8
 73
     4
 74
     0
 42
0.0000000001
 43
0.0000000001
 40
0.0
 40
0.0
 40
0.0
 40
0.0
 40
1.0
 40
1.0
 40
1.0
 40
1.0
 10
122.248432666831
 20
144.1008600004699
 30
0.0
 10
120.2079012647903
 20
143.9224039366075
 30
0.0
 10
118.257975933784
 20
144.9287169917081
 30
0.0
 10
117.3291775782375
 20
146.6392080285361
 30
0.0
  0
SPLINE
  5
A0
330
1F
100
AcDbEntity
  8
0
 62
     7
100
AcDbSpline
210
0.0
220
0.0
230
1.0
 70
     8
 71
     3
 72
     8
 73
     4
 74
     0
 42
0.0000000001
 43
0.0000000001
 40
0.0
 40
0.0
 40
0.0
 40
0.0
 40
1.0
 40
1.0
 40
1.0
 40
1.0
 10
117.3291775782375
 20
146.6392080285361
 30
0.0
 10
116.9770885873738
 20
147.2882644461361
 30
0.0
 10
117.0284205439675
 20
148.065823010108
 30
0.0
 10
117.4645699201254
 20
148.6694041373029
 30
0.0
  0
POLYLINE
  5
A1
330
1F
100
AcDbEntity
  8
0
 62
     7
100
AcDb2dPolyline
 66
     1
 10
0.0
 20
0.0
 30
0.0
  0
VERTEX
  5
A2
330
A1
100
AcDbEntity
  8
0
 62
     7
100
AcDbVertex
100
AcDb2dVertex
 10
146.9208447702495
 20
145.02690227781
 30
0.0
  0
VERTEX
  5
A3
330
A1
100
AcDbEntity
  8
0
 62
     7
100
AcDbVertex
100
AcDb2dVertex
 10
146.9208447702495
 20
144.2214384219986
 30
0.0
  0
SEQEND
  5
A4
330
A1
100
AcDbEntity
  8
0
  0
POLYLINE
  5
A5
330
1F
100
AcDbEntity
  8
0
 62
     7
100
AcDb2dPolyline
 66
     1
 10
0.0
 20
0.0
 30
0.0
  0
VERTEX
  5
A6
330
A5
100
AcDbEntity
  8
0
 62
     7
100
AcDbVertex
100
AcDb2dVertex
 10
144.7855731798648
 20
145.8268539772087
 30
0.0
  0
VERTEX
  5
A7
330
A5
100
AcDbEntity
  8
0
 62
     7
100
AcDbVertex
100
AcDb2dVertex
 10
143.0761156723642
 20
145.8268539772087
 30
0.0
  0
SEQEND
  5
A8
330
A5
100
AcDbEntity
  8
0
  0
POLYLINE
  5
A9
330
1F
100
AcDbEntity
  8
0
 62
     7
100
AcDb2dPolyline
 66
     1
 10
0.0
 20
0.0
 30
0.0
  0
VERTEX
  5
AA
330
A9
100
AcDbEntity
  8
0
 62
     7
100
AcDbVertex
100
AcDb2dVertex
 10
146.9208447702495
 20
144.2262615588597
 30
0.0
  0
VERTEX
  5
AB
330
A9
100
AcDbEntity
  8
0
 62
     7
100
AcDbVertex
100
AcDb2dVertex
 10
143.0761156723642
 20
144.2262615588597
 30
0.0
  0
SEQEND
  5
AC
330
A9
100
AcDbEntity
  8
0
  0
SPLINE
  5
AD
330
1F
100
AcDbEntity
  8
0
 62
     7
100
AcDbSpline
210
0.0
220
0.0
230
1.0
 70
     8
 71
     3
 72
     8
 73
     4
 74
     0
 42
0.0000000001
 43
0.0000000001
 40
0.0
 40
0.0
 40
0.0
 40
0.0
 40
1.0
 40
1.0
 40
1.0
 40
1.0
 10
146.9208447702495
 20
145.02690227781
 30
0.0
 10
146.1281277761425
 20
145.0365485515323
 30
0.0
 10
145.3664166618571
 20
145.3214581361158
 30
0.0
 10
144.7855731798648
 20
145.8268539772087
 30
0.0
  0
SPLINE
  5
AE
330
1F
100
AcDbEntity
  8
0
 62
     7
100
AcDbSpline
210
0.0
220
0.0
230
1.0
 70
     8
 71
     3
 72
     8
 73
     4
 74
     0
 42
0.0000000001
 43
0.0000000001
 40
0.0
 40
0.0
 40
0.0
 40
0.0
 40
1.0
 40
1.0
 40
1.0
 40
1.0
 10
146.9208447702495
 20
142.4251644509974
 30
0.0
 10
146.1281277761425
 20
142.4348107247197
 30
0.0
 10
145.3664166618571
 20
142.7204093288547
 30
0.0
 10
144.7855731798648
 20
143.2254606601718
 30
0.0
  0
POLYLINE
  5
AF
330
1F
100
AcDbEntity
  8
0
 62
     7
100
AcDb2dPolyline
 66
     1
 10
0.0
 20
0.0
 30
0.0
  0
VERTEX
  5
B0
330
AF
100
AcDbEntity
  8
0
 62
     7
100
AcDbVertex
100
AcDb2dVertex
 10
144.7855731798648
 20
143.2254606601718
 30
0.0
  0
VERTEX
  5
B1
330
AF
100
AcDbEntity
  8
0
 62
     7
100
AcDbVertex
100
AcDb2dVertex
 10
143.0761156723642
 20
143.2254606601718
 30
0.0
  0
SEQEND
  5
B2
330
AF
100
AcDbEntity
  8
0
  0
POLYLINE
  5
B3
330
1F
100
AcDbEntity
  8
0
 62
     7
100
AcDb2dPolyline
 66
     1
 10
0.0
 20
0.0
 30
0.0
  0
VERTEX
  5
B4
330
B3
100
AcDbEntity
  8
0
 62
     7
100
AcDbVertex
100
AcDb2dVertex
 10
146.9208447702495
 20
139.8241156437363
 30
0.0
  0
VERTEX
  5
B5
330
B3
100
AcDbEntity
  8
0
 62
     7
100
AcDbVertex
100
AcDb2dVertex
 10
146.9208447702495
 20
139.0186517879248
 30
0.0
  0
SEQEND
  5
B6
330
B3
100
AcDbEntity
  8
0
  0
SPLINE
  5
B7
330
1F
100
AcDbEntity
  8
0
 62
     7
100
AcDbSpline
210
0.0
220
0.0
230
1.0
 70
     8
 71
     3
 72
     8
 73
     4
 74
     0
 42
0.0000000001
 43
0.0000000001
 40
0.0
 40
0.0
 40
0.0
 40
0.0
 40
1.0
 40
1.0
 40
1.0
 40
1.0
 10
146.9208447702495
 20
139.8241156437363
 30
0.0
 10
146.1281277761425
 20
139.8341064272344
 30
0.0
 10
145.3664166618571
 20
140.1193605215936
 30
0.0
 10
144.7855731798648
 20
140.6244118529108
 30
0.0
  0
POLYLINE
  5
B8
330
1F
100
AcDbEntity
  8
0
 62
     7
100
AcDb2dPolyline
 66
     1
 10
0.0
 20
0.0
 30
0.0
  0
VERTEX
  5
B9
330
B8
100
AcDbEntity
  8
0
 62
     7
100
AcDbVertex
100
AcDb2dVertex
 10
146.9208447702495
 20
139.0238194345618
 30
0.0
  0
VERTEX
  5
BA
330
B8
100
AcDbEntity
  8
0
 62
     7
100
AcDbVertex
100
AcDb2dVertex
 10
143.0761156723642
 20
139.0238194345618
 30
0.0
  0
SEQEND
  5
BB
330
B8
100
AcDbEntity
  8
0
  0
POLYLINE
  5
BC
330
1F
100
AcDbEntity
  8
0
 62
     7
100
AcDb2dPolyline
 66
     1
 10
0.0
 20
0.0
 30
0.0
  0
VERTEX
  5
BD
330
BC
100
AcDbEntity
  8
0
 62
     7
100
AcDbVertex
100
AcDb2dVertex
 10
144.7855731798648
 20
140.6244118529108
 30
0.0
  0
VERTEX
  5
BE
330
BC
100
AcDbEntity
  8
0
 62
     7
100
AcDbVertex
100
AcDb2dVertex
 10
143.0761156723642
 20
140.6244118529108
 30
0.0
  0
SEQEND
  5
BF
330
BC
100
AcDbEntity
  8
0
  0
POLYLINE
  5
C0
330
1F
100
AcDbEntity
  8
0
 62
     7
100
AcDb2dPolyline
 66
     1
 10
0.0
 20
0.0
 30
0.0
  0
VERTEX
  5
C1
330
C0
100
AcDbEntity
  8
0
 62
     7
100
AcDbVertex
100
AcDb2dVertex
 10
146.9208447702495
 20
142.4251644509974
 30
0.0
  0
VERTEX
  5
C2
330
C0
100
AcDbEntity
  8
0
 62
     7
100
AcDbVertex
100
AcDb2dVertex
 10
146.9208447702495
 20
141.6197005951859
 30
0.0
  0
SEQEND
  5
C3
330
C0
100
AcDbEntity
  8
0
  0
POLYLINE
  5
C4
330
1F
100
AcDbEntity
  8
0
 62
     7
100
AcDb2dPolyline
 66
     1
 10
0.0
 20
0.0
 30
0.0
  0
VERTEX
  5
C5
330
C4
100
AcDbEntity
  8
0
 62
     7
100
AcDbVertex
100
AcDb2dVertex
 10
146.9208447702495
 20
141.6248682418228
 30
0.0
  0
VERTEX
  5
C6
330
C4
100
AcDbEntity
  8
0
 62
     7
100
AcDbVertex
100
AcDb2dVertex
 10
143.0761156723642
 20
141.6248682418228
 30
0.0
  0
SEQEND
  5
C7
330
C4
100
AcDbEntity
  8
0
  0
SPLINE
  5
C8
330
1F
100
AcDbEntity
  8
0
 62
     7
100
AcDbSpline
210
0.0
220
0.0
230
1.0
 70
    11
 71
     3
 72
    38
 73
    34
 74
     0
 42
0.0000000001
 43
0.0000000001
 40
0.0
 40
0.0
 40
0.0
 40
0.0
 40
1.0
 40
1.0
 40
1.0
 40
2.0
 40
2.0
 40
2.0
 40
3.0
 40
3.0
 40
3.0
 40
4.0
 40
4.0
 40
4.0
 40
5.0
 40
5.0
 40
5.0
 40
6.0
 40
6.0
 40
6.0
 40
7.0
 40
7.0
 40
7.0
 40
8.0
 40
8.0
 40
8.0
 40
9.0
 40
9.0
 40
9.0
 40
10.0
 40
10.0
 40
10.0
 40
11.0
 40
11.0
 40
11.0
 40
11.0
 10
90.08052137141536
 20
142.4251644509974
 30
0.0
 10
90.08052137141536
 20
146.4035633418915
 30
0.0
 10
86.85573761507531
 20
149.6285193531194
 30
0.0
 10
82.87733872418116
 20
149.6285193531194
 30
0.0
 10
82.87733872418116
 20
149.6285193531194
 30
0.0
 10
82.87733872418116
 20
149.6285193531194
 30
0.0
 10
82.87733872418116
 20
149.6285193531194
 30
0.0
 10
78.89911208817489
 20
149.6285193531194
 30
0.0
 10
75.67398382205906
 20
146.4035633418915
 30
0.0
 10
75.67398382205906
 20
142.4251644509974
 30
0.0
 10
75.67398382205906
 20
142.4251644509974
 30
0.0
 10
75.67398382205906
 20
142.4251644509974
 30
0.0
 10
75.67398382205906
 20
142.4251644509974
 30
0.0
 10
75.67398382205906
 20
138.447110069879
 30
0.0
 10
78.89911208817489
 20
135.2221540586511
 30
0.0
 10
82.87733872418116
 20
135.2221540586511
 30
0.0
 10
82.87733872418116
 20
135.2221540586511
 30
0.0
 10
82.87733872418116
 20
135.2221540586511
 30
0.0
 10
82.87733872418116
 20
135.2221540586511
 30
0.0
 10
86.85573761507531
 20
135.2221540586511
 30
0.0
 10
90.08052137141536
 20
138.447110069879
 30
0.0
 10
90.08052137141536
 20
142.4251644509974
 30
0.0
 10
90.08052137141536
 20
142.4251644509974
 30
0.0
 10
90.08052137141536
 20
142.4251644509974
 30
0.0
 10
90.08052137141536
 20
142.4251644509974
 30
0.0
 10
90.08052137141536
 20
142.4251644509974
 30
0.0
 10
90.08052137141536
 20
142.4251644509974
 30
0.0
 10
90.08052137141536
 20
142.4251644509974
 30
0.0
 10
90.08052137141536
 20
142.4251644509974
 30
0.0
 10
90.08052137141536
 20
142.4251644509974
 30
0.0
 10
90.08052137141536
 20
142.4251644509974
 30
0.0
 10
90.08052137141536
 20
142.4251644509974
 30
0.0
 10
90.08052137141536
 20
142.4251644509974
 30
0.0
 10
90.08052137141536
 20
142.4251644509974
 30
0.0
  0
SPLINE
  5
C9
330
1F
100
AcDbEntity
  8
0
 62
     7
100
AcDbSpline
210
0.0
220
0.0
230
1.0
 70
     8
 71
     3
 72
     8
 73
     4
 74
     0
 42
0.0000000001
 43
0.0000000001
 40
0.0
 40
0.0
 40
0.0
 40
0.0
 40
1.0
 40
1.0
 40
1.0
 40
1.0
 10
81.27726307049585
 20
151.1336825635729
 30
0.0
 10
76.56299129850108
 20
150.2674127323334
 30
0.0
 10
73.39332910628842
 20
145.8065279004367
 30
0.0
 10
74.12782394828585
 20
141.0691739734636
 30
0.0
  0
SPLINE
  5
CA
330
1F
100
AcDbEntity
  8
0
 62
     7
100
AcDbSpline
210
0.0
220
0.0
230
1.0
 70
     8
 71
     3
 72
     8
 73
     4
 74
     0
 42
0.0000000001
 43
0.0000000001
 40
0.0
 40
0.0
 40
0.0
 40
0.0
 40
1.0
 40
1.0
 40
1.0
 40
1.0
 10
74.62064518256227
 20
139.2284582413847
 30
0.0
 10
75.04370318723997
 20
138.136017742335
 30
0.0
 10
75.67915146869601
 20
137.1386619414051
 30
0.0
 10
76.49029973580808
 20
136.2932349516013
 30
0.0
  0
SPLINE
  5
CB
330
1F
100
AcDbEntity
  8
0
 62
     7
100
AcDbSpline
210
0.0
220
0.0
230
1.0
 70
     8
 71
     3
 72
     8
 73
     4
 74
     0
 42
0.0000000001
 43
0.0000000001
 40
0.0
 40
0.0
 40
0.0
 40
0.0
 40
1.0
 40
1.0
 40
1.0
 40
1.0
 10
77.94912638141696
 20
135.0702252475249
 30
0.0
 10
80.70089821558887
 20
133.2257199079123
 30
0.0
 10
84.25227723938366
 20
133.0727575674588
 30
0.0
 10
87.1532218064753
 20
134.6723164564804
 30
0.0
  0
SPLINE
  5
CC
330
1F
100
AcDbEntity
  8
0
 62
     7
100
AcDbSpline
210
0.0
220
0.0
230
1.0
 70
     8
 71
     3
 72
     8
 73
     4
 74
     0
 42
0.0000000001
 43
0.0000000001
 40
0.0
 40
0.0
 40
0.0
 40
0.0
 40
1.0
 40
1.0
 40
1.0
 40
1.0
 10
88.7095447186345
 20
135.7640679359784
 30
0.0
 10
90.1833575394905
 20
137.0539125365593
 30
0.0
 10
91.18760353593633
 20
138.7971320020879
 30
0.0
 10
91.56535850509684
 20
140.7194965510305
 30
0.0
  0
SPLINE
  5
CD
330
1F
100
AcDbEntity
  8
0
 62
     7
100
AcDbSpline
210
0.0
220
0.0
230
1.0
 70
     8
 71
     3
 72
     8
 73
     4
 74
     0
 42
0.0000000001
 43
0.0000000001
 40
0.0
 40
0.0
 40
0.0
 40
0.0
 40
1.0
 40
1.0
 40
1.0
 40
1.0
 10
91.72968966815161
 20
142.6056875735145
 30
0.0
 10
91.64425124375416
 20
146.8097403675552
 30
0.0
 10
88.61325423629947
 20
150.3738662530544
 30
0.0
 10
84.47706986809067
 20
151.1336825635729
 30
0.0
  0
SPLINE
  5
CE
330
1F
100
AcDbEntity
  8
0
 62
     7
100
AcDbSpline
210
0.0
220
0.0
230
1.0
 70
    11
 71
     3
 72
    38
 73
    34
 74
     0
 42
0.0000000001
 43
0.0000000001
 40
0.0
 40
0.0
 40
0.0
 40
0.0
 40
1.0
 40
1.0
 40
1.0
 40
2.0
 40
2.0
 40
2.0
 40
3.0
 40
3.0
 40
3.0
 40
4.0
 40
4.0
 40
4.0
 40
5.0
 40
5.0
 40
5.0
 40
6.0
 40
6.0
 40
6.0
 40
7.0
 40
7.0
 40
7.0
 40
8.0
 40
8.0
 40
8.0
 40
9.0
 40
9.0
 40
9.0
 40
10.0
 40
10.0
 40
10.0
 40
11.0
 40
11.0
 40
11.0
 40
11.0
 10
92.48158225382674
 20
142.4251644509974
 30
0.0
 10
92.48158225382674
 20
147.7295814689309
 30
0.0
 10
88.18175574211476
 20
152.0295802355308
 30
0.0
 10
82.87716646929326
 20
152.0295802355308
 30
0.0
 10
82.87716646929326
 20
152.0295802355308
 30
0.0
 10
82.87716646929326
 20
152.0295802355308
 30
0.0
 10
82.87716646929326
 20
152.0295802355308
 30
0.0
 10
77.57292170624754
 20
152.0295802355308
 30
0.0
 10
73.27275068475976
 20
147.7295814689309
 30
0.0
 10
73.27275068475976
 20
142.4251644509974
 30
0.0
 10
73.27275068475976
 20
142.4251644509974
 30
0.0
 10
73.27275068475976
 20
142.4251644509974
 30
0.0
 10
73.27275068475976
 20
142.4251644509974
 30
0.0
 10
73.27275068475976
 20
137.1210919428395
 30
0.0
 10
77.57292170624754
 20
132.8209209213518
 30
0.0
 10
82.87716646929326
 20
132.8209209213518
 30
0.0
 10
82.87716646929326
 20
132.8209209213518
 30
0.0
 10
82.87716646929326
 20
132.8209209213518
 30
0.0
 10
82.87716646929326
 20
132.8209209213518
 30
0.0
 10
88.18175574211476
 20
132.8209209213518
 30
0.0
 10
92.48158225382674
 20
137.1210919428395
 30
0.0
 10
92.48158225382674
 20
142.4251644509974
 30
0.0
 10
92.48158225382674
 20
142.4251644509974
 30
0.0
 10
92.48158225382674
 20
142.4251644509974
 30
0.0
 10
92.48158225382674
 20
142.4251644509974
 30
0.0
 10
92.48158225382674
 20
142.4251644509974
 30
0.0
 10
92.48158225382674
 20
142.4251644509974
 30
0.0
 10
92.48158225382674
 20
142.4251644509974
 30
0.0
 10
92.48158225382674
 20
142.4251644509974
 30
0.0
 10
92.48158225382674
 20
142.4251644509974
 30
0.0
 10
92.48158225382674
 20
142.4251644509974
 30
0.0
 10
92.48158225382674
 20
142.4251644509974
 30
0.0
 10
92.48158225382674
 20
142.4251644509974
 30
0.0
 10
92.48158225382674
 20
142.4251644509974
 30
0.0
  0
SPLINE
  5
CF
330
1F
100
AcDbEntity
  8
0
 62
     7
100
AcDbSpline
210
0.0
220
0.0
230
1.0
 70
    11
 71
     3
 72
    38
 73
    34
 74
     0
 42
0.0000000001
 43
0.0000000001
 40
0.0
 40
0.0
 40
0.0
 40
0.0
 40
1.0
 40
1.0
 40
1.0
 40
2.0
 40
2.0
 40
2.0
 40
3.0
 40
3.0
 40
3.0
 40
4.0
 40
4.0
 40
4.0
 40
5.0
 40
5.0
 40
5.0
 40
6.0
 40
6.0
 40
6.0
 40
7.0
 40
7.0
 40
7.0
 40
8.0
 40
8.0
 40
8.0
 40
9.0
 40
9.0
 40
9.0
 40
10.0
 40
10.0
 40
10.0
 40
11.0
 40
11.0
 40
11.0
 40
11.0
 10
92.73186860594267
 20
142.4251644509974
 30
0.0
 10
92.73186860594267
 20
147.8677298890252
 30
0.0
 10
88.31990416220903
 20
152.2796943327589
 30
0.0
 10
82.87733872418116
 20
152.2796943327589
 30
0.0
 10
82.87733872418116
 20
152.2796943327589
 30
0.0
 10
82.87733872418116
 20
152.2796943327589
 30
0.0
 10
82.87733872418116
 20
152.2796943327589
 30
0.0
 10
77.43494554104117
 20
152.2796943327589
 30
0.0
 10
73.02280884241965
 20
147.8677298890252
 30
0.0
 10
73.02280884241965
 20
142.4251644509974
 30
0.0
 10
73.02280884241965
 20
142.4251644509974
 30
0.0
 10
73.02280884241965
 20
142.4251644509974
 30
0.0
 10
73.02280884241965
 20
142.4251644509974
 30
0.0
 10
73.02280884241965
 20
136.9829435227453
 30
0.0
 10
77.43494554104117
 20
132.5708068241237
 30
0.0
 10
82.87733872418116
 20
132.5708068241237
 30
0.0
 10
82.87733872418116
 20
132.5708068241237
 30
0.0
 10
82.87733872418116
 20
132.5708068241237
 30
0.0
 10
82.87733872418116
 20
132.5708068241237
 30
0.0
 10
88.31990416220903
 20
132.5708068241237
 30
0.0
 10
92.73186860594267
 20
136.9829435227453
 30
0.0
 10
92.73186860594267
 20
142.4251644509974
 30
0.0
 10
92.73186860594267
 20
142.4251644509974
 30
0.0
 10
92.73186860594267
 20
142.4251644509974
 30
0.0
 10
92.73186860594267
 20
142.4251644509974
 30
0.0
 10
92.73186860594267
 20
142.4251644509974
 30
0.0
 10
92.73186860594267
 20
142.4251644509974
 30
0.0
 10
92.73186860594267
 20
142.4251644509974
 30
0.0
 10
92.73186860594267
 20
142.4251644509974
 30
0.0
 10
92.73186860594267
 20
142.4251644509974
 30
0.0
 10
92.73186860594267
 20
142.4251644509974
 30
0.0
 10
92.73186860594267
 20
142.4251644509974
 30
0.0
 10
92.73186860594267
 20
142.4251644509974
 30
0.0
 10
92.73186860594267
 20
142.4251644509974
 30
0.0
  0
SPLINE
  5
D0
330
1F
100
AcDbEntity
  8
0
 62
     7
100
AcDbSpline
210
0.0
220
0.0
230
1.0
 70
     8
 71
     3
 72
    20
 73
    16
 74
     0
 42
0.0000000001
 43
0.0000000001
 40
0.0
 40
0.0
 40
0.0
 40
0.0
 40
1.0
 40
1.0
 40
1.0
 40
2.0
 40
2.0
 40
2.0
 40
3.0
 40
3.0
 40
3.0
 40
4.0
 40
4.0
 40
4.0
 40
5.0
 40
5.0
 40
5.0
 40
5.0
 10
83.91327962000024
 20
131.8208090422155
 30
0.0
 10
89.76977355364721
 20
132.3933842895887
 30
0.0
 10
94.05409712544837
 20
137.6044391582816
 30
0.0
 10
93.48186638785093
 20
143.4607608370406
 30
0.0
 10
93.48186638785093
 20
143.4607608370406
 30
0.0
 10
93.48186638785093
 20
143.4607608370406
 30
0.0
 10
93.48186638785093
 20
143.4607608370406
 30
0.0
 10
93.48186638785093
 20
143.4607608370406
 30
0.0
 10
93.48186638785093
 20
143.4607608370406
 30
0.0
 10
93.48186638785093
 20
143.4607608370406
 30
0.0
 10
93.48186638785093
 20
143.4607608370406
 30
0.0
 10
93.48186638785093
 20
143.4607608370406
 30
0.0
 10
93.48186638785093
 20
143.4607608370406
 30
0.0
 10
93.36817816183819
 20
144.6214142716979
 30
0.0
 10
93.06552632380125
 20
145.7555404536189
 30
0.0
 10
92.5849351865656
 20
146.8176640923985
 30
0.0
  0
SPLINE
  5
D1
330
1F
100
AcDbEntity
  8
0
 62
     7
100
AcDbSpline
210
0.0
220
0.0
230
1.0
 70
     8
 71
     3
 72
    20
 73
    16
 74
     0
 42
0.0000000001
 43
0.0000000001
 40
0.0
 40
0.0
 40
0.0
 40
0.0
 40
1.0
 40
1.0
 40
1.0
 40
2.0
 40
2.0
 40
2.0
 40
3.0
 40
3.0
 40
3.0
 40
4.0
 40
4.0
 40
4.0
 40
5.0
 40
5.0
 40
5.0
 40
5.0
 10
91.53435262527519
 20
148.6361589439386
 30
0.0
 10
88.10424104256063
 20
153.4176101222136
 30
0.0
 10
81.44813991929075
 20
154.5129789543575
 30
0.0
 10
76.66634423123992
 20
151.082867371643
 30
0.0
 10
76.66634423123992
 20
151.082867371643
 30
0.0
 10
76.66634423123992
 20
151.082867371643
 30
0.0
 10
76.66634423123992
 20
151.082867371643
 30
0.0
 10
76.66634423123992
 20
151.082867371643
 30
0.0
 10
76.66634423123992
 20
151.082867371643
 30
0.0
 10
76.66634423123992
 20
151.082867371643
 30
0.0
 10
76.66634423123992
 20
151.082867371643
 30
0.0
 10
76.66634423123992
 20
151.082867371643
 30
0.0
 10
76.66634423123992
 20
151.082867371643
 30
0.0
 10
75.71911460268836
 20
150.4031495839971
 30
0.0
 10
74.88970731745908
 20
149.5725365145526
 30
0.0
 10
74.21136756891643
 20
148.6242733566736
 30
0.0
  0
SPLINE
  5
D2
330
1F
100
AcDbEntity
  8
0
 62
     7
100
AcDbSpline
210
0.0
220
0.0
230
1.0
 70
     8
 71
     3
 72
    20
 73
    16
 74
     0
 42
0.0000000001
 43
0.0000000001
 40
0.0
 40
0.0
 40
0.0
 40
0.0
 40
1.0
 40
1.0
 40
1.0
 40
2.0
 40
2.0
 40
2.0
 40
3.0
 40
3.0
 40
3.0
 40
4.0
 40
4.0
 40
4.0
 40
5.0
 40
5.0
 40
5.0
 40
5.0
 10
73.18438392726804
 20
146.8493589917717
 30
0.0
 10
70.74094834243373
 20
141.4967106052267
 30
0.0
 10
73.09980677731009
 20
135.1763342584701
 30
0.0
 10
78.45297192851886
 20
132.7327264187479
 30
0.0
 10
78.45297192851886
 20
132.7327264187479
 30
0.0
 10
78.45297192851886
 20
132.7327264187479
 30
0.0
 10
78.45297192851886
 20
132.7327264187479
 30
0.0
 10
78.45297192851886
 20
132.7327264187479
 30
0.0
 10
78.45297192851886
 20
132.7327264187479
 30
0.0
 10
78.45297192851886
 20
132.7327264187479
 30
0.0
 10
78.45297192851886
 20
132.7327264187479
 30
0.0
 10
78.45297192851886
 20
132.7327264187479
 30
0.0
 10
78.45297192851886
 20
132.7327264187479
 30
0.0
 10
79.52611988012393
 20
132.2431780273416
 30
0.0
 10
80.67333743352516
 20
131.9344972682282
 30
0.0
 10
81.8479435141022
 20
131.8204645324397
 30
0.0
  0
SPLINE
  5
D3
330
1F
100
AcDbEntity
  8
0
 62
     7
100
AcDbSpline
210
0.0
220
0.0
230
1.0
 70
    11
 71
     3
 72
    38
 73
    34
 74
     0
 42
0.0000000001
 43
0.0000000001
 40
0.0
 40
0.0
 40
0.0
 40
0.0
 40
1.0
 40
1.0
 40
1.0
 40
2.0
 40
2.0
 40
2.0
 40
3.0
 40
3.0
 40
3.0
 40
4.0
 40
4.0
 40
4.0
 40
5.0
 40
5.0
 40
5.0
 40
6.0
 40
6.0
 40
6.0
 40
7.0
 40
7.0
 40
7.0
 40
8.0
 40
8.0
 40
8.0
 40
9.0
 40
9.0
 40
9.0
 40
10.0
 40
10.0
 40
10.0
 40
11.0
 40
11.0
 40
11.0
 40
11.0
 10
94.28267936168912
 20
142.4251644509974
 30
0.0
 10
94.28267936168912
 20
148.7243534465424
 30
0.0
 10
89.17635546483831
 20
153.8305050885053
 30
0.0
 10
82.87751097906906
 20
153.8305050885053
 30
0.0
 10
82.87751097906906
 20
153.8305050885053
 30
0.0
 10
82.87751097906906
 20
153.8305050885053
 30
0.0
 10
82.87751097906906
 20
153.8305050885053
 30
0.0
 10
76.57866649329981
 20
153.8305050885053
 30
0.0
 10
71.47217034156108
 20
148.7243534465424
 30
0.0
 10
71.47217034156108
 20
142.4251644509974
 30
0.0
 10
71.47217034156108
 20
142.4251644509974
 30
0.0
 10
71.47217034156108
 20
142.4251644509974
 30
0.0
 10
71.47217034156108
 20
142.4251644509974
 30
0.0
 10
71.47217034156108
 20
136.126492220116
 30
0.0
 10
76.57866649329981
 20
131.0201683232652
 30
0.0
 10
82.87751097906906
 20
131.0201683232652
 30
0.0
 10
82.87751097906906
 20
131.0201683232652
 30
0.0
 10
82.87751097906906
 20
131.0201683232652
 30
0.0
 10
82.87751097906906
 20
131.0201683232652
 30
0.0
 10
89.17635546483831
 20
131.0201683232652
 30
0.0
 10
94.28267936168912
 20
136.126492220116
 30
0.0
 10
94.28267936168912
 20
142.4251644509974
 30
0.0
 10
94.28267936168912
 20
142.4251644509974
 30
0.0
 10
94.28267936168912
 20
142.4251644509974
 30
0.0
 10
94.28267936168912
 20
142.4251644509974
 30
0.0
 10
94.28267936168912
 20
142.4251644509974
 30
0.0
 10
94.28267936168912
 20
142.4251644509974
 30
0.0
 10
94.28267936168912
 20
142.4251644509974
 30
0.0
 10
94.28267936168912
 20
142.4251644509974
 30
0.0
 10
94.28267936168912
 20
142.4251644509974
 30
0.0
 10
94.28267936168912
 20
142.4251644509974
 30
0.0
 10
94.28267936168912
 20
142.4251644509974
 30
0.0
 10
94.28267936168912
 20
142.4251644509974
 30
0.0
 10
94.28267936168912
 20
142.4251644509974
 30
0.0
  0
SPLINE
  5
D4
330
1F
100
AcDbEntity
  8
0
 62
     7
100
AcDbSpline
210
0.0
220
0.0
230
1.0
 70
     8
 71
     3
 72
     8
 73
     4
 74
     0
 42
0.0000000001
 43
0.0000000001
 40
0.0
 40
0.0
 40
0.0
 40
0.0
 40
1.0
 40
1.0
 40
1.0
 40
1.0
 10
73.69012427813682
 20
140.9537631985719
 30
0.0
 10
73.7907211326693
 20
140.3243438381923
 30
0.0
 10
73.95625807993936
 20
139.7069823199656
 30
0.0
 10
74.18346227707694
 20
139.111324917614
 30
0.0
  0
SPLINE
  5
D5
330
1F
100
AcDbEntity
  8
0
 62
     7
100
AcDbSpline
210
0.0
220
0.0
230
1.0
 70
     8
 71
     3
 72
     8
 73
     4
 74
     0
 42
0.0000000001
 43
0.0000000001
 40
0.0
 40
0.0
 40
0.0
 40
0.0
 40
1.0
 40
1.0
 40
1.0
 40
1.0
 10
76.20246181813039
 20
135.9445910584956
 30
0.0
 10
76.64429560558897
 20
135.4884601153415
 30
0.0
 10
77.13212144811635
 20
135.0798715212472
 30
0.0
 10
77.65818787575709
 20
134.7229593935224
 30
0.0
  0
SPLINE
  5
D6
330
1F
100
AcDbEntity
  8
0
 62
     7
100
AcDbSpline
210
0.0
220
0.0
230
1.0
 70
     8
 71
     3
 72
     8
 73
     4
 74
     0
 42
0.0000000001
 43
0.0000000001
 40
0.0
 40
0.0
 40
0.0
 40
0.0
 40
1.0
 40
1.0
 40
1.0
 40
1.0
 10
87.41022609921924
 20
134.3005904083963
 30
0.0
 10
87.96505909313898
 20
134.6096156772855
 30
0.0
 10
88.48613012903068
 20
134.975485059181
 30
0.0
 10
88.96689352115423
 20
135.3902748292396
 30
0.0
  0
SPLINE
  5
D7
330
1F
100
AcDbEntity
  8
0
 62
     7
100
AcDbSpline
210
0.0
220
0.0
230
1.0
 70
     8
 71
     3
 72
     8
 73
     4
 74
     0
 42
0.0000000001
 43
0.0000000001
 40
0.0
 40
0.0
 40
0.0
 40
0.0
 40
1.0
 40
1.0
 40
1.0
 40
1.0
 10
92.01563278206243
 20
140.6753992997286
 30
0.0
 10
92.1348331644879
 20
141.2982729743681
 30
0.0
 10
92.18995472861529
 20
141.9318264520572
 30
0.0
 10
92.180308454893
 20
142.566068949298
 30
0.0
  0
SPLINE
  5
D8
330
1F
100
AcDbEntity
  8
0
 62
     7
100
AcDbSpline
210
0.0
220
0.0
230
1.0
 70
     8
 71
     3
 72
     8
 73
     4
 74
     0
 42
0.0000000001
 43
0.0000000001
 40
0.0
 40
0.0
 40
0.0
 40
0.0
 40
1.0
 40
1.0
 40
1.0
 40
1.0
 10
84.47706986809067
 20
151.5908470360544
 30
0.0
 10
83.42028613083592
 20
151.7751597661054
 30
0.0
 10
82.33921445438755
 20
151.7755042758812
 30
0.0
 10
81.28260297202068
 20
151.5918805653818
 30
0.0
  0
POLYLINE
  5
D9
330
1F
100
AcDbEntity
  8
0
 62
     7
100
AcDb2dPolyline
 66
     1
 10
0.0
 20
0.0
 30
0.0
  0
VERTEX
  5
DA
330
D9
100
AcDbEntity
  8
0
 62
     7
100
AcDbVertex
100
AcDb2dVertex
 10
97.88401230297437
 20
153.9304129234862
 30
0.0
  0
VERTEX
  5
DB
330
D9
100
AcDbEntity
  8
0
 62
     7
100
AcDbVertex
100
AcDb2dVertex
 10
97.88401230297437
 20
130.9206049980601
 30
0.0
  0
SEQEND
  5
DC
330
D9
100
AcDbEntity
  8
0
  0
SPLINE
  5
DD
330
1F
100
AcDbEntity
  8
0
 62
     7
100
AcDbSpline
210
0.0
220
0.0
230
1.0
 70
     8
 71
     3
 72
     8
 73
     4
 74
     0
 42
0.0000000001
 43
0.0000000001
 40
0.0
 40
0.0
 40
0.0
 40
0.0
 40
1.0
 40
1.0
 40
1.0
 40
1.0
 10
94.3829317064458
 20
127.4190076368678
 30
0.0
 10
96.31632056821391
 20
127.4190076368678
 30
0.0
 10
97.88401230297437
 20
128.9868716265162
 30
0.0
 10
97.88401230297437
 20
130.9206049980601
 30
0.0
  0
SPLINE
  5
DE
330
1F
100
AcDbEntity
  8
0
 62
     7
100
AcDbSpline
210
0.0
220
0.0
230
1.0
 70
     8
 71
     3
 72
     8
 73
     4
 74
     0
 42
0.0000000001
 43
0.0000000001
 40
0.0
 40
0.0
 40
0.0
 40
0.0
 40
1.0
 40
1.0
 40
1.0
 40
1.0
 10
97.88401230297437
 20
153.9304129234862
 30
0.0
 10
97.88401230297437
 20
155.864318549918
 30
0.0
 10
96.31632056821391
 20
157.4321825395664
 30
0.0
 10
94.3829317064458
 20
157.4321825395664
 30
0.0
  0
POLYLINE
  5
DF
330
1F
100
AcDbEntity
  8
0
 62
     7
100
AcDb2dPolyline
 66
     1
 10
0.0
 20
0.0
 30
0.0
  0
VERTEX
  5
E0
330
DF
100
AcDbEntity
  8
0
 62
     7
100
AcDbVertex
100
AcDb2dVertex
 10
94.3829317064458
 20
127.4190076368678
 30
0.0
  0
VERTEX
  5
E1
330
DF
100
AcDbEntity
  8
0
 62
     7
100
AcDbVertex
100
AcDb2dVertex
 10
71.3719179968044
 20
127.4190076368678
 30
0.0
  0
SEQEND
  5
E2
330
DF
100
AcDbEntity
  8
0
  0
SPLINE
  5
E3
330
1F
100
AcDbEntity
  8
0
 62
     7
100
AcDbSpline
210
0.0
220
0.0
230
1.0
 70
     8
 71
     3
 72
     8
 73
     4
 74
     0
 42
0.0000000001
 43
0.0000000001
 40
0.0
 40
0.0
 40
0.0
 40
0.0
 40
1.0
 40
1.0
 40
1.0
 40
1.0
 10
67.87049289050005
 20
130.9206049980601
 30
0.0
 10
67.87049289050005
 20
128.9868716265162
 30
0.0
 10
69.4380123703726
 20
127.4190076368678
 30
0.0
 10
71.3719179968044
 20
127.4190076368678
 30
0.0
  0
POLYLINE
  5
E4
330
1F
100
AcDbEntity
  8
0
 62
     7
100
AcDb2dPolyline
 66
     1
 10
0.0
 20
0.0
 30
0.0
  0
VERTEX
  5
E5
330
E4
100
AcDbEntity
  8
0
 62
     7
100
AcDbVertex
100
AcDb2dVertex
 10
67.87049289050005
 20
130.9206049980601
 30
0.0
  0
VERTEX
  5
E6
330
E4
100
AcDbEntity
  8
0
 62
     7
100
AcDbVertex
100
AcDb2dVertex
 10
67.87049289050005
 20
153.9304129234862
 30
0.0
  0
SEQEND
  5
E7
330
E4
100
AcDbEntity
  8
0
  0
SPLINE
  5
E8
330
1F
100
AcDbEntity
  8
0
 62
     7
100
AcDbSpline
210
0.0
220
0.0
230
1.0
 70
     8
 71
     3
 72
     8
 73
     4
 74
     0
 42
0.0000000001
 43
0.0000000001
 40
0.0
 40
0.0
 40
0.0
 40
0.0
 40
1.0
 40
1.0
 40
1.0
 40
1.0
 10
71.3719179968044
 20
157.4321825395664
 30
0.0
 10
69.4380123703726
 20
157.4321825395664
 30
0.0
 10
67.87049289050005
 20
155.864318549918
 30
0.0
 10
67.87049289050005
 20
153.9304129234862
 30
0.0
  0
POLYLINE
  5
E9
330
1F
100
AcDbEntity
  8
0
 62
     7
100
AcDb2dPolyline
 66
     1
 10
0.0
 20
0.0
 30
0.0
  0
VERTEX
  5
EA
330
E9
100
AcDbEntity
  8
0
 62
     7
100
AcDbVertex
100
AcDb2dVertex
 10
71.3719179968044
 20
157.4321825395664
 30
0.0
  0
VERTEX
  5
EB
330
E9
100
AcDbEntity
  8
0
 62
     7
100
AcDbVertex
100
AcDb2dVertex
 10
94.3829317064458
 20
157.4321825395664
 30
0.0
  0
SEQEND
  5
EC
330
E9
100
AcDbEntity
  8
0
  0
POLYLINE
  5
ED
330
1F
100
AcDbEntity
  8
0
 62
     7
100
AcDb2dPolyline
 66
     1
 10
0.0
 20
0.0
 30
0.0
  0
VERTEX
  5
EE
330
ED
100
AcDbEntity
  8
0
 62
     7
100
AcDbVertex
100
AcDb2dVertex
 10
74.17829463043999
 20
139.1089133491834
 30
0.0
  0
VERTEX
  5
EF
330
ED
100
AcDbEntity
  8
0
 62
     7
100
AcDbVertex
100
AcDb2dVertex
 10
75.10364788822851
 20
139.3593719561872
 30
0.0
  0
SEQEND
  5
F0
330
ED
100
AcDbEntity
  8
0
  0
POLYLINE
  5
F1
330
1F
100
AcDbEntity
  8
0
 62
     7
100
AcDb2dPolyline
 66
     1
 10
0.0
 20
0.0
 30
0.0
  0
VERTEX
  5
F2
330
F1
100
AcDbEntity
  8
0
 62
     7
100
AcDbVertex
100
AcDb2dVertex
 10
73.68805721948205
 20
140.9496290812623
 30
0.0
  0
VERTEX
  5
F3
330
F1
100
AcDbEntity
  8
0
 62
     7
100
AcDbVertex
100
AcDb2dVertex
 10
74.60841508552151
 20
141.1949200416292
 30
0.0
  0
SEQEND
  5
F4
330
F1
100
AcDbEntity
  8
0
  0
POLYLINE
  5
F5
330
1F
100
AcDbEntity
  8
0
 62
     7
100
AcDb2dPolyline
 66
     1
 10
0.0
 20
0.0
 30
0.0
  0
VERTEX
  5
F6
330
F5
100
AcDbEntity
  8
0
 62
     7
100
AcDbVertex
100
AcDb2dVertex
 10
77.65474277799913
 20
134.721925864195
 30
0.0
  0
VERTEX
  5
F7
330
F5
100
AcDbEntity
  8
0
 62
     7
100
AcDbVertex
100
AcDb2dVertex
 10
78.26555861048574
 20
135.4522865888829
 30
0.0
  0
SEQEND
  5
F8
330
F5
100
AcDbEntity
  8
0
  0
POLYLINE
  5
F9
330
1F
100
AcDbEntity
  8
0
 62
     7
100
AcDb2dPolyline
 66
     1
 10
0.0
 20
0.0
 30
0.0
  0
VERTEX
  5
FA
330
F9
100
AcDbEntity
  8
0
 62
     7
100
AcDbVertex
100
AcDb2dVertex
 10
76.19953348503611
 20
135.9428685096166
 30
0.0
  0
VERTEX
  5
FB
330
F9
100
AcDbEntity
  8
0
 62
     7
100
AcDbVertex
100
AcDb2dVertex
 10
76.80948804308324
 20
136.6783968809414
 30
0.0
  0
SEQEND
  5
FC
330
F9
100
AcDbEntity
  8
0
  0
POLYLINE
  5
FD
330
1F
100
AcDbEntity
  8
0
 62
     7
100
AcDb2dPolyline
 66
     1
 10
0.0
 20
0.0
 30
0.0
  0
VERTEX
  5
FE
330
FD
100
AcDbEntity
  8
0
 62
     7
100
AcDbVertex
100
AcDb2dVertex
 10
88.96551548205105
 20
135.3871742412574
 30
0.0
  0
VERTEX
  5
FF
330
FD
100
AcDbEntity
  8
0
 62
     7
100
AcDbVertex
100
AcDb2dVertex
 10
88.41998425207781
 20
136.1674888834357
 30
0.0
  0
SEQEND
  5
100
330
FD
100
AcDbEntity
  8
0
  0
POLYLINE
  5
101
330
1F
100
AcDbEntity
  8
0
 62
     7
100
AcDb2dPolyline
 66
     1
 10
0.0
 20
0.0
 30
0.0
  0
VERTEX
  5
102
330
101
100
AcDbEntity
  8
0
 62
     7
100
AcDbVertex
100
AcDb2dVertex
 10
87.40953707966766
 20
134.2971453106383
 30
0.0
  0
VERTEX
  5
103
330
101
100
AcDbEntity
  8
0
 62
     7
100
AcDbVertex
100
AcDb2dVertex
 10
86.85952722260907
 20
135.0774599528167
 30
0.0
  0
SEQEND
  5
104
330
101
100
AcDbEntity
  8
0
  0
POLYLINE
  5
105
330
1F
100
AcDbEntity
  8
0
 62
     7
100
AcDb2dPolyline
 66
     1
 10
0.0
 20
0.0
 30
0.0
  0
VERTEX
  5
106
330
105
100
AcDbEntity
  8
0
 62
     7
100
AcDbVertex
100
AcDb2dVertex
 10
92.18650963085733
 20
142.5653799297464
 30
0.0
  0
VERTEX
  5
107
330
105
100
AcDbEntity
  8
0
 62
     7
100
AcDbVertex
100
AcDb2dVertex
 10
91.23118402257455
 20
142.6453061977311
 30
0.0
  0
SEQEND
  5
108
330
105
100
AcDbEntity
  8
0
  0
POLYLINE
  5
109
330
1F
100
AcDbEntity
  8
0
 62
     7
100
AcDb2dPolyline
 66
     1
 10
0.0
 20
0.0
 30
0.0
  0
VERTEX
  5
10A
330
109
100
AcDbEntity
  8
0
 62
     7
100
AcDbVertex
100
AcDb2dVertex
 10
92.01632180161403
 20
140.6698871433159
 30
0.0
  0
VERTEX
  5
10B
330
109
100
AcDbEntity
  8
0
 62
     7
100
AcDbVertex
100
AcDb2dVertex
 10
91.0658193301924
 20
140.7549810579375
 30
0.0
  0
SEQEND
  5
10C
330
109
100
AcDbEntity
  8
0
  0
SPLINE
  5
10D
330
1F
100
AcDbEntity
  8
0
 62
     7
100
AcDbSpline
210
0.0
220
0.0
230
1.0
 70
    11
 71
     3
 72
    38
 73
    34
 74
     0
 42
0.0000000001
 43
0.0000000001
 40
0.0
 40
0.0
 40
0.0
 40
0.0
 40
1.0
 40
1.0
 40
1.0
 40
2.0
 40
2.0
 40
2.0
 40
3.0
 40
3.0
 40
3.0
 40
4.0
 40
4.0
 40
4.0
 40
5.0
 40
5.0
 40
5.0
 40
6.0
 40
6.0
 40
6.0
 40
7.0
 40
7.0
 40
7.0
 40
8.0
 40
8.0
 40
8.0
 40
9.0
 40
9.0
 40
9.0
 40
10.0
 40
10.0
 40
10.0
 40
11.0
 40
11.0
 40
11.0
 40
11.0
 10
91.23118402257455
 20
142.4251644509974
 30
0.0
 10
91.23118402257455
 20
147.0391838782354
 30
0.0
 10
87.49101364164345
 20
150.7790097493908
 30
0.0
 10
82.87733872418116
 20
150.7790097493908
 30
0.0
 10
82.87733872418116
 20
150.7790097493908
 30
0.0
 10
82.87733872418116
 20
150.7790097493908
 30
0.0
 10
82.87733872418116
 20
150.7790097493908
 30
0.0
 10
78.26383606160675
 20
150.7790097493908
 30
0.0
 10
74.52366568067565
 20
147.0391838782354
 30
0.0
 10
74.52366568067565
 20
142.4251644509974
 30
0.0
 10
74.52366568067565
 20
142.4251644509974
 30
0.0
 10
74.52366568067565
 20
142.4251644509974
 30
0.0
 10
74.52366568067565
 20
142.4251644509974
 30
0.0
 10
74.52366568067565
 20
137.8118340433109
 30
0.0
 10
78.26383606160675
 20
134.0714914074918
 30
0.0
 10
82.87733872418116
 20
134.0714914074918
 30
0.0
 10
82.87733872418116
 20
134.0714914074918
 30
0.0
 10
82.87733872418116
 20
134.0714914074918
 30
0.0
 10
82.87733872418116
 20
134.0714914074918
 30
0.0
 10
87.49101364164345
 20
134.0714914074918
 30
0.0
 10
91.23118402257455
 20
137.8118340433109
 30
0.0
 10
91.23118402257455
 20
142.4251644509974
 30
0.0
 10
91.23118402257455
 20
142.4251644509974
 30
0.0
 10
91.23118402257455
 20
142.4251644509974
 30
0.0
 10
91.23118402257455
 20
142.4251644509974
 30
0.0
 10
91.23118402257455
 20
142.4251644509974
 30
0.0
 10
91.23118402257455
 20
142.4251644509974
 30
0.0
 10
91.23118402257455
 20
142.4251644509974
 30
0.0
 10
91.23118402257455
 20
142.4251644509974
 30
0.0
 10
91.23118402257455
 20
142.4251644509974
 30
0.0
 10
91.23118402257455
 20
142.4251644509974
 30
0.0
 10
91.23118402257455
 20
142.4251644509974
 30
0.0
 10
91.23118402257455
 20
142.4251644509974
 30
0.0
 10
91.23118402257455
 20
142.4251644509974
 30
0.0
  0
SPLINE
  5
10E
330
1F
100
AcDbEntity
  8
0
 62
     7
100
AcDbSpline
210
0.0
220
0.0
230
1.0
 70
    11
 71
     3
 72
    38
 73
    34
 74
     0
 42
0.0000000001
 43
0.0000000001
 40
0.0
 40
0.0
 40
0.0
 40
0.0
 40
1.0
 40
1.0
 40
1.0
 40
2.0
 40
2.0
 40
2.0
 40
3.0
 40
3.0
 40
3.0
 40
4.0
 40
4.0
 40
4.0
 40
5.0
 40
5.0
 40
5.0
 40
6.0
 40
6.0
 40
6.0
 40
7.0
 40
7.0
 40
7.0
 40
8.0
 40
8.0
 40
8.0
 40
9.0
 40
9.0
 40
9.0
 40
10.0
 40
10.0
 40
10.0
 40
11.0
 40
11.0
 40
11.0
 40
11.0
 10
96.0834319597757
 20
153.9304129234862
 30
0.0
 10
96.0834319597757
 20
154.8698910820823
 30
0.0
 10
95.32172084549036
 20
155.6312576865919
 30
0.0
 10
94.38258719667002
 20
155.6312576865919
 30
0.0
 10
94.38258719667002
 20
155.6312576865919
 30
0.0
 10
94.38258719667002
 20
155.6312576865919
 30
0.0
 10
94.38258719667002
 20
155.6312576865919
 30
0.0
 10
93.44310903807386
 20
155.6312576865919
 30
0.0
 10
92.68157017867642
 20
154.8698910820823
 30
0.0
 10
92.68157017867642
 20
153.9304129234862
 30
0.0
 10
92.68157017867642
 20
153.9304129234862
 30
0.0
 10
92.68157017867642
 20
153.9304129234862
 30
0.0
 10
92.68157017867642
 20
153.9304129234862
 30
0.0
 10
92.68157017867642
 20
152.991107019778
 30
0.0
 10
93.44310903807386
 20
152.2297404152684
 30
0.0
 10
94.38258719667002
 20
152.2297404152684
 30
0.0
 10
94.38258719667002
 20
152.2297404152684
 30
0.0
 10
94.38258719667002
 20
152.2297404152684
 30
0.0
 10
94.38258719667002
 20
152.2297404152684
 30
0.0
 10
95.32172084549036
 20
152.2297404152684
 30
0.0
 10
96.0834319597757
 20
152.991107019778
 30
0.0
 10
96.0834319597757
 20
153.9304129234862
 30
0.0
 10
96.0834319597757
 20
153.9304129234862
 30
0.0
 10
96.0834319597757
 20
153.9304129234862
 30
0.0
 10
96.0834319597757
 20
153.9304129234862
 30
0.0
 10
96.0834319597757
 20
153.9304129234862
 30
0.0
 10
96.0834319597757
 20
153.9304129234862
 30
0.0
 10
96.0834319597757
 20
153.9304129234862
 30
0.0
 10
96.0834319597757
 20
153.9304129234862
 30
0.0
 10
96.0834319597757
 20
153.9304129234862
 30
0.0
 10
96.0834319597757
 20
153.9304129234862
 30
0.0
 10
96.0834319597757
 20
153.9304129234862
 30
0.0
 10
96.0834319597757
 20
153.9304129234862
 30
0.0
 10
96.0834319597757
 20
153.9304129234862
 30
0.0
  0
SPLINE
  5
10F
330
1F
100
AcDbEntity
  8
0
 62
     7
100
AcDbSpline
210
0.0
220
0.0
230
1.0
 70
    11
 71
     3
 72
    38
 73
    34
 74
     0
 42
0.0000000001
 43
0.0000000001
 40
0.0
 40
0.0
 40
0.0
 40
0.0
 40
1.0
 40
1.0
 40
1.0
 40
2.0
 40
2.0
 40
2.0
 40
3.0
 40
3.0
 40
3.0
 40
4.0
 40
4.0
 40
4.0
 40
5.0
 40
5.0
 40
5.0
 40
6.0
 40
6.0
 40
6.0
 40
7.0
 40
7.0
 40
7.0
 40
8.0
 40
8.0
 40
8.0
 40
9.0
 40
9.0
 40
9.0
 40
10.0
 40
10.0
 40
10.0
 40
11.0
 40
11.0
 40
11.0
 40
11.0
 10
96.0834319597757
 20
130.9206049980601
 30
0.0
 10
96.0834319597757
 20
131.8597386468804
 30
0.0
 10
95.32172084549036
 20
132.62110525139
 30
0.0
 10
94.38258719667002
 20
132.62110525139
 30
0.0
 10
94.38258719667002
 20
132.62110525139
 30
0.0
 10
94.38258719667002
 20
132.62110525139
 30
0.0
 10
94.38258719667002
 20
132.62110525139
 30
0.0
 10
93.44310903807386
 20
132.62110525139
 30
0.0
 10
92.68157017867642
 20
131.8597386468804
 30
0.0
 10
92.68157017867642
 20
130.9206049980601
 30
0.0
 10
92.68157017867642
 20
130.9206049980601
 30
0.0
 10
92.68157017867642
 20
130.9206049980601
 30
0.0
 10
92.68157017867642
 20
130.9206049980601
 30
0.0
 10
92.68157017867642
 20
129.9811268394639
 30
0.0
 10
93.44310903807386
 20
129.2194157251786
 30
0.0
 10
94.38258719667002
 20
129.2194157251786
 30
0.0
 10
94.38258719667002
 20
129.2194157251786
 30
0.0
 10
94.38258719667002
 20
129.2194157251786
 30
0.0
 10
94.38258719667002
 20
129.2194157251786
 30
0.0
 10
95.32172084549036
 20
129.2194157251786
 30
0.0
 10
96.0834319597757
 20
129.9811268394639
 30
0.0
 10
96.0834319597757
 20
130.9206049980601
 30
0.0
 10
96.0834319597757
 20
130.9206049980601
 30
0.0
 10
96.0834319597757
 20
130.9206049980601
 30
0.0
 10
96.0834319597757
 20
130.9206049980601
 30
0.0
 10
96.0834319597757
 20
130.9206049980601
 30
0.0
 10
96.0834319597757
 20
130.9206049980601
 30
0.0
 10
96.0834319597757
 20
130.9206049980601
 30
0.0
 10
96.0834319597757
 20
130.9206049980601
 30
0.0
 10
96.0834319597757
 20
130.9206049980601
 30
0.0
 10
96.0834319597757
 20
130.9206049980601
 30
0.0
 10
96.0834319597757
 20
130.9206049980601
 30
0.0
 10
96.0834319597757
 20
130.9206049980601
 30
0.0
 10
96.0834319597757
 20
130.9206049980601
 30
0.0
  0
SPLINE
  5
110
330
1F
100
AcDbEntity
  8
0
 62
     7
100
AcDbSpline
210
0.0
220
0.0
230
1.0
 70
    11
 71
     3
 72
    38
 73
    34
 74
     0
 42
0.0000000001
 43
0.0000000001
 40
0.0
 40
0.0
 40
0.0
 40
0.0
 40
1.0
 40
1.0
 40
1.0
 40
2.0
 40
2.0
 40
2.0
 40
3.0
 40
3.0
 40
3.0
 40
4.0
 40
4.0
 40
4.0
 40
5.0
 40
5.0
 40
5.0
 40
6.0
 40
6.0
 40
6.0
 40
7.0
 40
7.0
 40
7.0
 40
8.0
 40
8.0
 40
8.0
 40
9.0
 40
9.0
 40
9.0
 40
10.0
 40
10.0
 40
10.0
 40
11.0
 40
11.0
 40
11.0
 40
11.0
 10
73.07276275991009
 20
130.9206049980601
 30
0.0
 10
73.07276275991009
 20
131.8597386468804
 30
0.0
 10
72.31156841028846
 20
132.62110525139
 30
0.0
 10
71.3720902516923
 20
132.62110525139
 30
0.0
 10
71.3720902516923
 20
132.62110525139
 30
0.0
 10
71.3720902516923
 20
132.62110525139
 30
0.0
 10
71.3720902516923
 20
132.62110525139
 30
0.0
 10
70.43295660287194
 20
132.62110525139
 30
0.0
 10
69.67141774347451
 20
131.8597386468804
 30
0.0
 10
69.67141774347451
 20
130.9206049980601
 30
0.0
 10
69.67141774347451
 20
130.9206049980601
 30
0.0
 10
69.67141774347451
 20
130.9206049980601
 30
0.0
 10
69.67141774347451
 20
130.9206049980601
 30
0.0
 10
69.67141774347451
 20
129.9811268394639
 30
0.0
 10
70.43295660287194
 20
129.2197602349544
 30
0.0
 10
71.3720902516923
 20
129.2197602349544
 30
0.0
 10
71.3720902516923
 20
129.2197602349544
 30
0.0
 10
71.3720902516923
 20
129.2197602349544
 30
0.0
 10
71.3720902516923
 20
129.2197602349544
 30
0.0
 10
72.31156841028846
 20
129.2197602349544
 30
0.0
 10
73.07276275991009
 20
129.9811268394639
 30
0.0
 10
73.07276275991009
 20
130.9206049980601
 30
0.0
 10
73.07276275991009
 20
130.9206049980601
 30
0.0
 10
73.07276275991009
 20
130.9206049980601
 30
0.0
 10
73.07276275991009
 20
130.9206049980601
 30
0.0
 10
73.07276275991009
 20
130.9206049980601
 30
0.0
 10
73.07276275991009
 20
130.9206049980601
 30
0.0
 10
73.07276275991009
 20
130.9206049980601
 30
0.0
 10
73.07276275991009
 20
130.9206049980601
 30
0.0
 10
73.07276275991009
 20
130.9206049980601
 30
0.0
 10
73.07276275991009
 20
130.9206049980601
 30
0.0
 10
73.07276275991009
 20
130.9206049980601
 30
0.0
 10
73.07276275991009
 20
130.9206049980601
 30
0.0
 10
73.07276275991009
 20
130.9206049980601
 30
0.0
  0
SPLINE
  5
111
330
1F
100
AcDbEntity
  8
0
 62
     7
100
AcDbSpline
210
0.0
220
0.0
230
1.0
 70
    11
 71
     3
 72
    38
 73
    34
 74
     0
 42
0.0000000001
 43
0.0000000001
 40
0.0
 40
0.0
 40
0.0
 40
0.0
 40
1.0
 40
1.0
 40
1.0
 40
2.0
 40
2.0
 40
2.0
 40
3.0
 40
3.0
 40
3.0
 40
4.0
 40
4.0
 40
4.0
 40
5.0
 40
5.0
 40
5.0
 40
6.0
 40
6.0
 40
6.0
 40
7.0
 40
7.0
 40
7.0
 40
8.0
 40
8.0
 40
8.0
 40
9.0
 40
9.0
 40
9.0
 40
10.0
 40
10.0
 40
10.0
 40
11.0
 40
11.0
 40
11.0
 40
11.0
 10
73.07276275991009
 20
153.9304129234862
 30
0.0
 10
73.07276275991009
 20
154.8698910820823
 30
0.0
 10
72.31156841028846
 20
155.6312576865919
 30
0.0
 10
71.3720902516923
 20
155.6312576865919
 30
0.0
 10
71.3720902516923
 20
155.6312576865919
 30
0.0
 10
71.3720902516923
 20
155.6312576865919
 30
0.0
 10
71.3720902516923
 20
155.6312576865919
 30
0.0
 10
70.43295660287194
 20
155.6312576865919
 30
0.0
 10
69.67141774347451
 20
154.8698910820823
 30
0.0
 10
69.67141774347451
 20
153.9304129234862
 30
0.0
 10
69.67141774347451
 20
153.9304129234862
 30
0.0
 10
69.67141774347451
 20
153.9304129234862
 30
0.0
 10
69.67141774347451
 20
153.9304129234862
 30
0.0
 10
69.67141774347451
 20
152.9912792746659
 30
0.0
 10
70.43295660287194
 20
152.2299126701563
 30
0.0
 10
71.3720902516923
 20
152.2299126701563
 30
0.0
 10
71.3720902516923
 20
152.2299126701563
 30
0.0
 10
71.3720902516923
 20
152.2299126701563
 30
0.0
 10
71.3720902516923
 20
152.2299126701563
 30
0.0
 10
72.31156841028846
 20
152.2299126701563
 30
0.0
 10
73.07276275991009
 20
152.9912792746659
 30
0.0
 10
73.07276275991009
 20
153.9304129234862
 30
0.0
 10
73.07276275991009
 20
153.9304129234862
 30
0.0
 10
73.07276275991009
 20
153.9304129234862
 30
0.0
 10
73.07276275991009
 20
153.9304129234862
 30
0.0
 10
73.07276275991009
 20
153.9304129234862
 30
0.0
 10
73.07276275991009
 20
153.9304129234862
 30
0.0
 10
73.07276275991009
 20
153.9304129234862
 30
0.0
 10
73.07276275991009
 20
153.9304129234862
 30
0.0
 10
73.07276275991009
 20
153.9304129234862
 30
0.0
 10
73.07276275991009
 20
153.9304129234862
 30
0.0
 10
73.07276275991009
 20
153.9304129234862
 30
0.0
 10
73.07276275991009
 20
153.9304129234862
 30
0.0
 10
73.07276275991009
 20
153.9304129234862
 30
0.0
  0
POLYLINE
  5
112
330
1F
100
AcDbEntity
  8
0
 62
     7
100
AcDb2dPolyline
 66
     1
 10
0.0
 20
0.0
 30
0.0
  0
VERTEX
  5
113
330
112
100
AcDbEntity
  8
0
 62
     7
100
AcDbVertex
100
AcDb2dVertex
 10
81.82658390800285
 20
154.4308133728301
 30
0.0
  0
VERTEX
  5
114
330
112
100
AcDbEntity
  8
0
 62
     7
100
AcDbVertex
100
AcDb2dVertex
 10
83.92774903058367
 20
154.4308133728301
 30
0.0
  0
SEQEND
  5
115
330
112
100
AcDbEntity
  8
0
  0
SPLINE
  5
116
330
1F
100
AcDbEntity
  8
0
 62
     7
100
AcDbSpline
210
0.0
220
0.0
230
1.0
 70
     8
 71
     3
 72
     8
 73
     4
 74
     0
 42
0.0000000001
 43
0.0000000001
 40
0.0
 40
0.0
 40
0.0
 40
0.0
 40
1.0
 40
1.0
 40
1.0
 40
1.0
 10
84.12756470054545
 20
154.2306531930926
 30
0.0
 10
84.12756470054545
 20
154.341413086011
 30
0.0
 10
84.03868117839004
 20
154.4308133728301
 30
0.0
 10
83.92774903058367
 20
154.4308133728301
 30
0.0
  0
SPLINE
  5
117
330
1F
100
AcDbEntity
  8
0
 62
     7
100
AcDbSpline
210
0.0
220
0.0
230
1.0
 70
     8
 71
     3
 72
     8
 73
     4
 74
     0
 42
0.0000000001
 43
0.0000000001
 40
0.0
 40
0.0
 40
0.0
 40
0.0
 40
1.0
 40
1.0
 40
1.0
 40
1.0
 10
81.82658390800285
 20
154.4308133728301
 30
0.0
 10
81.71634077974807
 20
154.4308133728301
 30
0.0
 10
81.62659598315317
 20
154.341413086011
 30
0.0
 10
81.62659598315317
 20
154.2306531930926
 30
0.0
  0
POLYLINE
  5
118
330
1F
100
AcDbEntity
  8
0
 62
     7
100
AcDb2dPolyline
 66
     1
 10
0.0
 20
0.0
 30
0.0
  0
VERTEX
  5
119
330
118
100
AcDbEntity
  8
0
 62
     7
100
AcDbVertex
100
AcDb2dVertex
 10
84.12756470054545
 20
154.2306531930926
 30
0.0
  0
VERTEX
  5
11A
330
118
100
AcDbEntity
  8
0
 62
     7
100
AcDbVertex
100
AcDb2dVertex
 10
84.12756470054545
 20
153.7605696040187
 30
0.0
  0
SEQEND
  5
11B
330
118
100
AcDbEntity
  8
0
  0
POLYLINE
  5
11C
330
1F
100
AcDbEntity
  8
0
 62
     7
100
AcDb2dPolyline
 66
     1
 10
0.0
 20
0.0
 30
0.0
  0
VERTEX
  5
11D
330
11C
100
AcDbEntity
  8
0
 62
     7
100
AcDbVertex
100
AcDb2dVertex
 10
81.62659598315317
 20
154.2306531930926
 30
0.0
  0
VERTEX
  5
11E
330
11C
100
AcDbEntity
  8
0
 62
     7
100
AcDbVertex
100
AcDb2dVertex
 10
81.62659598315317
 20
153.7605696040187
 30
0.0
  0
SEQEND
  5
11F
330
11C
100
AcDbEntity
  8
0
  0
POLYLINE
  5
120
330
1F
100
AcDbEntity
  8
0
 62
     7
100
AcDb2dPolyline
 66
     1
 10
0.0
 20
0.0
 30
0.0
  0
VERTEX
  5
121
330
120
100
AcDbEntity
  8
0
 62
     7
100
AcDbVertex
100
AcDb2dVertex
 10
81.27657405094426
 20
151.5946366435882
 30
0.0
  0
VERTEX
  5
122
330
120
100
AcDbEntity
  8
0
 62
     7
100
AcDbVertex
100
AcDb2dVertex
 10
81.27657405094426
 20
150.6289757420315
 30
0.0
  0
SEQEND
  5
123
330
120
100
AcDbEntity
  8
0
  0
POLYLINE
  5
124
330
1F
100
AcDbEntity
  8
0
 62
     7
100
AcDb2dPolyline
 66
     1
 10
0.0
 20
0.0
 30
0.0
  0
VERTEX
  5
125
330
124
100
AcDbEntity
  8
0
 62
     7
100
AcDbVertex
100
AcDb2dVertex
 10
84.47775888764225
 20
151.5946366435882
 30
0.0
  0
VERTEX
  5
126
330
124
100
AcDbEntity
  8
0
 62
     7
100
AcDbVertex
100
AcDb2dVertex
 10
84.47775888764225
 20
150.6289757420315
 30
0.0
  0
SEQEND
  5
127
330
124
100
AcDbEntity
  8
0
  0
POLYLINE
  5
128
330
1F
100
AcDbEntity
  8
0
 62
     7
100
AcDb2dPolyline
 66
     1
 10
0.0
 20
0.0
 30
0.0
  0
VERTEX
  5
129
330
128
100
AcDbEntity
  8
0
 62
     7
100
AcDbVertex
100
AcDb2dVertex
 10
78.68052063543223
 20
131.8204645324397
 30
0.0
  0
VERTEX
  5
12A
330
128
100
AcDbEntity
  8
0
 62
     7
100
AcDbVertex
100
AcDb2dVertex
 10
87.07932445956703
 20
131.8204645324397
 30
0.0
  0
SEQEND
  5
12B
330
128
100
AcDbEntity
  8
0
  0
POLYLINE
  5
12C
330
1F
100
AcDbEntity
  8
0
 62
     7
100
AcDb2dPolyline
 66
     1
 10
0.0
 20
0.0
 30
0.0
  0
VERTEX
  5
12D
330
12C
100
AcDbEntity
  8
0
 62
     7
100
AcDbVertex
100
AcDb2dVertex
 10
94.15745005818721
 20
144.0908692169718
 30
0.0
  0
VERTEX
  5
12E
330
12C
100
AcDbEntity
  8
0
 62
     7
100
AcDbVertex
100
AcDb2dVertex
 10
89.96080422432618
 20
151.3643318584684
 30
0.0
  0
SEQEND
  5
12F
330
12C
100
AcDbEntity
  8
0
  0
POLYLINE
  5
130
330
1F
100
AcDbEntity
  8
0
 62
     7
100
AcDb2dPolyline
 66
     1
 10
0.0
 20
0.0
 30
0.0
  0
VERTEX
  5
131
330
130
100
AcDbEntity
  8
0
 62
     7
100
AcDbVertex
100
AcDb2dVertex
 10
75.79404547892402
 20
151.3643318584684
 30
0.0
  0
VERTEX
  5
132
330
130
100
AcDbEntity
  8
0
 62
     7
100
AcDbVertex
100
AcDb2dVertex
 10
71.59705513528719
 20
144.1008600004699
 30
0.0
  0
SEQEND
  5
133
330
130
100
AcDbEntity
  8
0
  0
POLYLINE
  5
134
330
1F
100
AcDbEntity
  8
0
  6
AI-LINETYPE-4
 62
     7
100
AcDb2dPolyline
 66
     1
 10
0.0
 20
0.0
 30
0.0
  0
VERTEX
  5
135
330
134
100
AcDbEntity
  8
0
  6
AI-LINETYPE-4
 62
     7
100
AcDbVertex
100
AcDb2dVertex
 10
97.08371609379987
 20
153.9304129234862
 30
0.0
  0
VERTEX
  5
136
330
134
100
AcDbEntity
  8
0
  6
AI-LINETYPE-4
 62
     7
100
AcDbVertex
100
AcDb2dVertex
 10
91.68145829954015
 20
153.9304129234862
 30
0.0
  0
SEQEND
  5
137
330
134
100
AcDbEntity
  8
0
  6
AI-LINETYPE-4
  0
POLYLINE
  5
139
330
1F
100
AcDbEntity
  8
0
  6
AI-LINETYPE-5
 62
     7
100
AcDb2dPolyline
 66
     1
 10
0.0
 20
0.0
 30
0.0
  0
VERTEX
  5
13A
330
139
100
AcDbEntity
  8
0
  6
AI-LINETYPE-5
 62
     7
100
AcDbVertex
100
AcDb2dVertex
 10
94.3829317064458
 20
156.6318863303919
 30
0.0
  0
VERTEX
  5
13B
330
139
100
AcDbEntity
  8
0
  6
AI-LINETYPE-5
 62
     7
100
AcDbVertex
100
AcDb2dVertex
 10
94.3829317064458
 20
151.2294562812442
 30
0.0
  0
SEQEND
  5
13C
330
139
100
AcDbEntity
  8
0
  6
AI-LINETYPE-5
  0
POLYLINE
  5
13E
330
1F
100
AcDbEntity
  8
0
  6
AI-LINETYPE-6
 62
     7
100
AcDb2dPolyline
 66
     1
 10
0.0
 20
0.0
 30
0.0
  0
VERTEX
  5
13F
330
13E
100
AcDbEntity
  8
0
  6
AI-LINETYPE-6
 62
     7
100
AcDbVertex
100
AcDb2dVertex
 10
68.67096135456244
 20
153.9304129234862
 30
0.0
  0
VERTEX
  5
140
330
13E
100
AcDbEntity
  8
0
  6
AI-LINETYPE-6
 62
     7
100
AcDbVertex
100
AcDb2dVertex
 10
74.07339140371006
 20
153.9304129234862
 30
0.0
  0
SEQEND
  5
141
330
13E
100
AcDbEntity
  8
0
  6
AI-LINETYPE-6
  0
POLYLINE
  5
143
330
1F
100
AcDbEntity
  8
0
  6
AI-LINETYPE-7
 62
     7
100
AcDb2dPolyline
 66
     1
 10
0.0
 20
0.0
 30
0.0
  0
VERTEX
  5
144
330
143
100
AcDbEntity
  8
0
  6
AI-LINETYPE-7
 62
     7
100
AcDbVertex
100
AcDb2dVertex
 10
71.3719179968044
 20
156.6318863303919
 30
0.0
  0
VERTEX
  5
145
330
143
100
AcDbEntity
  8
0
  6
AI-LINETYPE-7
 62
     7
100
AcDbVertex
100
AcDb2dVertex
 10
71.3719179968044
 20
151.2294562812442
 30
0.0
  0
SEQEND
  5
146
330
143
100
AcDbEntity
  8
0
  6
AI-LINETYPE-7
  0
POLYLINE
  5
148
330
1F
100
AcDbEntity
  8
0
  6
AI-LINETYPE-8
 62
     7
100
AcDb2dPolyline
 66
     1
 10
0.0
 20
0.0
 30
0.0
  0
VERTEX
  5
149
330
148
100
AcDbEntity
  8
0
  6
AI-LINETYPE-8
 62
     7
100
AcDbVertex
100
AcDb2dVertex
 10
97.08371609379987
 20
130.9206049980601
 30
0.0
  0
VERTEX
  5
14A
330
148
100
AcDbEntity
  8
0
  6
AI-LINETYPE-8
 62
     7
100
AcDbVertex
100
AcDb2dVertex
 10
91.68145829954015
 20
130.9206049980601
 30
0.0
  0
SEQEND
  5
14B
330
148
100
AcDbEntity
  8
0
  6
AI-LINETYPE-8
  0
POLYLINE
  5
14D
330
1F
100
AcDbEntity
  8
0
  6
AI-LINETYPE-9
 62
     7
100
AcDb2dPolyline
 66
     1
 10
0.0
 20
0.0
 30
0.0
  0
VERTEX
  5
14E
330
14D
100
AcDbEntity
  8
0
  6
AI-LINETYPE-9
 62
     7
100
AcDbVertex
100
AcDb2dVertex
 10
94.3829317064458
 20
128.2193038460423
 30
0.0
  0
VERTEX
  5
14F
330
14D
100
AcDbEntity
  8
0
  6
AI-LINETYPE-9
 62
     7
100
AcDbVertex
100
AcDb2dVertex
 10
94.3829317064458
 20
133.6219061500778
 30
0.0
  0
SEQEND
  5
150
330
14D
100
AcDbEntity
  8
0
  6
AI-LINETYPE-9
  0
POLYLINE
  5
152
330
1F
100
AcDbEntity
  8
0
  6
AI-LINETYPE-10
 62
     7
100
AcDb2dPolyline
 66
     1
 10
0.0
 20
0.0
 30
0.0
  0
VERTEX
  5
153
330
152
100
AcDbEntity
  8
0
  6
AI-LINETYPE-10
 62
     7
100
AcDbVertex
100
AcDb2dVertex
 10
68.67096135456244
 20
130.9206049980601
 30
0.0
  0
VERTEX
  5
154
330
152
100
AcDbEntity
  8
0
  6
AI-LINETYPE-10
 62
     7
100
AcDbVertex
100
AcDb2dVertex
 10
74.07339140371006
 20
130.9206049980601
 30
0.0
  0
SEQEND
  5
155
330
152
100
AcDbEntity
  8
0
  6
AI-LINETYPE-10
  0
POLYLINE
  5
157
330
1F
100
AcDbEntity
  8
0
  6
AI-LINETYPE-11
 62
     7
100
AcDb2dPolyline
 66
     1
 10
0.0
 20
0.0
 30
0.0
  0
VERTEX
  5
158
330
157
100
AcDbEntity
  8
0
  6
AI-LINETYPE-11
 62
     7
100
AcDbVertex
100
AcDb2dVertex
 10
71.3719179968044
 20
128.2193038460423
 30
0.0
  0
VERTEX
  5
159
330
157
100
AcDbEntity
  8
0
  6
AI-LINETYPE-11
 62
     7
100
AcDbVertex
100
AcDb2dVertex
 10
71.3719179968044
 20
133.6219061500778
 30
0.0
  0
SEQEND
  5
15A
330
157
100
AcDbEntity
  8
0
  6
AI-LINETYPE-11
  0
MTEXT
  5
15C
330
1F
100
AcDbEntity
  8
0
 62
     7
100
AcDbMText
 10
62.77415977714731
 20
166.1181352618273
 30
0.0
 40
3.149656738308191
 41
0.0
 71
     7
 72
     1
  1
\fMS Gothic|b0|i0|c0|p34;\W1;FA-20*-RM
  0
ENDSEC
  0
SECTION
  2
OBJECTS
  0
DICTIONARY
  5
C
330
0
100
AcDbDictionary
  3
ACAD_GROUP
350
D
  3
ACAD_LAYOUT
350
1A
  3
ACAD_MLINESTYLE
350
17
  3
ACAD_PLOTSETTINGS
350
19
  3
ACAD_TABLESTYLE
350
15D
  3
ACAD_VISUALSTYLE
350
2A
  3
ACDBHEADERROUNDTRIPXREC
350
15E
  0
DICTIONARY
  5
17E
330
29
100
AcDbDictionary
280
     1
  3
ACAD_XREC_ROUNDTRIP
360
17F
  0
DICTIONARY
  5
D
102
{ACAD_REACTORS
330
C
102
}
330
C
100
AcDbDictionary
  0
DICTIONARY
  5
1A
102
{ACAD_REACTORS
330
C
102
}
330
C
100
AcDbDictionary
  0
DICTIONARY
  5
17
102
{ACAD_REACTORS
330
C
102
}
330
C
100
AcDbDictionary
  3
STANDARD
350
18
  0
DICTIONARY
  5
19
102
{ACAD_REACTORS
330
C
102
}
330
C
100
AcDbDictionary
  0
DICTIONARY
  5
15D
102
{ACAD_REACTORS
330
C
102
}
330
C
100
AcDbDictionary
  0
DICTIONARY
  5
2A
102
{ACAD_REACTORS
330
C
102
}
330
C
100
AcDbDictionary
  3
2DWIREFRAME
350
2F
  3
3D_HIDDEN
350
31
  3
3DWIREFRAME
350
30
  3
BASIC
350
32
  3
BRIGHTEN
350
36
  3
COLORCHANGE
350
3A
  3
CONCEPTUAL
350
34
  3
DIM
350
35
  3
FACEPATTERN
350
39
  3
FLAT
350
2B
  3
FLATWITHEDGES
350
2C
  3
GOURAUD
350
2D
  3
GOURAUDWITHEDGES
350
2E
  3
LINEPATTERN
350
38
  3
REALISTIC
350
33
  3
THICKEN
350
37
  0
DICTIONARY
  5
15E
102
{ACAD_REACTORS
330
C
102
}
330
C
100
AcDbDictionary
  3
CEPSNTYPE
350
167
  3
DIMSTYLEDATA
350
17D
  3
FINGERPRINTGUID
350
168
  3
HYPERLINKBASE
350
161
  3
INSUNITS
350
166
  3
LAYOUTDICT
350
163
  3
LWETCUNION
350
165
  3
PLOTSETDICT
350
164
  3
PSVPSCALE
350
16A
  3
PUCSBASE
350
16D
  3
PUCSORGBACK
350
173
  3
PUCSORGBOTTOM
350
16F
  3
PUCSORGFRONT
350
172
  3
PUCSORGLEFT
350
170
  3
PUCSORGRIGHT
350
171
  3
PUCSORGTOP
350
16E
  3
PUCSORTHOREF
350
16B
  3
PUCSORTHOVIEW
350
16C
  3
STYLESHEET
350
162
  3
TSTACKALIGN
350
15F
  3
TSTACKSIZE
350
160
  3
UCSBASE
350
176
  3
UCSORGBACK
350
17C
  3
UCSORGBOTTOM
350
178
  3
UCSORGFRONT
350
17B
  3
UCSORGLEFT
350
179
  3
UCSORGRIGHT
350
17A
  3
UCSORGTOP
350
177
  3
UCSORTHOREF
350
174
  3
UCSORTHOVIEW
350
175
  3
VERSIONGUID
350
169
  0
XRECORD
  5
17F
102
{ACAD_REACTORS
330
17E
102
}
330
17E
100
AcDbXrecord
102
UCS
 74
     0
 71
     1
 10
0.0
 20
0.0
 30
0.0
 10
1.0
 20
0.0
 30
0.0
 10
0.0
 20
1.0
 30
0.0
146
0.0
 79
     0
102
VIEW
281
     0
  0
MLINESTYLE
  5
18
102
{ACAD_REACTORS
330
17
102
}
330
17
100
AcDbMlineStyle
  2
Standard
 70
     0
  3

 62
   256
 51
90.0
 52
90.0
 71
     2
 49
0.5
 62
   256
  6
BYLAYER
 49
-0.5
 62
   256
  6
BYLAYER
  0
ACAD_PROXY_OBJECT_WRAPPER
  5
2F
102
{ACAD_REACTORS
330
2A
102
}
330
2A
100
AcDbVisualStyle
  2
2dWireframe
 70
     4
 71
     0
 72
     2
 73
     0
 90
        0
 40
-0.6
 41
-30.0
 62
     5
 63
     7
421
 16777215
 74
     1
 91
        4
 64
     7
 65
   257
 75
     1
175
     1
 42
1.0
 92
        0
 66
   257
 43
1.0
 76
     1
 77
     6
 78
     2
 67
     7
 79
     5
170
     0
171
     0
290
     0
174
     0
 93
        1
 44
0.0
173
     0
291
     0
 45
0.0
1001
ACAD
1000
AcDbSavedByObjectVersion
1070
     0
1000
AcadProxyRoundTripData
1071
      501
1071
       25
1070
     1
  0
ACAD_PROXY_OBJECT_WRAPPER
  5
31
102
{ACAD_REACTORS
330
2A
102
}
330
2A
100
AcDbVisualStyle
  2
3D Hidden
 70
     6
 71
     1
 72
     2
 73
     2
 90
        0
 40
-0.6
 41
-30.0
 62
     5
 63
     7
421
 16777215
 74
     2
 91
        2
 64
     7
 65
   257
 75
     2
175
     1
 42
40.0
 92
        0
 66
   257
 43
1.0
 76
     1
 77
     6
 78
     2
 67
     7
 79
     3
170
     0
171
     0
290
     0
174
     0
 93
        1
 44
0.0
173
     0
291
     0
 45
0.0
1001
ACAD
1000
AcDbSavedByObjectVersion
1070
     0
1000
AcadProxyRoundTripData
1071
      501
1071
       25
1070
     1
  0
ACAD_PROXY_OBJECT_WRAPPER
  5
30
102
{ACAD_REACTORS
330
2A
102
}
330
2A
100
AcDbVisualStyle
  2
3dWireframe
 70
     5
 71
     0
 72
     2
 73
     0
 90
        0
 40
-0.6
 41
-30.0
 62
     5
 63
     7
421
 16777215
 74
     1
 91
        4
 64
     7
 65
   257
 75
     1
175
     1
 42
1.0
 92
        0
 66
   257
 43
1.0
 76
     1
 77
     6
 78
     2
 67
     7
 79
     5
170
     0
171
     0
290
     0
174
     0
 93
        1
 44
0.0
173
     0
291
     0
 45
0.0
1001
ACAD
1000
AcDbSavedByObjectVersion
1070
     0
1000
AcadProxyRoundTripData
1071
      501
1071
       25
1070
     1
  0
ACAD_PROXY_OBJECT_WRAPPER
  5
32
102
{ACAD_REACTORS
330
2A
102
}
330
2A
100
AcDbVisualStyle
  2
Basic
 70
     7
 71
     1
 72
     0
 73
     1
 90
        0
 40
-0.6
 41
-30.0
 62
     5
 63
     7
421
 16777215
 74
     0
 91
        4
 64
     7
 65
   257
 75
     1
175
     1
 42
1.0
 92
        8
 66
     7
 43
1.0
 76
     1
 77
     6
 78
     2
 67
     7
 79
     5
170
     0
171
     0
290
     0
174
     0
 93
        1
 44
0.0
173
     0
291
     1
 45
0.0
1001
ACAD
1000
AcDbSavedByObjectVersion
1070
     0
1000
AcadProxyRoundTripData
1071
      501
1071
       25
1070
     1
  0
ACAD_PROXY_OBJECT_WRAPPER
  5
36
102
{ACAD_REACTORS
330
2A
102
}
330
2A
100
AcDbVisualStyle
  2
Brighten
 70
    12
 71
     2
 72
     2
 73
     0
 90
        0
 40
-0.6
 41
-30.0
 62
     5
 63
     7
421
 16777215
 74
     1
 91
        4
 64
     7
 65
   257
 75
     1
175
     1
 42
1.0
 92
        8
 66
     7
 43
1.0
 76
     1
 77
     6
 78
     2
 67
     7
 79
     5
170
     0
171
     0
290
     0
174
     0
 93
        1
 44
50.0
173
     0
291
     1
 45
0.0
1001
ACAD
1000
AcDbSavedByObjectVersion
1070
     0
1000
AcadProxyRoundTripData
1071
      501
1071
       25
1070
     1
  0
ACAD_PROXY_OBJECT_WRAPPER
  5
3A
102
{ACAD_REACTORS
330
2A
102
}
330
2A
100
AcDbVisualStyle
  2
ColorChange
 70
    16
 71
     2
 72
     2
 73
     3
 90
        0
 40
-0.6
 41
-30.0
 62
     5
 63
     8
421
  8421504
 74
     1
 91
        4
 64
     7
 65
   257
 75
     1
175
     1
 42
1.0
 92
        8
 66
     8
424
  8421504
 43
1.0
 76
     1
 77
     6
 78
     2
 67
     7
 79
     5
170
     0
171
     0
290
     0
174
     0
 93
        1
 44
0.0
173
     0
291
     1
 45
0.0
1001
ACAD
1000
AcDbSavedByObjectVersion
1070
     0
1000
AcadProxyRoundTripData
1071
      501
1071
       25
1070
     1
  0
ACAD_PROXY_OBJECT_WRAPPER
  5
34
102
{ACAD_REACTORS
330
2A
102
}
330
2A
100
AcDbVisualStyle
  2
Conceptual
 70
     9
 71
     3
 72
     2
 73
     0
 90
        0
 40
-0.6
 41
-30.0
 62
     5
 63
     7
421
 16777215
 74
     2
 91
        2
 64
     7
 65
   257
 75
     1
175
     1
 42
40.0
 92
        8
 66
     7
 43
1.0
 76
     1
 77
     6
 78
     2
 67
     7
 79
     3
170
     0
171
     0
290
     0
174
     0
 93
        1
 44
0.0
173
     0
291
     0
 45
0.0
1001
ACAD
1000
AcDbSavedByObjectVersion
1070
     0
1000
AcadProxyRoundTripData
1071
      501
1071
       25
1070
     1
  0
ACAD_PROXY_OBJECT_WRAPPER
  5
35
102
{ACAD_REACTORS
330
2A
102
}
330
2A
100
AcDbVisualStyle
  2
Dim
 70
    11
 71
     2
 72
     2
 73
     0
 90
        0
 40
-0.6
 41
-30.0
 62
     5
 63
     7
421
 16777215
 74
     1
 91
        4
 64
     7
 65
   257
 75
     1
175
     1
 42
1.0
 92
        8
 66
     7
 43
1.0
 76
     1
 77
     6
 78
     2
 67
     7
 79
     5
170
     0
171
     0
290
     0
174
     0
 93
        1
 44
-50.0
173
     0
291
     1
 45
0.0
1001
ACAD
1000
AcDbSavedByObjectVersion
1070
     0
1000
AcadProxyRoundTripData
1071
      501
1071
       25
1070
     1
  0
ACAD_PROXY_OBJECT_WRAPPER
  5
39
102
{ACAD_REACTORS
330
2A
102
}
330
2A
100
AcDbVisualStyle
  2
Facepattern
 70
    15
 71
     2
 72
     2
 73
     0
 90
        0
 40
-0.6
 41
-30.0
 62
     5
 63
     7
421
 16777215
 74
     1
 91
        4
 64
     7
 65
   257
 75
     1
175
     1
 42
1.0
 92
        8
 66
     7
 43
1.0
 76
     1
 77
     6
 78
     2
 67
     7
 79
     5
170
     0
171
     0
290
     0
174
     0
 93
        1
 44
0.0
173
     0
291
     1
 45
0.0
1001
ACAD
1000
AcDbSavedByObjectVersion
1070
     0
1000
AcadProxyRoundTripData
1071
      501
1071
       25
1070
     1
  0
ACAD_PROXY_OBJECT_WRAPPER
  5
2B
102
{ACAD_REACTORS
330
2A
102
}
330
2A
100
AcDbVisualStyle
  2
Flat
 70
     0
 71
     2
 72
     1
 73
     1
 90
        2
 40
-0.6
 41
30.0
 62
     5
 63
     7
421
 16777215
 74
     0
 91
        4
 64
     7
 65
   257
 75
     1
175
     1
 42
1.0
 92
        8
 66
     7
 43
1.0
 76
     1
 77
     6
 78
     2
 67
     7
 79
     5
170
     0
171
     0
290
     0
174
     0
 93
       13
 44
0.0
173
     0
291
     1
 45
0.0
1001
ACAD
1000
AcDbSavedByObjectVersion
1070
     0
1000
AcadProxyRoundTripData
1071
      501
1071
       25
1070
     1
  0
ACAD_PROXY_OBJECT_WRAPPER
  5
2C
102
{ACAD_REACTORS
330
2A
102
}
330
2A
100
AcDbVisualStyle
  2
FlatWithEdges
 70
     1
 71
     2
 72
     1
 73
     1
 90
        2
 40
-0.6
 41
30.0
 62
     5
 63
     7
421
 16777215
 74
     1
 91
        4
 64
     7
 65
   257
 75
     1
175
     1
 42
1.0
 92
        0
 66
   257
 43
1.0
 76
     1
 77
     6
 78
     2
 67
     7
 79
     5
170
     0
171
     0
290
     0
174
     0
 93
       13
 44
0.0
173
     0
291
     1
 45
0.0
1001
ACAD
1000
AcDbSavedByObjectVersion
1070
     0
1000
AcadProxyRoundTripData
1071
      501
1071
       25
1070
     1
  0
ACAD_PROXY_OBJECT_WRAPPER
  5
2D
102
{ACAD_REACTORS
330
2A
102
}
330
2A
100
AcDbVisualStyle
  2
Gouraud
 70
     2
 71
     2
 72
     2
 73
     1
 90
        2
 40
-0.6
 41
30.0
 62
     5
 63
     7
421
 16777215
 74
     0
 91
        4
 64
     7
 65
   257
 75
     1
175
     1
 42
1.0
 92
        0
 66
     7
 43
1.0
 76
     1
 77
     6
 78
     2
 67
     7
 79
     5
170
     0
171
     0
290
     0
174
     0
 93
       13
 44
0.0
173
     0
291
     1
 45
0.0
1001
ACAD
1000
AcDbSavedByObjectVersion
1070
     0
1000
AcadProxyRoundTripData
1071
      501
1071
       25
1070
     1
  0
ACAD_PROXY_OBJECT_WRAPPER
  5
2E
102
{ACAD_REACTORS
330
2A
102
}
330
2A
100
AcDbVisualStyle
  2
GouraudWithEdges
 70
     3
 71
     2
 72
     2
 73
     1
 90
        2
 40
-0.6
 41
30.0
 62
     5
 63
     7
421
 16777215
 74
     1
 91
        4
 64
     7
 65
   257
 75
     1
175
     1
 42
1.0
 92
        0
 66
   257
 43
1.0
 76
     1
 77
     6
 78
     2
 67
     7
 79
     5
170
     0
171
     0
290
     0
174
     0
 93
       13
 44
0.0
173
     0
291
     1
 45
0.0
1001
ACAD
1000
AcDbSavedByObjectVersion
1070
     0
1000
AcadProxyRoundTripData
1071
      501
1071
       25
1070
     1
  0
ACAD_PROXY_OBJECT_WRAPPER
  5
38
102
{ACAD_REACTORS
330
2A
102
}
330
2A
100
AcDbVisualStyle
  2
Linepattern
 70
    14
 71
     2
 72
     2
 73
     0
 90
        0
 40
-0.6
 41
-30.0
 62
     5
 63
     7
421
 16777215
 74
     1
 91
        4
 64
     7
 65
   257
 75
     7
175
     7
 42
1.0
 92
        8
 66
     7
 43
1.0
 76
     1
 77
     6
 78
     2
 67
     7
 79
     5
170
     0
171
     0
290
     0
174
     0
 93
        1
 44
0.0
173
     0
291
     1
 45
0.0
1001
ACAD
1000
AcDbSavedByObjectVersion
1070
     0
1000
AcadProxyRoundTripData
1071
      501
1071
       25
1070
     1
  0
ACAD_PROXY_OBJECT_WRAPPER
  5
33
102
{ACAD_REACTORS
330
2A
102
}
330
2A
100
AcDbVisualStyle
  2
Realistic
 70
     8
 71
     2
 72
     2
 73
     0
 90
        0
 40
-0.6
 41
-30.0
 62
     5
 63
     7
421
 16777215
 74
     1
 91
        0
 64
     7
 65
   257
 75
     1
175
     1
 42
1.0
 92
        8
 66
     8
424
  7895160
 43
1.0
 76
     1
 77
     6
 78
     2
 67
     7
 79
     5
170
     0
171
     0
290
     0
174
     0
 93
       13
 44
0.0
173
     0
291
     0
 45
0.0
1001
ACAD
1000
AcDbSavedByObjectVersion
1070
     0
1000
AcadProxyRoundTripData
1071
      501
1071
       25
1070
     1
  0
ACAD_PROXY_OBJECT_WRAPPER
  5
37
102
{ACAD_REACTORS
330
2A
102
}
330
2A
100
AcDbVisualStyle
  2
Thicken
 70
    13
 71
     2
 72
     2
 73
     0
 90
        0
 40
-0.6
 41
-30.0
 62
     5
 63
     7
421
 16777215
 74
     1
 91
        4
 64
     7
 65
   257
 75
     1
175
     1
 42
1.0
 92
       12
 66
     7
 43
1.0
 76
     1
 77
     6
 78
     2
 67
     7
 79
     5
170
     0
171
     0
290
     0
174
     0
 93
        1
 44
0.0
173
     0
291
     1
 45
0.0
1001
ACAD
1000
AcDbSavedByObjectVersion
1070
     0
1000
AcadProxyRoundTripData
1071
      501
1071
       25
1070
     1
  0
XRECORD
  5
167
102
{ACAD_REACTORS
330
15E
102
}
330
15E
100
AcDbXrecord
 90
        0
  0
XRECORD
  5
17D
102
{ACAD_REACTORS
330
15E
102
}
330
15E
100
AcDbXrecord
1000
DSTYLE
1002
{
1070
   340
340
11
1002
}
  0
XRECORD
  5
168
102
{ACAD_REACTORS
330
15E
102
}
330
15E
100
AcDbXrecord
  1
{C9FDBFB9-429C-46DF-BB3D-797FCD0D49ED}
  0
XRECORD
  5
161
102
{ACAD_REACTORS
330
15E
102
}
330
15E
100
AcDbXrecord
  1

  0
XRECORD
  5
166
102
{ACAD_REACTORS
330
15E
102
}
330
15E
100
AcDbXrecord
 90
        1
  0
XRECORD
  5
163
102
{ACAD_REACTORS
330
15E
102
}
330
15E
100
AcDbXrecord
340
1A
  0
XRECORD
  5
165
102
{ACAD_REACTORS
330
15E
102
}
330
15E
100
AcDbXrecord
 90
    10269
  0
XRECORD
  5
164
102
{ACAD_REACTORS
330
15E
102
}
330
15E
100
AcDbXrecord
340
19
  0
XRECORD
  5
16A
102
{ACAD_REACTORS
330
15E
102
}
330
15E
100
AcDbXrecord
 40
0.0
  0
XRECORD
  5
16D
102
{ACAD_REACTORS
330
15E
102
}
330
15E
100
AcDbXrecord
340
0
  0
XRECORD
  5
173
102
{ACAD_REACTORS
330
15E
102
}
330
15E
100
AcDbXrecord
 10
0.0
 20
0.0
 30
0.0
  0
XRECORD
  5
16F
102
{ACAD_REACTORS
330
15E
102
}
330
15E
100
AcDbXrecord
 10
0.0
 20
0.0
 30
0.0
  0
XRECORD
  5
172
102
{ACAD_REACTORS
330
15E
102
}
330
15E
100
AcDbXrecord
 10
0.0
 20
0.0
 30
0.0
  0
XRECORD
  5
170
102
{ACAD_REACTORS
330
15E
102
}
330
15E
100
AcDbXrecord
 10
0.0
 20
0.0
 30
0.0
  0
XRECORD
  5
171
102
{ACAD_REACTORS
330
15E
102
}
330
15E
100
AcDbXrecord
 10
0.0
 20
0.0
 30
0.0
  0
XRECORD
  5
16E
102
{ACAD_REACTORS
330
15E
102
}
330
15E
100
AcDbXrecord
 10
0.0
 20
0.0
 30
0.0
  0
XRECORD
  5
16B
102
{ACAD_REACTORS
330
15E
102
}
330
15E
100
AcDbXrecord
340
0
  0
XRECORD
  5
16C
102
{ACAD_REACTORS
330
15E
102
}
330
15E
100
AcDbXrecord
 70
     0
  0
XRECORD
  5
162
102
{ACAD_REACTORS
330
15E
102
}
330
15E
100
AcDbXrecord
  1

  0
XRECORD
  5
15F
102
{ACAD_REACTORS
330
15E
102
}
330
15E
100
AcDbXrecord
 90
        1
  0
XRECORD
  5
160
102
{ACAD_REACTORS
330
15E
102
}
330
15E
100
AcDbXrecord
 90
       70
  0
XRECORD
  5
176
102
{ACAD_REACTORS
330
15E
102
}
330
15E
100
AcDbXrecord
340
0
  0
XRECORD
  5
17C
102
{ACAD_REACTORS
330
15E
102
}
330
15E
100
AcDbXrecord
 10
0.0
 20
0.0
 30
0.0
  0
XRECORD
  5
178
102
{ACAD_REACTORS
330
15E
102
}
330
15E
100
AcDbXrecord
 10
0.0
 20
0.0
 30
0.0
  0
XRECORD
  5
17B
102
{ACAD_REACTORS
330
15E
102
}
330
15E
100
AcDbXrecord
 10
0.0
 20
0.0
 30
0.0
  0
XRECORD
  5
179
102
{ACAD_REACTORS
330
15E
102
}
330
15E
100
AcDbXrecord
 10
0.0
 20
0.0
 30
0.0
  0
XRECORD
  5
17A
102
{ACAD_REACTORS
330
15E
102
}
330
15E
100
AcDbXrecord
 10
0.0
 20
0.0
 30
0.0
  0
XRECORD
  5
177
102
{ACAD_REACTORS
330
15E
102
}
330
15E
100
AcDbXrecord
 10
0.0
 20
0.0
 30
0.0
  0
XRECORD
  5
174
102
{ACAD_REACTORS
330
15E
102
}
330
15E
100
AcDbXrecord
340
0
  0
XRECORD
  5
175
102
{ACAD_REACTORS
330
15E
102
}
330
15E
100
AcDbXrecord
 70
     0
  0
XRECORD
  5
169
102
{ACAD_REACTORS
330
15E
102
}
330
15E
100
AcDbXrecord
  1
{FAEB1C32-E019-11D5-929B-00C0DF256EC4}
  0
ENDSEC
  0
EOF
