  0
SECTION
  2
HEADER
  9
$ACADVER
  1
AC1014
  9
$ACADMAINTVER
 70
     9
  9
$DWGCODEPAGE
  3
ASCII
  9
$INSBASE
 10
0.0
 20
0.0
 30
0.0
  9
$EXTMIN
 10
1.000000000000000E+20
 20
1.000000000000000E+20
 30
1.000000000000000E+20
  9
$EXTMAX
 10
-1.000000000000000E+20
 20
-1.000000000000000E+20
 30
-1.000000000000000E+20
  9
$LIMMIN
 10
0.0
 20
0.0
  9
$LIMMAX
 10
12.0
 20
9.0
  9
$ORTHOMODE
 70
     0
  9
$REGENMODE
 70
     1
  9
$FILLMODE
 70
     1
  9
$QTEXTMODE
 70
     0
  9
$MIRRTEXT
 70
     1
  9
$DRAGMODE
 70
     2
  9
$LTSCALE
 40
1.0
  9
$OSMODE
 70
    37
  9
$ATTMODE
 70
     1
  9
$TEXTSIZE
 40
0.2
  9
$TRACEWID
 40
0.05
  9
$TEXTSTYLE
  7
STANDARD
  9
$CLAYER
  8
0
  9
$CELTYPE
  6
BYLAYER
  9
$CECOLOR
 62
   256
  9
$CELTSCALE
 40
1.0
  9
$DELOBJ
 70
     1
  9
$DISPSILH
 70
     0
  9
$DIMSCALE
 40
1.0
  9
$DIMASZ
 40
0.18
  9
$DIMEXO
 40
0.0625
  9
$DIMDLI
 40
0.38
  9
$DIMRND
 40
0.0
  9
$DIMDLE
 40
0.0
  9
$DIMEXE
 40
0.18
  9
$DIMTP
 40
0.0
  9
$DIMTM
 40
0.0
  9
$DIMTXT
 40
0.18
  9
$DIMCEN
 40
0.09
  9
$DIMTSZ
 40
0.0
  9
$DIMTOL
 70
     0
  9
$DIMLIM
 70
     0
  9
$DIMTIH
 70
     1
  9
$DIMTOH
 70
     1
  9
$DIMSE1
 70
     0
  9
$DIMSE2
 70
     0
  9
$DIMTAD
 70
     0
  9
$DIMZIN
 70
     0
  9
$DIMBLK
  1

  9
$DIMASO
 70
     1
  9
$DIMSHO
 70
     1
  9
$DIMPOST
  1

  9
$DIMAPOST
  1

  9
$DIMALT
 70
     0
  9
$DIMALTD
 70
     2
  9
$DIMALTF
 40
25.4
  9
$DIMLFAC
 40
1.0
  9
$DIMTOFL
 70
     0
  9
$DIMTVP
 40
0.0
  9
$DIMTIX
 70
     0
  9
$DIMSOXD
 70
     0
  9
$DIMSAH
 70
     0
  9
$DIMBLK1
  1

  9
$DIMBLK2
  1

  9
$DIMSTYLE
  2
STANDARD
  9
$DIMCLRD
 70
     0
  9
$DIMCLRE
 70
     0
  9
$DIMCLRT
 70
     0
  9
$DIMTFAC
 40
1.0
  9
$DIMGAP
 40
0.09
  9
$DIMJUST
 70
     0
  9
$DIMSD1
 70
     0
  9
$DIMSD2
 70
     0
  9
$DIMTOLJ
 70
     1
  9
$DIMTZIN
 70
     0
  9
$DIMALTZ
 70
     0
  9
$DIMALTTZ
 70
     0
  9
$DIMFIT
 70
     3
  9
$DIMUPT
 70
     0
  9
$DIMUNIT
 70
     2
  9
$DIMDEC
 70
     4
  9
$DIMTDEC
 70
     4
  9
$DIMALTU
 70
     2
  9
$DIMALTTD
 70
     2
  9
$DIMTXSTY
  7
STANDARD
  9
$DIMAUNIT
 70
     0
  9
$LUNITS
 70
     2
  9
$LUPREC
 70
     4
  9
$SKETCHINC
 40
0.1
  9
$FILLETRAD
 40
0.5
  9
$AUNITS
 70
     0
  9
$AUPREC
 70
     0
  9
$MENU
  1
.
  9
$ELEVATION
 40
0.0
  9
$PELEVATION
 40
0.0
  9
$THICKNESS
 40
0.0
  9
$LIMCHECK
 70
     0
  9
$CHAMFERA
 40
0.5
  9
$CHAMFERB
 40
0.5
  9
$CHAMFERC
 40
1.0
  9
$CHAMFERD
 40
0.0
  9
$SKPOLY
 70
     0
  9
$TDCREATE
 40
2456673.730908252
  9
$TDUPDATE
 40
2456673.730908264
  9
$TDINDWG
 40
0.0000000116
  9
$TDUSRTIMER
 40
0.0000000116
  9
$USRTIMER
 70
     1
  9
$ANGBASE
 50
0.0
  9
$ANGDIR
 70
     0
  9
$PDMODE
 70
     0
  9
$PDSIZE
 40
0.0
  9
$PLINEWID
 40
0.0
  9
$COORDS
 70
     1
  9
$SPLFRAME
 70
     0
  9
$SPLINETYPE
 70
     6
  9
$SPLINESEGS
 70
     8
  9
$ATTDIA
 70
     0
  9
$ATTREQ
 70
     1
  9
$HANDLING
 70
     1
  9
$HANDSEED
  5
660
  9
$SURFTAB1
 70
     6
  9
$SURFTAB2
 70
     6
  9
$SURFTYPE
 70
     6
  9
$SURFU
 70
     6
  9
$SURFV
 70
     6
  9
$UCSNAME
  2

  9
$UCSORG
 10
0.0
 20
0.0
 30
0.0
  9
$UCSXDIR
 10
1.0
 20
0.0
 30
0.0
  9
$UCSYDIR
 10
0.0
 20
1.0
 30
0.0
  9
$PUCSNAME
  2

  9
$PUCSORG
 10
0.0
 20
0.0
 30
0.0
  9
$PUCSXDIR
 10
1.0
 20
0.0
 30
0.0
  9
$PUCSYDIR
 10
0.0
 20
1.0
 30
0.0
  9
$USERI1
 70
     0
  9
$USERI2
 70
     0
  9
$USERI3
 70
     0
  9
$USERI4
 70
     0
  9
$USERI5
 70
     0
  9
$USERR1
 40
0.0
  9
$USERR2
 40
0.0
  9
$USERR3
 40
0.0
  9
$USERR4
 40
0.0
  9
$USERR5
 40
0.0
  9
$WORLDVIEW
 70
     1
  9
$SHADEDGE
 70
     3
  9
$SHADEDIF
 70
    70
  9
$TILEMODE
 70
     1
  9
$MAXACTVP
 70
    64
  9
$PINSBASE
 10
0.0
 20
0.0
 30
0.0
  9
$PLIMCHECK
 70
     0
  9
$PEXTMIN
 10
1.000000000000000E+20
 20
1.000000000000000E+20
 30
1.000000000000000E+20
  9
$PEXTMAX
 10
-1.000000000000000E+20
 20
-1.000000000000000E+20
 30
-1.000000000000000E+20
  9
$PLIMMIN
 10
0.0
 20
0.0
  9
$PLIMMAX
 10
12.0
 20
9.0
  9
$UNITMODE
 70
     0
  9
$VISRETAIN
 70
     1
  9
$PLINEGEN
 70
     0
  9
$PSLTSCALE
 70
     1
  9
$TREEDEPTH
 70
  3020
  9
$PICKSTYLE
 70
     1
  9
$CMLSTYLE
  2
STANDARD
  9
$CMLJUST
 70
     0
  9
$CMLSCALE
 40
1.0
  9
$PROXYGRAPHICS
 70
     1
  9
$MEASUREMENT
 70
     0
  0
ENDSEC
  0
SECTION
  2
CLASSES
  0
CLASS
  1
ACDBDICTIONARYWDFLT
  2
AcDbDictionaryWithDefault
  3
ObjectDBX Classes
 90
        0
280
     0
281
     0
  0
CLASS
  1
VISUALSTYLE
  2
AcDbVisualStyle
  3
ObjectDBX Classes
 90
     4095
280
     1
281
     0
  0
CLASS
  1
ACAD_PROXY_OBJECT_WRAPPER
  2
AcDbProxyObjectWrapper
  3
AutoCAD 2000
 90
        0
280
     0
281
     0
  0
CLASS
  1
XRECORD
  2
AcDbXrecord
  3
AutoCAD 2000
 90
        0
280
     0
281
     0
  0
CLASS
  1
LWPOLYLINE
  2
AcDbPolyline
  3
AutoCAD 2000
 90
        0
280
     0
281
     1
  0
CLASS
  1
HATCH
  2
AcDbHatch
  3
AutoCAD 2000
 90
        0
280
     0
281
     1
  0
CLASS
  1
ACDBPLACEHOLDER
  2
AcDbPlaceHolder
  3
ObjectDBX Classes
 90
        0
280
     0
281
     0
  0
CLASS
  1
LAYOUT
  2
AcDbLayout
  3
ObjectDBX Classes
 90
        0
280
     0
281
     0
  0
ENDSEC
  0
SECTION
  2
TABLES
  0
TABLE
  2
VPORT
  5
8
330
0
100
AcDbSymbolTable
 70
     1
  0
VPORT
  5
29
102
{ACAD_XDICTIONARY
360
65E
102
}
330
8
100
AcDbSymbolTableRecord
100
AcDbViewportTableRecord
  2
*ACTIVE
 70
     0
 10
0.0
 20
0.0
 11
1.0
 21
1.0
 12
0.0
 22
0.0
 13
0.0
 23
0.0
 14
0.5
 24
0.5
 15
0.5
 25
0.5
 16
0.0
 26
0.0
 36
1.0
 17
105.0008091239277
 27
148.5001637099431
 37
0.0
 40
297.0003274198861
 41
0.7070753762199199
 42
50.0
 43
0.0
 44
0.0
 50
0.0
 51
0.0
 71
     0
 72
   100
 73
     1
 74
     3
 75
     0
 76
     0
 77
     0
 78
     0
  0
ENDTAB
  0
TABLE
  2
LTYPE
  5
5
330
0
100
AcDbSymbolTable
 70
     3
  0
LTYPE
  5
14
330
5
100
AcDbSymbolTableRecord
100
AcDbLinetypeTableRecord
  2
BYBLOCK
 70
     0
  3

 72
    65
 73
     0
 40
0.0
  0
LTYPE
  5
15
330
5
100
AcDbSymbolTableRecord
100
AcDbLinetypeTableRecord
  2
BYLAYER
 70
     0
  3

 72
    65
 73
     0
 40
0.0
  0
LTYPE
  5
16
330
5
100
AcDbSymbolTableRecord
100
AcDbLinetypeTableRecord
  2
CONTINUOUS
 70
     0
  3
Solid line
 72
    65
 73
     0
 40
0.0
  0
LTYPE
  5
15B
330
5
100
AcDbSymbolTableRecord
100
AcDbLinetypeTableRecord
  2
AI-LINETYPE-1
 70
     0
  3
Adobe Illustrator Linetype No. 1
 72
    65
 73
     4
 40
8.996069555571525
 49
5.997379591569241
 74
     0
 49
-0.9995633213340949
 74
     0
 49
0.9995633213340949
 74
     0
 49
-0.9995633213340949
 74
     0
  0
LTYPE
  5
56C
330
5
100
AcDbSymbolTableRecord
100
AcDbLinetypeTableRecord
  2
AI-LINETYPE-2
 70
     0
  3
Adobe Illustrator Linetype No. 2
 72
    65
 73
     4
 40
8.996069555571525
 49
5.997379591569241
 74
     0
 49
-0.9995633213340949
 74
     0
 49
0.9995633213340949
 74
     0
 49
-0.9995633213340949
 74
     0
  0
ENDTAB
  0
TABLE
  2
LAYER
  5
2
330
0
100
AcDbSymbolTable
 70
     3
  0
LAYER
  5
10
330
2
100
AcDbSymbolTableRecord
100
AcDbLayerTableRecord
  2
0
 70
     0
 62
     7
  6
CONTINUOUS
  0
LAYER
  5
3B
330
2
100
AcDbSymbolTableRecord
100
AcDbLayerTableRecord
  2
GR1-1-1
 70
     0
 62
     7
  6
CONTINUOUS
  0
LAYER
  5
3C
330
2
100
AcDbSymbolTableRecord
100
AcDbLayerTableRecord
  2
GR2-1-1
 70
     0
 62
     7
  6
CONTINUOUS
  0
ENDTAB
  0
TABLE
  2
STYLE
  5
3
330
0
100
AcDbSymbolTable
 70
     1
  0
STYLE
  5
11
330
3
100
AcDbSymbolTableRecord
100
AcDbTextStyleTableRecord
  2
STANDARD
 70
     0
 40
0.0
 41
1.0
 50
0.0
 71
     0
 42
0.2
  3
txt
  4

  0
ENDTAB
  0
TABLE
  2
VIEW
  5
6
330
0
100
AcDbSymbolTable
 70
     0
  0
ENDTAB
  0
TABLE
  2
UCS
  5
7
330
0
100
AcDbSymbolTable
 70
     0
  0
ENDTAB
  0
TABLE
  2
APPID
  5
9
330
0
100
AcDbSymbolTable
 70
     1
  0
APPID
  5
12
330
9
100
AcDbSymbolTableRecord
100
AcDbRegAppTableRecord
  2
ACAD
 70
     0
  0
ENDTAB
  0
TABLE
  2
DIMSTYLE
  5
A
330
0
100
AcDbSymbolTable
 70
     1
  0
DIMSTYLE
105
27
330
A
100
AcDbSymbolTableRecord
100
AcDbDimStyleTableRecord
  2
STANDARD
 70
     0
  3

  4

  5

  6

  7

 40
1.0
 41
0.18
 42
0.0625
 43
0.38
 44
0.18
 45
0.0
 46
0.0
 47
0.0
 48
0.0
140
0.18
141
0.09
142
0.0
143
25.4
144
1.0
145
0.0
146
1.0
147
0.09
 71
     0
 72
     0
 73
     1
 74
     1
 75
     0
 76
     0
 77
     0
 78
     0
170
     0
171
     2
172
     0
173
     0
174
     0
175
     0
176
     0
177
     0
178
     0
270
     2
271
     4
272
     4
273
     2
274
     2
340
11
275
     0
280
     0
281
     0
282
     0
283
     1
284
     0
285
     0
286
     0
287
     3
288
     0
  0
ENDTAB
  0
TABLE
  2
BLOCK_RECORD
  5
1
330
0
100
AcDbSymbolTable
 70
     1
  0
BLOCK_RECORD
  5
1F
330
1
100
AcDbSymbolTableRecord
100
AcDbBlockTableRecord
  2
*MODEL_SPACE
  0
BLOCK_RECORD
  5
1B
330
1
100
AcDbSymbolTableRecord
100
AcDbBlockTableRecord
  2
*PAPER_SPACE
  0
ENDTAB
  0
ENDSEC
  0
SECTION
  2
BLOCKS
  0
BLOCK
  5
20
330
1F
100
AcDbEntity
  8
0
100
AcDbBlockBegin
  2
*MODEL_SPACE
 70
     0
 71
     0
 10
0.0
 20
0.0
 30
0.0
  3
*MODEL_SPACE
  1

  0
ENDBLK
  5
21
330
1F
100
AcDbEntity
  8
0
100
AcDbBlockEnd
  0
BLOCK
  5
1C
330
1B
100
AcDbEntity
 67
     1
  8
0
100
AcDbBlockBegin
  2
*PAPER_SPACE
 70
     0
 71
     0
 10
0.0
 20
0.0
 30
0.0
  3
*PAPER_SPACE
  1

  0
ENDBLK
  5
1D
330
1B
100
AcDbEntity
 67
     1
  8
0
100
AcDbBlockEnd
  0
ENDSEC
  0
SECTION
  2
ENTITIES
  0
MTEXT
  5
3D
330
1F
100
AcDbEntity
  8
0
 62
     7
100
AcDbMText
 10
165.628414615533
 20
87.85343792578102
 30
0.0
 40
3.998253123847422
 41
0.0
 71
     7
 72
     1
  1
\fKozuka Gothic Pro R|b0|i0|c0|p34;\W0.75;FA-TW43
  0
MTEXT
  5
3E
330
1F
100
AcDbEntity
  8
0
 62
     7
100
AcDbMText
 10
165.628414615533
 20
80.79753320769969
 30
0.0
 40
3.998253123847422
 41
0.0
 71
     7
 72
     1
  1
\fKozuka Gothic Pro R|b0|i0|c0|p34;\W0.75;FA-TW73
  0
SPLINE
  5
3F
330
1F
100
AcDbEntity
  8
0
 62
    29
100
AcDbSpline
210
0.0
220
0.0
230
1.0
 70
     8
 71
     3
 72
    11
 73
     7
 74
     0
 42
0.0000000001
 43
0.0000000001
 40
0.0
 40
0.0
 40
0.0
 40
0.0
 40
1.0
 40
1.0
 40
1.0
 40
2.0
 40
2.0
 40
2.0
 40
2.0
 10
127.2190197120182
 20
222.2175903878117
 30
0.0
 10
128.3228290336691
 20
222.2175903878117
 30
0.0
 10
129.2178654311875
 20
223.1126267853301
 30
0.0
 10
129.2178654311875
 20
224.2167806167569
 30
0.0
 10
129.2178654311875
 20
224.2167806167569
 30
0.0
 10
129.2178654311875
 20
224.2167806167569
 30
0.0
 10
129.2178654311875
 20
224.2167806167569
 30
0.0
  0
SPLINE
  5
40
330
1F
100
AcDbEntity
  8
0
 62
    29
100
AcDbSpline
210
0.0
220
0.0
230
1.0
 70
     8
 71
     3
 72
    11
 73
     7
 74
     0
 42
0.0000000001
 43
0.0000000001
 40
0.0
 40
0.0
 40
0.0
 40
0.0
 40
1.0
 40
1.0
 40
1.0
 40
2.0
 40
2.0
 40
2.0
 40
2.0
 10
9.270413556899108
 20
224.2167806167569
 30
0.0
 10
9.270413556899108
 20
223.1126267853301
 30
0.0
 10
10.16544995441755
 20
222.2175903878117
 30
0.0
 10
11.26943153095638
 20
222.2175903878117
 30
0.0
 10
11.26943153095638
 20
222.2175903878117
 30
0.0
 10
11.26943153095638
 20
222.2175903878117
 30
0.0
 10
11.26943153095638
 20
222.2175903878117
 30
0.0
  0
POLYLINE
  5
41
330
1F
100
AcDbEntity
  8
0
 62
    29
100
AcDb2dPolyline
 66
     1
 10
0.0
 20
0.0
 30
0.0
  0
VERTEX
  5
42
330
41
100
AcDbEntity
  8
0
 62
    29
100
AcDbVertex
100
AcDb2dVertex
 10
129.2178654311875
 20
177.067517211069
 30
0.0
  0
VERTEX
  5
43
330
41
100
AcDbEntity
  8
0
 62
    29
100
AcDbVertex
100
AcDb2dVertex
 10
129.2178654311875
 20
128.5886183256958
 30
0.0
  0
SEQEND
  5
44
330
41
100
AcDbEntity
  8
0
  0
POLYLINE
  5
45
330
1F
100
AcDbEntity
  8
0
 62
    29
100
AcDb2dPolyline
 66
     1
 10
0.0
 20
0.0
 30
0.0
  0
VERTEX
  5
46
330
45
100
AcDbEntity
  8
0
 62
    29
100
AcDbVertex
100
AcDb2dVertex
 10
9.270413556899108
 20
177.067517211069
 30
0.0
  0
VERTEX
  5
47
330
45
100
AcDbEntity
  8
0
 62
    29
100
AcDbVertex
100
AcDb2dVertex
 10
9.270413556899108
 20
128.5886183256958
 30
0.0
  0
SEQEND
  5
48
330
45
100
AcDbEntity
  8
0
  0
POLYLINE
  5
49
330
1F
100
AcDbEntity
  8
0
 62
    29
100
AcDb2dPolyline
 66
     1
 10
0.0
 20
0.0
 30
0.0
  0
VERTEX
  5
4A
330
49
100
AcDbEntity
  8
0
 62
    29
100
AcDbVertex
100
AcDb2dVertex
 10
11.26943153095638
 20
179.0667074400142
 30
0.0
  0
VERTEX
  5
4B
330
49
100
AcDbEntity
  8
0
 62
    29
100
AcDbVertex
100
AcDb2dVertex
 10
127.2190197120182
 20
179.0667074400142
 30
0.0
  0
SEQEND
  5
4C
330
49
100
AcDbEntity
  8
0
  0
POLYLINE
  5
4D
330
1F
100
AcDbEntity
  8
0
 62
    29
100
AcDb2dPolyline
 66
     1
 10
0.0
 20
0.0
 30
0.0
  0
VERTEX
  5
4E
330
4D
100
AcDbEntity
  8
0
 62
    29
100
AcDbVertex
100
AcDb2dVertex
 10
19.26602019184915
 20
129.0885020103761
 30
0.0
  0
VERTEX
  5
4F
330
4D
100
AcDbEntity
  8
0
 62
    29
100
AcDbVertex
100
AcDb2dVertex
 10
80.23942737090989
 20
129.0885020103761
 30
0.0
  0
SEQEND
  5
50
330
4D
100
AcDbEntity
  8
0
  0
SPLINE
  5
51
330
1F
100
AcDbEntity
  8
0
 62
    29
100
AcDbSpline
210
0.0
220
0.0
230
1.0
 70
     8
 71
     3
 72
    14
 73
    10
 74
     0
 42
0.0000000001
 43
0.0000000001
 40
0.0
 40
0.0
 40
0.0
 40
0.0
 40
1.0
 40
1.0
 40
1.0
 40
2.0
 40
2.0
 40
2.0
 40
3.0
 40
3.0
 40
3.0
 40
3.0
 10
124.2204066234883
 20
158.0758990556415
 30
0.0
 10
122.0120989606349
 20
158.0758990556415
 30
0.0
 10
120.222026165598
 20
156.2858262606046
 30
0.0
 10
120.222026165598
 20
154.0775185977512
 30
0.0
 10
120.222026165598
 20
151.8693831897856
 30
0.0
 10
122.0120989606349
 20
150.0793103947487
 30
0.0
 10
124.2204066234883
 20
150.0793103947487
 30
0.0
 10
124.2204066234883
 20
150.0793103947487
 30
0.0
 10
124.2204066234883
 20
150.0793103947487
 30
0.0
 10
124.2204066234883
 20
150.0793103947487
 30
0.0
  0
POLYLINE
  5
52
330
1F
100
AcDbEntity
  8
0
 62
    29
100
AcDb2dPolyline
 66
     1
 10
0.0
 20
0.0
 30
0.0
  0
VERTEX
  5
53
330
52
100
AcDbEntity
  8
0
 62
    29
100
AcDbVertex
100
AcDb2dVertex
 10
124.2204066234883
 20
158.0758990556415
 30
0.0
  0
VERTEX
  5
54
330
52
100
AcDbEntity
  8
0
 62
    29
100
AcDbVertex
100
AcDb2dVertex
 10
129.2178654311875
 20
158.0758990556415
 30
0.0
  0
SEQEND
  5
55
330
52
100
AcDbEntity
  8
0
  0
POLYLINE
  5
56
330
1F
100
AcDbEntity
  8
0
 62
    29
100
AcDb2dPolyline
 66
     1
 10
0.0
 20
0.0
 30
0.0
  0
VERTEX
  5
57
330
56
100
AcDbEntity
  8
0
 62
    29
100
AcDbVertex
100
AcDb2dVertex
 10
124.2204066234883
 20
150.0793103947487
 30
0.0
  0
VERTEX
  5
58
330
56
100
AcDbEntity
  8
0
 62
    29
100
AcDbVertex
100
AcDb2dVertex
 10
129.2178654311875
 20
150.0793103947487
 30
0.0
  0
SEQEND
  5
59
330
56
100
AcDbEntity
  8
0
  0
SPLINE
  5
5A
330
1F
100
AcDbEntity
  8
0
 62
    29
100
AcDbSpline
210
0.0
220
0.0
230
1.0
 70
    11
 71
     3
 72
    23
 73
    19
 74
     0
 42
0.0000000001
 43
0.0000000001
 40
0.0
 40
0.0
 40
0.0
 40
0.0
 40
1.0
 40
1.0
 40
1.0
 40
2.0
 40
2.0
 40
2.0
 40
3.0
 40
3.0
 40
3.0
 40
4.0
 40
4.0
 40
4.0
 40
5.0
 40
5.0
 40
5.0
 40
6.0
 40
6.0
 40
6.0
 40
6.0
 10
126.4693664398857
 20
154.0775185977512
 30
0.0
 10
126.4693664398857
 20
155.3196485943843
 30
0.0
 10
125.4620198554577
 20
156.3266506690365
 30
0.0
 10
124.2204066234883
 20
156.3266506690365
 30
0.0
 10
122.9781043719673
 20
156.3266506690365
 30
0.0
 10
121.9711022973151
 20
155.3196485943843
 30
0.0
 10
121.9711022973151
 20
154.0775185977512
 30
0.0
 10
121.9711022973151
 20
152.835560856006
 30
0.0
 10
122.9781043719673
 20
151.8285587813538
 30
0.0
 10
124.2204066234883
 20
151.8285587813538
 30
0.0
 10
125.4620198554577
 20
151.8285587813538
 30
0.0
 10
126.4693664398857
 20
152.835560856006
 30
0.0
 10
126.4693664398857
 20
154.0775185977512
 30
0.0
 10
126.4693664398857
 20
154.0775185977512
 30
0.0
 10
126.4693664398857
 20
154.0775185977512
 30
0.0
 10
126.4693664398857
 20
154.0775185977512
 30
0.0
 10
126.4693664398857
 20
154.0775185977512
 30
0.0
 10
126.4693664398857
 20
154.0775185977512
 30
0.0
 10
126.4693664398857
 20
154.0775185977512
 30
0.0
  0
POLYLINE
  5
5B
330
1F
100
AcDbEntity
  8
0
 62
    29
100
AcDb2dPolyline
 66
     1
 10
0.0
 20
0.0
 30
0.0
  0
VERTEX
  5
5C
330
5B
100
AcDbEntity
  8
0
 62
    29
100
AcDbVertex
100
AcDb2dVertex
 10
119.2222587962375
 20
179.0667074400142
 30
0.0
  0
VERTEX
  5
5D
330
5B
100
AcDbEntity
  8
0
 62
    29
100
AcDbVertex
100
AcDb2dVertex
 10
119.2222587962375
 20
128.5886183256958
 30
0.0
  0
SEQEND
  5
5E
330
5B
100
AcDbEntity
  8
0
  0
SPLINE
  5
5F
330
1F
100
AcDbEntity
  8
0
 62
    29
100
AcDbSpline
210
0.0
220
0.0
230
1.0
 70
     8
 71
     3
 72
    14
 73
    10
 74
     0
 42
0.0000000001
 43
0.0000000001
 40
0.0
 40
0.0
 40
0.0
 40
0.0
 40
1.0
 40
1.0
 40
1.0
 40
2.0
 40
2.0
 40
2.0
 40
3.0
 40
3.0
 40
3.0
 40
3.0
 10
14.26821687437413
 20
150.0793103947487
 30
0.0
 10
16.47635228233967
 20
150.0793103947487
 30
0.0
 10
18.26642507737657
 20
151.8693831897856
 30
0.0
 10
18.26642507737657
 20
154.0775185977512
 30
0.0
 10
18.26642507737657
 20
156.2858262606046
 30
0.0
 10
16.47635228233967
 20
158.0758990556415
 30
0.0
 10
14.26821687437413
 20
158.0758990556415
 30
0.0
 10
14.26821687437413
 20
158.0758990556415
 30
0.0
 10
14.26821687437413
 20
158.0758990556415
 30
0.0
 10
14.26821687437413
 20
158.0758990556415
 30
0.0
  0
POLYLINE
  5
60
330
1F
100
AcDbEntity
  8
0
 62
    29
100
AcDb2dPolyline
 66
     1
 10
0.0
 20
0.0
 30
0.0
  0
VERTEX
  5
61
330
60
100
AcDbEntity
  8
0
 62
    29
100
AcDbVertex
100
AcDb2dVertex
 10
14.26821687437413
 20
158.0758990556415
 30
0.0
  0
VERTEX
  5
62
330
60
100
AcDbEntity
  8
0
 62
    29
100
AcDbVertex
100
AcDb2dVertex
 10
9.270413556899108
 20
158.0758990556415
 30
0.0
  0
SEQEND
  5
63
330
60
100
AcDbEntity
  8
0
  0
POLYLINE
  5
64
330
1F
100
AcDbEntity
  8
0
 62
    29
100
AcDb2dPolyline
 66
     1
 10
0.0
 20
0.0
 30
0.0
  0
VERTEX
  5
65
330
64
100
AcDbEntity
  8
0
 62
    29
100
AcDbVertex
100
AcDb2dVertex
 10
14.26821687437413
 20
150.0793103947487
 30
0.0
  0
VERTEX
  5
66
330
64
100
AcDbEntity
  8
0
 62
    29
100
AcDbVertex
100
AcDb2dVertex
 10
9.270413556899108
 20
150.0793103947487
 30
0.0
  0
SEQEND
  5
67
330
64
100
AcDbEntity
  8
0
  0
SPLINE
  5
68
330
1F
100
AcDbEntity
  8
0
 62
    29
100
AcDbSpline
210
0.0
220
0.0
230
1.0
 70
    11
 71
     3
 72
    23
 73
    19
 74
     0
 42
0.0000000001
 43
0.0000000001
 40
0.0
 40
0.0
 40
0.0
 40
0.0
 40
1.0
 40
1.0
 40
1.0
 40
2.0
 40
2.0
 40
2.0
 40
3.0
 40
3.0
 40
3.0
 40
4.0
 40
4.0
 40
4.0
 40
5.0
 40
5.0
 40
5.0
 40
6.0
 40
6.0
 40
6.0
 40
6.0
 10
16.51717669077152
 20
154.0775185977512
 30
0.0
 10
16.51717669077152
 20
155.3196485943843
 30
0.0
 10
15.51034687100721
 20
156.3266506690365
 30
0.0
 10
14.26821687437413
 20
156.3266506690365
 30
0.0
 10
13.02608687774104
 20
156.3266506690365
 30
0.0
 10
12.01925705797674
 20
155.3196485943843
 30
0.0
 10
12.01925705797674
 20
154.0775185977512
 30
0.0
 10
12.01925705797674
 20
152.835560856006
 30
0.0
 10
13.02608687774104
 20
151.8285587813538
 30
0.0
 10
14.26821687437413
 20
151.8285587813538
 30
0.0
 10
15.51034687100721
 20
151.8285587813538
 30
0.0
 10
16.51717669077152
 20
152.835560856006
 30
0.0
 10
16.51717669077152
 20
154.0775185977512
 30
0.0
 10
16.51717669077152
 20
154.0775185977512
 30
0.0
 10
16.51717669077152
 20
154.0775185977512
 30
0.0
 10
16.51717669077152
 20
154.0775185977512
 30
0.0
 10
16.51717669077152
 20
154.0775185977512
 30
0.0
 10
16.51717669077152
 20
154.0775185977512
 30
0.0
 10
16.51717669077152
 20
154.0775185977512
 30
0.0
  0
POLYLINE
  5
69
330
1F
100
AcDbEntity
  8
0
 62
    29
100
AcDb2dPolyline
 66
     1
 10
0.0
 20
0.0
 30
0.0
  0
VERTEX
  5
6A
330
69
100
AcDbEntity
  8
0
 62
    29
100
AcDbVertex
100
AcDb2dVertex
 10
19.26602019184915
 20
179.0667074400142
 30
0.0
  0
VERTEX
  5
6B
330
69
100
AcDbEntity
  8
0
 62
    29
100
AcDbVertex
100
AcDb2dVertex
 10
19.26602019184915
 20
128.5886183256958
 30
0.0
  0
SEQEND
  5
6C
330
69
100
AcDbEntity
  8
0
  0
POLYLINE
  5
6D
330
1F
100
AcDbEntity
  8
0
 62
    29
100
AcDb2dPolyline
 66
     1
 10
0.0
 20
0.0
 30
0.0
  0
VERTEX
  5
6E
330
6D
100
AcDbEntity
  8
0
 62
    29
100
AcDbVertex
100
AcDb2dVertex
 10
19.76573162164149
 20
179.0667074400142
 30
0.0
  0
VERTEX
  5
6F
330
6D
100
AcDbEntity
  8
0
 62
    29
100
AcDbVertex
100
AcDb2dVertex
 10
19.76573162164149
 20
129.0885020103761
 30
0.0
  0
SEQEND
  5
70
330
6D
100
AcDbEntity
  8
0
  0
POLYLINE
  5
71
330
1F
100
AcDbEntity
  8
0
 62
    29
100
AcDb2dPolyline
 66
     1
 10
0.0
 20
0.0
 30
0.0
  0
VERTEX
  5
72
330
71
100
AcDbEntity
  8
0
 62
    29
100
AcDbVertex
100
AcDb2dVertex
 10
118.722719621333
 20
129.0885020103761
 30
0.0
  0
VERTEX
  5
73
330
71
100
AcDbEntity
  8
0
 62
    29
100
AcDbVertex
100
AcDb2dVertex
 10
118.722719621333
 20
179.0667074400142
 30
0.0
  0
SEQEND
  5
74
330
71
100
AcDbEntity
  8
0
  0
POLYLINE
  5
75
330
1F
100
AcDbEntity
  8
0
 62
    29
100
AcDb2dPolyline
 66
     1
 10
0.0
 20
0.0
 30
0.0
  0
VERTEX
  5
76
330
75
100
AcDbEntity
  8
0
 62
    29
100
AcDbVertex
100
AcDb2dVertex
 10
175.6236767407073
 20
169.0711008050641
 30
0.0
  0
VERTEX
  5
77
330
75
100
AcDbEntity
  8
0
 62
    29
100
AcDbVertex
100
AcDb2dVertex
 10
175.6236767407073
 20
139.0841086453261
 30
0.0
  0
SEQEND
  5
78
330
75
100
AcDbEntity
  8
0
  0
POLYLINE
  5
79
330
1F
100
AcDbEntity
  8
0
 62
    29
100
AcDb2dPolyline
 66
     1
 10
0.0
 20
0.0
 30
0.0
  0
VERTEX
  5
7A
330
79
100
AcDbEntity
  8
0
 62
    29
100
AcDbVertex
100
AcDb2dVertex
 10
163.1293407019076
 20
165.4725239419853
 30
0.0
  0
VERTEX
  5
7B
330
79
100
AcDbEntity
  8
0
 62
    29
100
AcDbVertex
100
AcDb2dVertex
 10
163.1293407019076
 20
142.6825132535171
 30
0.0
  0
SEQEND
  5
7C
330
79
100
AcDbEntity
  8
0
  0
POLYLINE
  5
7D
330
1F
100
AcDbEntity
  8
0
 62
    29
100
AcDb2dPolyline
 66
     1
 10
0.0
 20
0.0
 30
0.0
  0
VERTEX
  5
7E
330
7D
100
AcDbEntity
  8
0
 62
    29
100
AcDbVertex
100
AcDb2dVertex
 10
168.1271440193826
 20
165.4725239419853
 30
0.0
  0
VERTEX
  5
7F
330
7D
100
AcDbEntity
  8
0
 62
    29
100
AcDbVertex
100
AcDb2dVertex
 10
168.1271440193826
 20
142.6825132535171
 30
0.0
  0
SEQEND
  5
80
330
7D
100
AcDbEntity
  8
0
  0
POLYLINE
  5
81
330
1F
100
AcDbEntity
  8
0
 62
    29
100
AcDb2dPolyline
 66
     1
 10
0.0
 20
0.0
 30
0.0
  0
VERTEX
  5
82
330
81
100
AcDbEntity
  8
0
 62
    29
100
AcDbVertex
100
AcDb2dVertex
 10
170.1263342483278
 20
165.4725239419853
 30
0.0
  0
VERTEX
  5
83
330
81
100
AcDbEntity
  8
0
 62
    29
100
AcDbVertex
100
AcDb2dVertex
 10
170.1263342483278
 20
142.6825132535171
 30
0.0
  0
SEQEND
  5
84
330
81
100
AcDbEntity
  8
0
  0
POLYLINE
  5
85
330
1F
100
AcDbEntity
  8
0
 62
    29
100
AcDb2dPolyline
 66
     1
 10
0.0
 20
0.0
 30
0.0
  0
VERTEX
  5
86
330
85
100
AcDbEntity
  8
0
 62
    29
100
AcDbVertex
100
AcDb2dVertex
 10
173.3747169243099
 20
165.4725239419853
 30
0.0
  0
VERTEX
  5
87
330
85
100
AcDbEntity
  8
0
 62
    29
100
AcDbVertex
100
AcDb2dVertex
 10
170.1263342483278
 20
165.4725239419853
 30
0.0
  0
SEQEND
  5
88
330
85
100
AcDbEntity
  8
0
  0
POLYLINE
  5
89
330
1F
100
AcDbEntity
  8
0
 62
    29
100
AcDb2dPolyline
 66
     1
 10
0.0
 20
0.0
 30
0.0
  0
VERTEX
  5
8A
330
89
100
AcDbEntity
  8
0
 62
    29
100
AcDbVertex
100
AcDb2dVertex
 10
173.3747169243099
 20
142.6825132535171
 30
0.0
  0
VERTEX
  5
8B
330
89
100
AcDbEntity
  8
0
 62
    29
100
AcDbVertex
100
AcDb2dVertex
 10
170.1263342483278
 20
142.6825132535171
 30
0.0
  0
SEQEND
  5
8C
330
89
100
AcDbEntity
  8
0
  0
POLYLINE
  5
8D
330
1F
100
AcDbEntity
  8
0
 62
    29
100
AcDb2dPolyline
 66
     1
 10
0.0
 20
0.0
 30
0.0
  0
VERTEX
  5
8E
330
8D
100
AcDbEntity
  8
0
 62
    29
100
AcDbVertex
100
AcDb2dVertex
 10
170.1263342483278
 20
164.9728125121929
 30
0.0
  0
VERTEX
  5
8F
330
8D
100
AcDbEntity
  8
0
 62
    29
100
AcDbVertex
100
AcDb2dVertex
 10
168.1271440193826
 20
164.9728125121929
 30
0.0
  0
SEQEND
  5
90
330
8D
100
AcDbEntity
  8
0
  0
POLYLINE
  5
91
330
1F
100
AcDbEntity
  8
0
 62
    29
100
AcDb2dPolyline
 66
     1
 10
0.0
 20
0.0
 30
0.0
  0
VERTEX
  5
92
330
91
100
AcDbEntity
  8
0
 62
    29
100
AcDbVertex
100
AcDb2dVertex
 10
170.1263342483278
 20
143.1823969381973
 30
0.0
  0
VERTEX
  5
93
330
91
100
AcDbEntity
  8
0
 62
    29
100
AcDbVertex
100
AcDb2dVertex
 10
168.1271440193826
 20
143.1823969381973
 30
0.0
  0
SEQEND
  5
94
330
91
100
AcDbEntity
  8
0
  0
POLYLINE
  5
95
330
1F
100
AcDbEntity
  8
0
 62
    29
100
AcDb2dPolyline
 66
     1
 10
0.0
 20
0.0
 30
0.0
  0
VERTEX
  5
96
330
95
100
AcDbEntity
  8
0
 62
    29
100
AcDbVertex
100
AcDb2dVertex
 10
168.1271440193826
 20
165.4725239419853
 30
0.0
  0
VERTEX
  5
97
330
95
100
AcDbEntity
  8
0
 62
    29
100
AcDbVertex
100
AcDb2dVertex
 10
163.1293407019076
 20
165.4725239419853
 30
0.0
  0
SEQEND
  5
98
330
95
100
AcDbEntity
  8
0
  0
POLYLINE
  5
99
330
1F
100
AcDbEntity
  8
0
 62
    29
100
AcDb2dPolyline
 66
     1
 10
0.0
 20
0.0
 30
0.0
  0
VERTEX
  5
9A
330
99
100
AcDbEntity
  8
0
 62
    29
100
AcDbVertex
100
AcDb2dVertex
 10
168.1271440193826
 20
142.6825132535171
 30
0.0
  0
VERTEX
  5
9B
330
99
100
AcDbEntity
  8
0
 62
    29
100
AcDbVertex
100
AcDb2dVertex
 10
163.1293407019076
 20
142.6825132535171
 30
0.0
  0
SEQEND
  5
9C
330
99
100
AcDbEntity
  8
0
  0
POLYLINE
  5
9D
330
1F
100
AcDbEntity
  8
0
 62
    29
100
AcDb2dPolyline
 66
     1
 10
0.0
 20
0.0
 30
0.0
  0
VERTEX
  5
9E
330
9D
100
AcDbEntity
  8
0
 62
    29
100
AcDbVertex
100
AcDb2dVertex
 10
178.6226343390129
 20
169.0711008050641
 30
0.0
  0
VERTEX
  5
9F
330
9D
100
AcDbEntity
  8
0
 62
    29
100
AcDbVertex
100
AcDb2dVertex
 10
178.6226343390129
 20
139.0841086453261
 30
0.0
  0
SEQEND
  5
A0
330
9D
100
AcDbEntity
  8
0
  0
POLYLINE
  5
A1
330
1F
100
AcDbEntity
  8
0
 62
    29
100
AcDb2dPolyline
 66
     1
 10
0.0
 20
0.0
 30
0.0
  0
VERTEX
  5
A2
330
A1
100
AcDbEntity
  8
0
 62
    29
100
AcDbVertex
100
AcDb2dVertex
 10
178.6226343390129
 20
169.0711008050641
 30
0.0
  0
VERTEX
  5
A3
330
A1
100
AcDbEntity
  8
0
 62
    29
100
AcDbVertex
100
AcDb2dVertex
 10
175.6236767407073
 20
169.0711008050641
 30
0.0
  0
SEQEND
  5
A4
330
A1
100
AcDbEntity
  8
0
  0
POLYLINE
  5
A5
330
1F
100
AcDbEntity
  8
0
 62
    29
100
AcDb2dPolyline
 66
     1
 10
0.0
 20
0.0
 30
0.0
  0
VERTEX
  5
A6
330
A5
100
AcDbEntity
  8
0
 62
    29
100
AcDbVertex
100
AcDb2dVertex
 10
178.6226343390129
 20
139.0841086453261
 30
0.0
  0
VERTEX
  5
A7
330
A5
100
AcDbEntity
  8
0
 62
    29
100
AcDbVertex
100
AcDb2dVertex
 10
175.6236767407073
 20
139.0841086453261
 30
0.0
  0
SEQEND
  5
A8
330
A5
100
AcDbEntity
  8
0
  0
POLYLINE
  5
A9
330
1F
100
AcDbEntity
  8
0
 62
    29
100
AcDb2dPolyline
 66
     1
 10
0.0
 20
0.0
 30
0.0
  0
VERTEX
  5
AA
330
A9
100
AcDbEntity
  8
0
 62
    29
100
AcDbVertex
100
AcDb2dVertex
 10
180.1219408832778
 20
177.067517211069
 30
0.0
  0
VERTEX
  5
AB
330
A9
100
AcDbEntity
  8
0
 62
    29
100
AcDbVertex
100
AcDb2dVertex
 10
180.1219408832778
 20
128.5886183256958
 30
0.0
  0
SEQEND
  5
AC
330
A9
100
AcDbEntity
  8
0
  0
POLYLINE
  5
AD
330
1F
100
AcDbEntity
  8
0
 62
    29
100
AcDb2dPolyline
 66
     1
 10
0.0
 20
0.0
 30
0.0
  0
VERTEX
  5
AE
330
AD
100
AcDbEntity
  8
0
 62
    29
100
AcDbVertex
100
AcDb2dVertex
 10
180.1219408832778
 20
168.821158962724
 30
0.0
  0
VERTEX
  5
AF
330
AD
100
AcDbEntity
  8
0
 62
    29
100
AcDbVertex
100
AcDb2dVertex
 10
178.6226343390129
 20
168.821158962724
 30
0.0
  0
SEQEND
  5
B0
330
AD
100
AcDbEntity
  8
0
  0
POLYLINE
  5
B1
330
1F
100
AcDbEntity
  8
0
 62
    29
100
AcDb2dPolyline
 66
     1
 10
0.0
 20
0.0
 30
0.0
  0
VERTEX
  5
B2
330
B1
100
AcDbEntity
  8
0
 62
    29
100
AcDbVertex
100
AcDb2dVertex
 10
180.1219408832778
 20
139.3338782327783
 30
0.0
  0
VERTEX
  5
B3
330
B1
100
AcDbEntity
  8
0
 62
    29
100
AcDbVertex
100
AcDb2dVertex
 10
178.6226343390129
 20
139.3338782327783
 30
0.0
  0
SEQEND
  5
B4
330
B1
100
AcDbEntity
  8
0
  0
POLYLINE
  5
B5
330
1F
100
AcDbEntity
  8
0
 62
    29
100
AcDb2dPolyline
 66
     1
 10
0.0
 20
0.0
 30
0.0
  0
VERTEX
  5
B6
330
B5
100
AcDbEntity
  8
0
 62
    29
100
AcDbVertex
100
AcDb2dVertex
 10
186.1191670603375
 20
150.0793103947487
 30
0.0
  0
VERTEX
  5
B7
330
B5
100
AcDbEntity
  8
0
 62
    29
100
AcDbVertex
100
AcDb2dVertex
 10
180.1219408832778
 20
150.0793103947487
 30
0.0
  0
SEQEND
  5
B8
330
B5
100
AcDbEntity
  8
0
  0
POLYLINE
  5
B9
330
1F
100
AcDbEntity
  8
0
 62
    29
100
AcDb2dPolyline
 66
     1
 10
0.0
 20
0.0
 30
0.0
  0
VERTEX
  5
BA
330
B9
100
AcDbEntity
  8
0
 62
    29
100
AcDbVertex
100
AcDb2dVertex
 10
180.1219408832778
 20
158.0758990556415
 30
0.0
  0
VERTEX
  5
BB
330
B9
100
AcDbEntity
  8
0
 62
    29
100
AcDbVertex
100
AcDb2dVertex
 10
186.1191670603375
 20
158.0758990556415
 30
0.0
  0
SEQEND
  5
BC
330
B9
100
AcDbEntity
  8
0
  0
POLYLINE
  5
BD
330
1F
100
AcDbEntity
  8
0
 62
    29
100
AcDb2dPolyline
 66
     1
 10
0.0
 20
0.0
 30
0.0
  0
VERTEX
  5
BE
330
BD
100
AcDbEntity
  8
0
 62
    29
100
AcDbVertex
100
AcDb2dVertex
 10
127.2190197120182
 20
222.2175903878117
 30
0.0
  0
VERTEX
  5
BF
330
BD
100
AcDbEntity
  8
0
 62
    29
100
AcDbVertex
100
AcDb2dVertex
 10
11.26943153095638
 20
222.2175903878117
 30
0.0
  0
SEQEND
  5
C0
330
BD
100
AcDbEntity
  8
0
  0
POLYLINE
  5
C1
330
1F
100
AcDbEntity
  8
0
 62
    29
100
AcDb2dPolyline
 66
     1
 10
0.0
 20
0.0
 30
0.0
  0
VERTEX
  5
C2
330
C1
100
AcDbEntity
  8
0
 62
    29
100
AcDbVertex
100
AcDb2dVertex
 10
9.270413556899108
 20
224.2167806167569
 30
0.0
  0
VERTEX
  5
C3
330
C1
100
AcDbEntity
  8
0
 62
    29
100
AcDbVertex
100
AcDb2dVertex
 10
9.270413556899108
 20
240.7096693683348
 30
0.0
  0
SEQEND
  5
C4
330
C1
100
AcDbEntity
  8
0
  0
POLYLINE
  5
C5
330
1F
100
AcDbEntity
  8
0
 62
    29
100
AcDb2dPolyline
 66
     1
 10
0.0
 20
0.0
 30
0.0
  0
VERTEX
  5
C6
330
C5
100
AcDbEntity
  8
0
 62
    29
100
AcDbVertex
100
AcDb2dVertex
 10
119.2222587962375
 20
242.2089759125997
 30
0.0
  0
VERTEX
  5
C7
330
C5
100
AcDbEntity
  8
0
 62
    29
100
AcDbVertex
100
AcDb2dVertex
 10
19.26602019184915
 20
242.2089759125997
 30
0.0
  0
SEQEND
  5
C8
330
C5
100
AcDbEntity
  8
0
  0
MTEXT
  5
C9
330
1F
100
AcDbEntity
  8
0
 62
    29
100
AcDbMText
 10
92.2340519799172
 20
133.0868824682664
 30
0.0
 40
3.998253123847422
 41
0.0
 71
     7
 72
     1
  1
\fKozuka Gothic Pro R|b0|i0|c0|p34;\W1;OUT2
  0
MTEXT
  5
CA
330
1F
100
AcDbEntity
  8
0
 62
    29
100
AcDbMText
 10
61.24763696059449
 20
133.0868824682664
 30
0.0
 40
3.998253123847422
 41
0.0
 71
     7
 72
     1
  1
\fKozuka Gothic Pro R|b0|i0|c0|p34;\W1;OUT1
  0
MTEXT
  5
CB
330
1F
100
AcDbEntity
  8
0
 62
    29
100
AcDbMText
 10
34.25943014427421
 20
133.0868824682664
 30
0.0
 40
3.998253123847422
 41
0.0
 71
     7
 72
     1
  1
\fKozuka Gothic Pro R|b0|i0|c0|p34;\W1;IN
  0
POLYLINE
  5
CC
330
1F
100
AcDbEntity
  8
0
 62
    29
100
AcDb2dPolyline
 66
     1
 10
0.0
 20
0.0
 30
0.0
  0
VERTEX
  5
CD
330
CC
100
AcDbEntity
  8
0
 62
    29
100
AcDbVertex
100
AcDb2dVertex
 10
119.2222587962375
 20
229.2145839342319
 30
0.0
  0
VERTEX
  5
CE
330
CC
100
AcDbEntity
  8
0
 62
    29
100
AcDbVertex
100
AcDb2dVertex
 10
19.26602019184915
 20
229.2145839342319
 30
0.0
  0
SEQEND
  5
CF
330
CC
100
AcDbEntity
  8
0
  0
POLYLINE
  5
D0
330
1F
100
AcDbEntity
  8
0
 62
    29
100
AcDb2dPolyline
 66
     1
 10
0.0
 20
0.0
 30
0.0
  0
VERTEX
  5
D1
330
D0
100
AcDbEntity
  8
0
 62
    29
100
AcDbVertex
100
AcDb2dVertex
 10
119.2222587962375
 20
229.2145839342319
 30
0.0
  0
VERTEX
  5
D2
330
D0
100
AcDbEntity
  8
0
 62
    29
100
AcDbVertex
100
AcDb2dVertex
 10
119.2222587962375
 20
222.2175903878117
 30
0.0
  0
SEQEND
  5
D3
330
D0
100
AcDbEntity
  8
0
  0
POLYLINE
  5
D4
330
1F
100
AcDbEntity
  8
0
 62
    29
100
AcDb2dPolyline
 66
     1
 10
0.0
 20
0.0
 30
0.0
  0
VERTEX
  5
D5
330
D4
100
AcDbEntity
  8
0
 62
    29
100
AcDbVertex
100
AcDb2dVertex
 10
19.26602019184915
 20
229.2145839342319
 30
0.0
  0
VERTEX
  5
D6
330
D4
100
AcDbEntity
  8
0
 62
    29
100
AcDbVertex
100
AcDb2dVertex
 10
19.26602019184915
 20
222.2175903878117
 30
0.0
  0
SEQEND
  5
D7
330
D4
100
AcDbEntity
  8
0
  0
POLYLINE
  5
D8
330
1F
100
AcDbEntity
  8
0
 62
    29
100
AcDb2dPolyline
 66
     1
 10
0.0
 20
0.0
 30
0.0
  0
VERTEX
  5
D9
330
D8
100
AcDbEntity
  8
0
 62
    29
100
AcDbVertex
100
AcDb2dVertex
 10
118.722719621333
 20
228.7148725044396
 30
0.0
  0
VERTEX
  5
DA
330
D8
100
AcDbEntity
  8
0
 62
    29
100
AcDbVertex
100
AcDb2dVertex
 10
19.76573162164149
 20
228.7148725044396
 30
0.0
  0
SEQEND
  5
DB
330
D8
100
AcDbEntity
  8
0
  0
POLYLINE
  5
DC
330
1F
100
AcDbEntity
  8
0
 62
    29
100
AcDb2dPolyline
 66
     1
 10
0.0
 20
0.0
 30
0.0
  0
VERTEX
  5
DD
330
DC
100
AcDbEntity
  8
0
 62
    29
100
AcDbVertex
100
AcDb2dVertex
 10
118.722719621333
 20
222.2175903878117
 30
0.0
  0
VERTEX
  5
DE
330
DC
100
AcDbEntity
  8
0
 62
    29
100
AcDbVertex
100
AcDb2dVertex
 10
118.722719621333
 20
228.7148725044396
 30
0.0
  0
SEQEND
  5
DF
330
DC
100
AcDbEntity
  8
0
  0
POLYLINE
  5
E0
330
1F
100
AcDbEntity
  8
0
 62
    29
100
AcDb2dPolyline
 66
     1
 10
0.0
 20
0.0
 30
0.0
  0
VERTEX
  5
E1
330
E0
100
AcDbEntity
  8
0
 62
    29
100
AcDbVertex
100
AcDb2dVertex
 10
19.76573162164149
 20
222.2175903878117
 30
0.0
  0
VERTEX
  5
E2
330
E0
100
AcDbEntity
  8
0
 62
    29
100
AcDbVertex
100
AcDb2dVertex
 10
19.76573162164149
 20
228.7148725044396
 30
0.0
  0
SEQEND
  5
E3
330
E0
100
AcDbEntity
  8
0
  0
POLYLINE
  5
E4
330
1F
100
AcDbEntity
  8
0
 62
    29
100
AcDb2dPolyline
 66
     1
 10
0.0
 20
0.0
 30
0.0
  0
VERTEX
  5
E5
330
E4
100
AcDbEntity
  8
0
 62
    29
100
AcDbVertex
100
AcDb2dVertex
 10
69.24422562148726
 20
171.0701187791214
 30
0.0
  0
VERTEX
  5
E6
330
E4
100
AcDbEntity
  8
0
 62
    29
100
AcDbVertex
100
AcDb2dVertex
 10
70.97555949975092
 20
174.0689041225392
 30
0.0
  0
SEQEND
  5
E7
330
E4
100
AcDbEntity
  8
0
  0
POLYLINE
  5
E8
330
1F
100
AcDbEntity
  8
0
 62
    29
100
AcDb2dPolyline
 66
     1
 10
0.0
 20
0.0
 30
0.0
  0
VERTEX
  5
E9
330
E8
100
AcDbEntity
  8
0
 62
    29
100
AcDbVertex
100
AcDb2dVertex
 10
69.24422562148726
 20
171.0701187791214
 30
0.0
  0
VERTEX
  5
EA
330
E8
100
AcDbEntity
  8
0
 62
    29
100
AcDbVertex
100
AcDb2dVertex
 10
67.51289174322362
 20
174.0689041225392
 30
0.0
  0
SEQEND
  5
EB
330
E8
100
AcDbEntity
  8
0
  0
POLYLINE
  5
EC
330
1F
100
AcDbEntity
  8
0
 62
    29
100
AcDb2dPolyline
 66
     1
 10
0.0
 20
0.0
 30
0.0
  0
VERTEX
  5
ED
330
EC
100
AcDbEntity
  8
0
 62
    29
100
AcDbVertex
100
AcDb2dVertex
 10
70.97555949975092
 20
174.0689041225392
 30
0.0
  0
VERTEX
  5
EE
330
EC
100
AcDbEntity
  8
0
 62
    29
100
AcDbVertex
100
AcDb2dVertex
 10
67.51289174322362
 20
174.0689041225392
 30
0.0
  0
SEQEND
  5
EF
330
EC
100
AcDbEntity
  8
0
  0
POLYLINE
  5
F0
330
1F
100
AcDbEntity
  8
0
 62
    29
100
AcDb2dPolyline
 66
     1
 10
0.0
 20
0.0
 30
0.0
  0
VERTEX
  5
F1
330
F0
100
AcDbEntity
  8
0
 62
    29
100
AcDbVertex
100
AcDb2dVertex
 10
100.23064064081
 20
171.0701187791214
 30
0.0
  0
VERTEX
  5
F2
330
F0
100
AcDbEntity
  8
0
 62
    29
100
AcDbVertex
100
AcDb2dVertex
 10
101.9619745190736
 20
174.0689041225392
 30
0.0
  0
SEQEND
  5
F3
330
F0
100
AcDbEntity
  8
0
  0
POLYLINE
  5
F4
330
1F
100
AcDbEntity
  8
0
 62
    29
100
AcDb2dPolyline
 66
     1
 10
0.0
 20
0.0
 30
0.0
  0
VERTEX
  5
F5
330
F4
100
AcDbEntity
  8
0
 62
    29
100
AcDbVertex
100
AcDb2dVertex
 10
100.23064064081
 20
171.0701187791214
 30
0.0
  0
VERTEX
  5
F6
330
F4
100
AcDbEntity
  8
0
 62
    29
100
AcDbVertex
100
AcDb2dVertex
 10
98.49930676254633
 20
174.0689041225392
 30
0.0
  0
SEQEND
  5
F7
330
F4
100
AcDbEntity
  8
0
  0
POLYLINE
  5
F8
330
1F
100
AcDbEntity
  8
0
 62
    29
100
AcDb2dPolyline
 66
     1
 10
0.0
 20
0.0
 30
0.0
  0
VERTEX
  5
F9
330
F8
100
AcDbEntity
  8
0
 62
    29
100
AcDbVertex
100
AcDb2dVertex
 10
101.9619745190736
 20
174.0689041225392
 30
0.0
  0
VERTEX
  5
FA
330
F8
100
AcDbEntity
  8
0
 62
    29
100
AcDbVertex
100
AcDb2dVertex
 10
98.49930676254633
 20
174.0689041225392
 30
0.0
  0
SEQEND
  5
FB
330
F8
100
AcDbEntity
  8
0
  0
POLYLINE
  5
FC
330
1F
100
AcDbEntity
  8
0
 62
    29
100
AcDb2dPolyline
 66
     1
 10
0.0
 20
0.0
 30
0.0
  0
VERTEX
  5
FD
330
FC
100
AcDbEntity
  8
0
 62
    29
100
AcDbVertex
100
AcDb2dVertex
 10
38.25763834727665
 20
171.0701187791214
 30
0.0
  0
VERTEX
  5
FE
330
FC
100
AcDbEntity
  8
0
 62
    29
100
AcDbVertex
100
AcDb2dVertex
 10
39.9889722255403
 20
174.0689041225392
 30
0.0
  0
SEQEND
  5
FF
330
FC
100
AcDbEntity
  8
0
  0
POLYLINE
  5
100
330
1F
100
AcDbEntity
  8
0
 62
    29
100
AcDb2dPolyline
 66
     1
 10
0.0
 20
0.0
 30
0.0
  0
VERTEX
  5
101
330
100
100
AcDbEntity
  8
0
 62
    29
100
AcDbVertex
100
AcDb2dVertex
 10
38.25763834727665
 20
171.0701187791214
 30
0.0
  0
VERTEX
  5
102
330
100
100
AcDbEntity
  8
0
 62
    29
100
AcDbVertex
100
AcDb2dVertex
 10
36.52647672390091
 20
174.0689041225392
 30
0.0
  0
SEQEND
  5
103
330
100
100
AcDbEntity
  8
0
  0
POLYLINE
  5
104
330
1F
100
AcDbEntity
  8
0
 62
    29
100
AcDb2dPolyline
 66
     1
 10
0.0
 20
0.0
 30
0.0
  0
VERTEX
  5
105
330
104
100
AcDbEntity
  8
0
 62
    29
100
AcDbVertex
100
AcDb2dVertex
 10
39.9889722255403
 20
174.0689041225392
 30
0.0
  0
VERTEX
  5
106
330
104
100
AcDbEntity
  8
0
 62
    29
100
AcDbVertex
100
AcDb2dVertex
 10
36.52647672390091
 20
174.0689041225392
 30
0.0
  0
SEQEND
  5
107
330
104
100
AcDbEntity
  8
0
  0
POLYLINE
  5
108
330
1F
100
AcDbEntity
  8
0
 62
    29
100
AcDb2dPolyline
 66
     1
 10
0.0
 20
0.0
 30
0.0
  0
VERTEX
  5
109
330
108
100
AcDbEntity
  8
0
 62
    29
100
AcDbVertex
100
AcDb2dVertex
 10
198.1139639242328
 20
179.0667074400142
 30
0.0
  0
VERTEX
  5
10A
330
108
100
AcDbEntity
  8
0
 62
    29
100
AcDbVertex
100
AcDb2dVertex
 10
182.121131112223
 20
179.0667074400142
 30
0.0
  0
SEQEND
  5
10B
330
108
100
AcDbEntity
  8
0
  0
POLYLINE
  5
10C
330
1F
100
AcDbEntity
  8
0
 62
    29
100
AcDb2dPolyline
 66
     1
 10
0.0
 20
0.0
 30
0.0
  0
VERTEX
  5
10D
330
10C
100
AcDbEntity
  8
0
 62
    29
100
AcDbVertex
100
AcDb2dVertex
 10
186.1191670603375
 20
179.0667074400142
 30
0.0
  0
VERTEX
  5
10E
330
10C
100
AcDbEntity
  8
0
 62
    29
100
AcDbVertex
100
AcDb2dVertex
 10
186.1191670603375
 20
158.0758990556415
 30
0.0
  0
SEQEND
  5
10F
330
10C
100
AcDbEntity
  8
0
  0
POLYLINE
  5
110
330
1F
100
AcDbEntity
  8
0
 62
    29
100
AcDb2dPolyline
 66
     1
 10
0.0
 20
0.0
 30
0.0
  0
VERTEX
  5
111
330
110
100
AcDbEntity
  8
0
 62
    29
100
AcDbVertex
100
AcDb2dVertex
 10
194.1155834663424
 20
179.0667074400142
 30
0.0
  0
VERTEX
  5
112
330
110
100
AcDbEntity
  8
0
 62
    29
100
AcDbVertex
100
AcDb2dVertex
 10
194.1155834663424
 20
136.5853792414765
 30
0.0
  0
SEQEND
  5
113
330
110
100
AcDbEntity
  8
0
  0
POLYLINE
  5
114
330
1F
100
AcDbEntity
  8
0
 62
    29
100
AcDb2dPolyline
 66
     1
 10
0.0
 20
0.0
 30
0.0
  0
VERTEX
  5
115
330
114
100
AcDbEntity
  8
0
 62
    29
100
AcDbVertex
100
AcDb2dVertex
 10
186.1191670603375
 20
150.0793103947487
 30
0.0
  0
VERTEX
  5
116
330
114
100
AcDbEntity
  8
0
 62
    29
100
AcDbVertex
100
AcDb2dVertex
 10
186.1191670603375
 20
136.5853792414765
 30
0.0
  0
SEQEND
  5
117
330
114
100
AcDbEntity
  8
0
  0
POLYLINE
  5
118
330
1F
100
AcDbEntity
  8
0
 62
    29
100
AcDb2dPolyline
 66
     1
 10
0.0
 20
0.0
 30
0.0
  0
VERTEX
  5
119
330
118
100
AcDbEntity
  8
0
 62
    29
100
AcDbVertex
100
AcDb2dVertex
 10
186.1191670603375
 20
150.0793103947487
 30
0.0
  0
VERTEX
  5
11A
330
118
100
AcDbEntity
  8
0
 62
    29
100
AcDbVertex
100
AcDb2dVertex
 10
194.1155834663424
 20
158.0758990556415
 30
0.0
  0
SEQEND
  5
11B
330
118
100
AcDbEntity
  8
0
  0
POLYLINE
  5
11C
330
1F
100
AcDbEntity
  8
0
 62
    29
100
AcDb2dPolyline
 66
     1
 10
0.0
 20
0.0
 30
0.0
  0
VERTEX
  5
11D
330
11C
100
AcDbEntity
  8
0
 62
    29
100
AcDbVertex
100
AcDb2dVertex
 10
186.1191670603375
 20
158.0758990556415
 30
0.0
  0
VERTEX
  5
11E
330
11C
100
AcDbEntity
  8
0
 62
    29
100
AcDbVertex
100
AcDb2dVertex
 10
194.1155834663424
 20
150.0793103947487
 30
0.0
  0
SEQEND
  5
11F
330
11C
100
AcDbEntity
  8
0
  0
POLYLINE
  5
120
330
1F
100
AcDbEntity
  8
0
 62
    29
100
AcDb2dPolyline
 66
     1
 10
0.0
 20
0.0
 30
0.0
  0
VERTEX
  5
121
330
120
100
AcDbEntity
  8
0
 62
    29
100
AcDbVertex
100
AcDb2dVertex
 10
127.2190197120182
 20
242.708687342392
 30
0.0
  0
VERTEX
  5
122
330
120
100
AcDbEntity
  8
0
 62
    29
100
AcDbVertex
100
AcDb2dVertex
 10
119.2222587962375
 20
242.708687342392
 30
0.0
  0
SEQEND
  5
123
330
120
100
AcDbEntity
  8
0
  0
POLYLINE
  5
124
330
1F
100
AcDbEntity
  8
0
 62
    29
100
AcDb2dPolyline
 66
     1
 10
0.0
 20
0.0
 30
0.0
  0
VERTEX
  5
125
330
124
100
AcDbEntity
  8
0
 62
    29
100
AcDbVertex
100
AcDb2dVertex
 10
129.2178654311875
 20
224.2167806167569
 30
0.0
  0
VERTEX
  5
126
330
124
100
AcDbEntity
  8
0
 62
    29
100
AcDbVertex
100
AcDb2dVertex
 10
129.2178654311875
 20
240.7096693683348
 30
0.0
  0
SEQEND
  5
127
330
124
100
AcDbEntity
  8
0
  0
SPLINE
  5
128
330
1F
100
AcDbEntity
  8
0
 62
    29
100
AcDbSpline
210
0.0
220
0.0
230
1.0
 70
    11
 71
     3
 72
    23
 73
    19
 74
     0
 42
0.0000000001
 43
0.0000000001
 40
0.0
 40
0.0
 40
0.0
 40
0.0
 40
1.0
 40
1.0
 40
1.0
 40
2.0
 40
2.0
 40
2.0
 40
3.0
 40
3.0
 40
3.0
 40
4.0
 40
4.0
 40
4.0
 40
5.0
 40
5.0
 40
5.0
 40
6.0
 40
6.0
 40
6.0
 40
6.0
 10
126.4693664398857
 20
232.713080707442
 30
0.0
 10
126.4693664398857
 20
233.9552107040751
 30
0.0
 10
125.4620198554577
 20
234.9620405238394
 30
0.0
 10
124.2204066234883
 20
234.9620405238394
 30
0.0
 10
122.9781043719673
 20
234.9620405238394
 30
0.0
 10
121.9711022973151
 20
233.9552107040751
 30
0.0
 10
121.9711022973151
 20
232.713080707442
 30
0.0
 10
121.9711022973151
 20
231.4709507108089
 30
0.0
 10
122.9781043719673
 20
230.4641208910446
 30
0.0
 10
124.2204066234883
 20
230.4641208910446
 30
0.0
 10
125.4620198554577
 20
230.4641208910446
 30
0.0
 10
126.4693664398857
 20
231.4709507108089
 30
0.0
 10
126.4693664398857
 20
232.713080707442
 30
0.0
 10
126.4693664398857
 20
232.713080707442
 30
0.0
 10
126.4693664398857
 20
232.713080707442
 30
0.0
 10
126.4693664398857
 20
232.713080707442
 30
0.0
 10
126.4693664398857
 20
232.713080707442
 30
0.0
 10
126.4693664398857
 20
232.713080707442
 30
0.0
 10
126.4693664398857
 20
232.713080707442
 30
0.0
  0
SPLINE
  5
129
330
1F
100
AcDbEntity
  8
0
 62
    29
100
AcDbSpline
210
0.0
220
0.0
230
1.0
 70
     8
 71
     3
 72
    14
 73
    10
 74
     0
 42
0.0000000001
 43
0.0000000001
 40
0.0
 40
0.0
 40
0.0
 40
0.0
 40
1.0
 40
1.0
 40
1.0
 40
2.0
 40
2.0
 40
2.0
 40
3.0
 40
3.0
 40
3.0
 40
3.0
 10
124.2204066234883
 20
236.7112889104444
 30
0.0
 10
122.0120989606349
 20
236.7112889104444
 30
0.0
 10
120.222026165598
 20
234.9212161154075
 30
0.0
 10
120.222026165598
 20
232.713080707442
 30
0.0
 10
120.222026165598
 20
230.5049452994764
 30
0.0
 10
122.0120989606349
 20
228.7148725044396
 30
0.0
 10
124.2204066234883
 20
228.7148725044396
 30
0.0
 10
124.2204066234883
 20
228.7148725044396
 30
0.0
 10
124.2204066234883
 20
228.7148725044396
 30
0.0
 10
124.2204066234883
 20
228.7148725044396
 30
0.0
  0
POLYLINE
  5
12A
330
1F
100
AcDbEntity
  8
0
 62
    29
100
AcDb2dPolyline
 66
     1
 10
0.0
 20
0.0
 30
0.0
  0
VERTEX
  5
12B
330
12A
100
AcDbEntity
  8
0
 62
    29
100
AcDbVertex
100
AcDb2dVertex
 10
129.2178654311875
 20
236.7112889104444
 30
0.0
  0
VERTEX
  5
12C
330
12A
100
AcDbEntity
  8
0
 62
    29
100
AcDbVertex
100
AcDb2dVertex
 10
124.2204066234883
 20
236.7112889104444
 30
0.0
  0
SEQEND
  5
12D
330
12A
100
AcDbEntity
  8
0
  0
POLYLINE
  5
12E
330
1F
100
AcDbEntity
  8
0
 62
    29
100
AcDb2dPolyline
 66
     1
 10
0.0
 20
0.0
 30
0.0
  0
VERTEX
  5
12F
330
12E
100
AcDbEntity
  8
0
 62
    29
100
AcDbVertex
100
AcDb2dVertex
 10
129.2178654311875
 20
228.7148725044396
 30
0.0
  0
VERTEX
  5
130
330
12E
100
AcDbEntity
  8
0
 62
    29
100
AcDbVertex
100
AcDb2dVertex
 10
124.2204066234883
 20
228.7148725044396
 30
0.0
  0
SEQEND
  5
131
330
12E
100
AcDbEntity
  8
0
  0
SPLINE
  5
132
330
1F
100
AcDbEntity
  8
0
 62
    29
100
AcDbSpline
210
0.0
220
0.0
230
1.0
 70
    11
 71
     3
 72
    23
 73
    19
 74
     0
 42
0.0000000001
 43
0.0000000001
 40
0.0
 40
0.0
 40
0.0
 40
0.0
 40
1.0
 40
1.0
 40
1.0
 40
2.0
 40
2.0
 40
2.0
 40
3.0
 40
3.0
 40
3.0
 40
4.0
 40
4.0
 40
4.0
 40
5.0
 40
5.0
 40
5.0
 40
6.0
 40
6.0
 40
6.0
 40
6.0
 10
16.51717669077152
 20
232.713080707442
 30
0.0
 10
16.51717669077152
 20
233.9552107040751
 30
0.0
 10
15.51034687100721
 20
234.9620405238394
 30
0.0
 10
14.26821687437413
 20
234.9620405238394
 30
0.0
 10
13.02608687774104
 20
234.9620405238394
 30
0.0
 10
12.01925705797674
 20
233.9552107040751
 30
0.0
 10
12.01925705797674
 20
232.713080707442
 30
0.0
 10
12.01925705797674
 20
231.4709507108089
 30
0.0
 10
13.02608687774104
 20
230.4641208910446
 30
0.0
 10
14.26821687437413
 20
230.4641208910446
 30
0.0
 10
15.51034687100721
 20
230.4641208910446
 30
0.0
 10
16.51717669077152
 20
231.4709507108089
 30
0.0
 10
16.51717669077152
 20
232.713080707442
 30
0.0
 10
16.51717669077152
 20
232.713080707442
 30
0.0
 10
16.51717669077152
 20
232.713080707442
 30
0.0
 10
16.51717669077152
 20
232.713080707442
 30
0.0
 10
16.51717669077152
 20
232.713080707442
 30
0.0
 10
16.51717669077152
 20
232.713080707442
 30
0.0
 10
16.51717669077152
 20
232.713080707442
 30
0.0
  0
SPLINE
  5
133
330
1F
100
AcDbEntity
  8
0
 62
    29
100
AcDbSpline
210
0.0
220
0.0
230
1.0
 70
     8
 71
     3
 72
    14
 73
    10
 74
     0
 42
0.0000000001
 43
0.0000000001
 40
0.0
 40
0.0
 40
0.0
 40
0.0
 40
1.0
 40
1.0
 40
1.0
 40
2.0
 40
2.0
 40
2.0
 40
3.0
 40
3.0
 40
3.0
 40
3.0
 10
14.26821687437413
 20
228.7148725044396
 30
0.0
 10
16.47635228233967
 20
228.7148725044396
 30
0.0
 10
18.26642507737657
 20
230.5049452994764
 30
0.0
 10
18.26642507737657
 20
232.713080707442
 30
0.0
 10
18.26642507737657
 20
234.9212161154075
 30
0.0
 10
16.47635228233967
 20
236.7112889104444
 30
0.0
 10
14.26821687437413
 20
236.7112889104444
 30
0.0
 10
14.26821687437413
 20
236.7112889104444
 30
0.0
 10
14.26821687437413
 20
236.7112889104444
 30
0.0
 10
14.26821687437413
 20
236.7112889104444
 30
0.0
  0
POLYLINE
  5
134
330
1F
100
AcDbEntity
  8
0
 62
    29
100
AcDb2dPolyline
 66
     1
 10
0.0
 20
0.0
 30
0.0
  0
VERTEX
  5
135
330
134
100
AcDbEntity
  8
0
 62
    29
100
AcDbVertex
100
AcDb2dVertex
 10
9.270413556899108
 20
236.7112889104444
 30
0.0
  0
VERTEX
  5
136
330
134
100
AcDbEntity
  8
0
 62
    29
100
AcDbVertex
100
AcDb2dVertex
 10
14.26821687437413
 20
236.7112889104444
 30
0.0
  0
SEQEND
  5
137
330
134
100
AcDbEntity
  8
0
  0
POLYLINE
  5
138
330
1F
100
AcDbEntity
  8
0
 62
    29
100
AcDb2dPolyline
 66
     1
 10
0.0
 20
0.0
 30
0.0
  0
VERTEX
  5
139
330
138
100
AcDbEntity
  8
0
 62
    29
100
AcDbVertex
100
AcDb2dVertex
 10
9.270413556899108
 20
228.7148725044396
 30
0.0
  0
VERTEX
  5
13A
330
138
100
AcDbEntity
  8
0
 62
    29
100
AcDbVertex
100
AcDb2dVertex
 10
14.26821687437413
 20
228.7148725044396
 30
0.0
  0
SEQEND
  5
13B
330
138
100
AcDbEntity
  8
0
  0
SPLINE
  5
13C
330
1F
100
AcDbEntity
  8
0
 62
    29
100
AcDbSpline
210
0.0
220
0.0
230
1.0
 70
     8
 71
     3
 72
    11
 73
     7
 74
     0
 42
0.0000000001
 43
0.0000000001
 40
0.0
 40
0.0
 40
0.0
 40
0.0
 40
1.0
 40
1.0
 40
1.0
 40
2.0
 40
2.0
 40
2.0
 40
2.0
 10
182.121131112223
 20
179.0667074400142
 30
0.0
 10
181.0169772807963
 20
179.0667074400142
 30
0.0
 10
180.1219408832778
 20
178.1716710424957
 30
0.0
 10
180.1219408832778
 20
177.067517211069
 30
0.0
 10
180.1219408832778
 20
177.067517211069
 30
0.0
 10
180.1219408832778
 20
177.067517211069
 30
0.0
 10
180.1219408832778
 20
177.067517211069
 30
0.0
  0
SPLINE
  5
13D
330
1F
100
AcDbEntity
  8
0
 62
    29
100
AcDbSpline
210
0.0
220
0.0
230
1.0
 70
     8
 71
     3
 72
    11
 73
     7
 74
     0
 42
0.0000000001
 43
0.0000000001
 40
0.0
 40
0.0
 40
0.0
 40
0.0
 40
1.0
 40
1.0
 40
1.0
 40
2.0
 40
2.0
 40
2.0
 40
2.0
 10
129.2178654311875
 20
177.067517211069
 30
0.0
 10
129.2178654311875
 20
178.1716710424957
 30
0.0
 10
128.3228290336691
 20
179.0667074400142
 30
0.0
 10
127.2190197120182
 20
179.0667074400142
 30
0.0
 10
127.2190197120182
 20
179.0667074400142
 30
0.0
 10
127.2190197120182
 20
179.0667074400142
 30
0.0
 10
127.2190197120182
 20
179.0667074400142
 30
0.0
  0
SPLINE
  5
13E
330
1F
100
AcDbEntity
  8
0
 62
    29
100
AcDbSpline
210
0.0
220
0.0
230
1.0
 70
     8
 71
     3
 72
    11
 73
     7
 74
     0
 42
0.0000000001
 43
0.0000000001
 40
0.0
 40
0.0
 40
0.0
 40
0.0
 40
1.0
 40
1.0
 40
1.0
 40
2.0
 40
2.0
 40
2.0
 40
2.0
 10
11.26943153095638
 20
179.0667074400142
 30
0.0
 10
10.16544995441755
 20
179.0667074400142
 30
0.0
 10
9.270413556899108
 20
178.1716710424957
 30
0.0
 10
9.270413556899108
 20
177.067517211069
 30
0.0
 10
9.270413556899108
 20
177.067517211069
 30
0.0
 10
9.270413556899108
 20
177.067517211069
 30
0.0
 10
9.270413556899108
 20
177.067517211069
 30
0.0
  0
POLYLINE
  5
13F
330
1F
100
AcDbEntity
  8
0
 62
    29
100
AcDb2dPolyline
 66
     1
 10
0.0
 20
0.0
 30
0.0
  0
VERTEX
  5
140
330
13F
100
AcDbEntity
  8
0
 62
    29
100
AcDbVertex
100
AcDb2dVertex
 10
181.6212474275428
 20
177.5672286408613
 30
0.0
  0
VERTEX
  5
141
330
13F
100
AcDbEntity
  8
0
 62
    29
100
AcDbVertex
100
AcDb2dVertex
 10
181.6212474275428
 20
169.3208703925164
 30
0.0
  0
SEQEND
  5
142
330
13F
100
AcDbEntity
  8
0
  0
POLYLINE
  5
143
330
1F
100
AcDbEntity
  8
0
 62
    29
100
AcDb2dPolyline
 66
     1
 10
0.0
 20
0.0
 30
0.0
  0
VERTEX
  5
144
330
143
100
AcDbEntity
  8
0
 62
    29
100
AcDbVertex
100
AcDb2dVertex
 10
184.6198605160726
 20
177.5672286408613
 30
0.0
  0
VERTEX
  5
145
330
143
100
AcDbEntity
  8
0
 62
    29
100
AcDbVertex
100
AcDb2dVertex
 10
184.6198605160726
 20
169.3208703925164
 30
0.0
  0
SEQEND
  5
146
330
143
100
AcDbEntity
  8
0
  0
POLYLINE
  5
147
330
1F
100
AcDbEntity
  8
0
 62
    29
100
AcDb2dPolyline
 66
     1
 10
0.0
 20
0.0
 30
0.0
  0
VERTEX
  5
148
330
147
100
AcDbEntity
  8
0
 62
    29
100
AcDbVertex
100
AcDb2dVertex
 10
181.6212474275428
 20
177.5672286408613
 30
0.0
  0
VERTEX
  5
149
330
147
100
AcDbEntity
  8
0
 62
    29
100
AcDbVertex
100
AcDb2dVertex
 10
184.6198605160726
 20
177.5672286408613
 30
0.0
  0
SEQEND
  5
14A
330
147
100
AcDbEntity
  8
0
  0
POLYLINE
  5
14B
330
1F
100
AcDbEntity
  8
0
 62
    29
100
AcDb2dPolyline
 66
     1
 10
0.0
 20
0.0
 30
0.0
  0
VERTEX
  5
14C
330
14B
100
AcDbEntity
  8
0
 62
    29
100
AcDbVertex
100
AcDb2dVertex
 10
181.6212474275428
 20
136.5853792414765
 30
0.0
  0
VERTEX
  5
14D
330
14B
100
AcDbEntity
  8
0
 62
    29
100
AcDbVertex
100
AcDb2dVertex
 10
181.6212474275428
 20
148.5800038504838
 30
0.0
  0
SEQEND
  5
14E
330
14B
100
AcDbEntity
  8
0
  0
POLYLINE
  5
14F
330
1F
100
AcDbEntity
  8
0
 62
    29
100
AcDb2dPolyline
 66
     1
 10
0.0
 20
0.0
 30
0.0
  0
VERTEX
  5
150
330
14F
100
AcDbEntity
  8
0
 62
    29
100
AcDbVertex
100
AcDb2dVertex
 10
181.6212474275428
 20
148.5800038504838
 30
0.0
  0
VERTEX
  5
151
330
14F
100
AcDbEntity
  8
0
 62
    29
100
AcDbVertex
100
AcDb2dVertex
 10
184.6198605160726
 20
148.5800038504838
 30
0.0
  0
SEQEND
  5
152
330
14F
100
AcDbEntity
  8
0
  0
POLYLINE
  5
153
330
1F
100
AcDbEntity
  8
0
 62
    29
100
AcDb2dPolyline
 66
     1
 10
0.0
 20
0.0
 30
0.0
  0
VERTEX
  5
154
330
153
100
AcDbEntity
  8
0
 62
    29
100
AcDbVertex
100
AcDb2dVertex
 10
181.6212474275428
 20
159.5752055999064
 30
0.0
  0
VERTEX
  5
155
330
153
100
AcDbEntity
  8
0
 62
    29
100
AcDbVertex
100
AcDb2dVertex
 10
184.6198605160726
 20
159.5752055999064
 30
0.0
  0
SEQEND
  5
156
330
153
100
AcDbEntity
  8
0
  0
POLYLINE
  5
157
330
1F
100
AcDbEntity
  8
0
  6
AI-LINETYPE-1
 62
    29
100
AcDb2dPolyline
 66
     1
 10
0.0
 20
0.0
 30
0.0
  0
VERTEX
  5
158
330
157
100
AcDbEntity
  8
0
  6
AI-LINETYPE-1
 62
    29
100
AcDbVertex
100
AcDb2dVertex
 10
111.7257260749128
 20
214.6747211016425
 30
0.0
  0
VERTEX
  5
159
330
157
100
AcDbEntity
  8
0
  6
AI-LINETYPE-1
 62
    29
100
AcDbVertex
100
AcDb2dVertex
 10
111.7257260749128
 20
219.5915646218054
 30
0.0
  0
SEQEND
  5
15A
330
157
100
AcDbEntity
  8
0
  6
AI-LINETYPE-1
  0
POLYLINE
  5
15C
330
1F
100
AcDbEntity
  8
0
 62
    29
100
AcDb2dPolyline
 66
     1
 10
0.0
 20
0.0
 30
0.0
  0
VERTEX
  5
15D
330
15C
100
AcDbEntity
  8
0
 62
    29
100
AcDbVertex
100
AcDb2dVertex
 10
119.2222587962375
 20
242.2089759125997
 30
0.0
  0
VERTEX
  5
15E
330
15C
100
AcDbEntity
  8
0
 62
    29
100
AcDbVertex
100
AcDb2dVertex
 10
119.2222587962375
 20
242.708687342392
 30
0.0
  0
SEQEND
  5
15F
330
15C
100
AcDbEntity
  8
0
  0
POLYLINE
  5
160
330
1F
100
AcDbEntity
  8
0
 62
    29
100
AcDb2dPolyline
 66
     1
 10
0.0
 20
0.0
 30
0.0
  0
VERTEX
  5
161
330
160
100
AcDbEntity
  8
0
 62
    29
100
AcDbVertex
100
AcDb2dVertex
 10
19.26602019184915
 20
242.2089759125997
 30
0.0
  0
VERTEX
  5
162
330
160
100
AcDbEntity
  8
0
 62
    29
100
AcDbVertex
100
AcDb2dVertex
 10
19.26602019184915
 20
242.708687342392
 30
0.0
  0
SEQEND
  5
163
330
160
100
AcDbEntity
  8
0
  0
POLYLINE
  5
164
330
1F
100
AcDbEntity
  8
0
 62
    29
100
AcDb2dPolyline
 66
     1
 10
0.0
 20
0.0
 30
0.0
  0
VERTEX
  5
165
330
164
100
AcDbEntity
  8
0
 62
    29
100
AcDbVertex
100
AcDb2dVertex
 10
19.26602019184915
 20
242.708687342392
 30
0.0
  0
VERTEX
  5
166
330
164
100
AcDbEntity
  8
0
 62
    29
100
AcDbVertex
100
AcDb2dVertex
 10
11.26943153095638
 20
242.708687342392
 30
0.0
  0
SEQEND
  5
167
330
164
100
AcDbEntity
  8
0
  0
POLYLINE
  5
168
330
1F
100
AcDbEntity
  8
0
 62
    29
100
AcDb2dPolyline
 66
     1
 10
0.0
 20
0.0
 30
0.0
  0
VERTEX
  5
169
330
168
100
AcDbEntity
  8
0
 62
    29
100
AcDbVertex
100
AcDb2dVertex
 10
200.1131541531779
 20
128.5886183256958
 30
0.0
  0
VERTEX
  5
16A
330
168
100
AcDbEntity
  8
0
 62
    29
100
AcDbVertex
100
AcDb2dVertex
 10
180.1219408832778
 20
128.5886183256958
 30
0.0
  0
SEQEND
  5
16B
330
168
100
AcDbEntity
  8
0
  0
POLYLINE
  5
16C
330
1F
100
AcDbEntity
  8
0
 62
    29
100
AcDb2dPolyline
 66
     1
 10
0.0
 20
0.0
 30
0.0
  0
VERTEX
  5
16D
330
16C
100
AcDbEntity
  8
0
 62
    29
100
AcDbVertex
100
AcDb2dVertex
 10
194.1155834663424
 20
136.5853792414765
 30
0.0
  0
VERTEX
  5
16E
330
16C
100
AcDbEntity
  8
0
 62
    29
100
AcDbVertex
100
AcDb2dVertex
 10
186.1191670603375
 20
136.5853792414765
 30
0.0
  0
SEQEND
  5
16F
330
16C
100
AcDbEntity
  8
0
  0
POLYLINE
  5
170
330
1F
100
AcDbEntity
  8
0
 62
    29
100
AcDb2dPolyline
 66
     1
 10
0.0
 20
0.0
 30
0.0
  0
VERTEX
  5
171
330
170
100
AcDbEntity
  8
0
 62
    29
100
AcDbVertex
100
AcDb2dVertex
 10
129.2178654311875
 20
128.5886183256958
 30
0.0
  0
VERTEX
  5
172
330
170
100
AcDbEntity
  8
0
 62
    29
100
AcDbVertex
100
AcDb2dVertex
 10
119.2222587962375
 20
128.5886183256958
 30
0.0
  0
SEQEND
  5
173
330
170
100
AcDbEntity
  8
0
  0
POLYLINE
  5
174
330
1F
100
AcDbEntity
  8
0
 62
    29
100
AcDb2dPolyline
 66
     1
 10
0.0
 20
0.0
 30
0.0
  0
VERTEX
  5
175
330
174
100
AcDbEntity
  8
0
 62
    29
100
AcDbVertex
100
AcDb2dVertex
 10
9.270413556899108
 20
128.5886183256958
 30
0.0
  0
VERTEX
  5
176
330
174
100
AcDbEntity
  8
0
 62
    29
100
AcDbVertex
100
AcDb2dVertex
 10
19.26602019184915
 20
128.5886183256958
 30
0.0
  0
SEQEND
  5
177
330
174
100
AcDbEntity
  8
0
  0
POLYLINE
  5
178
330
1F
100
AcDbEntity
  8
0
 62
    29
100
AcDb2dPolyline
 66
     1
 10
0.0
 20
0.0
 30
0.0
  0
VERTEX
  5
179
330
178
100
AcDbEntity
  8
0
 62
    29
100
AcDbVertex
100
AcDb2dVertex
 10
184.6198605160726
 20
136.5853792414765
 30
0.0
  0
VERTEX
  5
17A
330
178
100
AcDbEntity
  8
0
 62
    29
100
AcDbVertex
100
AcDb2dVertex
 10
181.6212474275428
 20
136.5853792414765
 30
0.0
  0
SEQEND
  5
17B
330
178
100
AcDbEntity
  8
0
  0
POLYLINE
  5
17C
330
1F
100
AcDbEntity
  8
0
 62
    29
100
AcDb2dPolyline
 66
     1
 10
0.0
 20
0.0
 30
0.0
  0
VERTEX
  5
17D
330
17C
100
AcDbEntity
  8
0
 62
    29
100
AcDbVertex
100
AcDb2dVertex
 10
81.23902248538248
 20
129.0885020103761
 30
0.0
  0
VERTEX
  5
17E
330
17C
100
AcDbEntity
  8
0
 62
    29
100
AcDbVertex
100
AcDb2dVertex
 10
119.2222587962375
 20
129.0885020103761
 30
0.0
  0
SEQEND
  5
17F
330
17C
100
AcDbEntity
  8
0
  0
SPLINE
  5
180
330
1F
100
AcDbEntity
  8
0
 62
    29
100
AcDbSpline
210
0.0
220
0.0
230
1.0
 70
     8
 71
     3
 72
    11
 73
     7
 74
     0
 42
0.0000000001
 43
0.0000000001
 40
0.0
 40
0.0
 40
0.0
 40
0.0
 40
1.0
 40
1.0
 40
1.0
 40
2.0
 40
2.0
 40
2.0
 40
2.0
 10
129.2178654311875
 20
240.7096693683348
 30
0.0
 10
129.2178654311875
 20
241.8136509448736
 30
0.0
 10
128.3228290336691
 20
242.708687342392
 30
0.0
 10
127.2190197120182
 20
242.708687342392
 30
0.0
 10
127.2190197120182
 20
242.708687342392
 30
0.0
 10
127.2190197120182
 20
242.708687342392
 30
0.0
 10
127.2190197120182
 20
242.708687342392
 30
0.0
  0
SPLINE
  5
181
330
1F
100
AcDbEntity
  8
0
 62
    29
100
AcDbSpline
210
0.0
220
0.0
230
1.0
 70
     8
 71
     3
 72
    11
 73
     7
 74
     0
 42
0.0000000001
 43
0.0000000001
 40
0.0
 40
0.0
 40
0.0
 40
0.0
 40
1.0
 40
1.0
 40
1.0
 40
2.0
 40
2.0
 40
2.0
 40
2.0
 10
11.26943153095638
 20
242.708687342392
 30
0.0
 10
10.16544995441755
 20
242.708687342392
 30
0.0
 10
9.270413556899108
 20
241.8136509448736
 30
0.0
 10
9.270413556899108
 20
240.7096693683348
 30
0.0
 10
9.270413556899108
 20
240.7096693683348
 30
0.0
 10
9.270413556899108
 20
240.7096693683348
 30
0.0
 10
9.270413556899108
 20
240.7096693683348
 30
0.0
  0
POLYLINE
  5
182
330
1F
100
AcDbEntity
  8
0
 62
    29
100
AcDb2dPolyline
 66
     1
 10
0.0
 20
0.0
 30
0.0
  0
VERTEX
  5
183
330
182
100
AcDbEntity
  8
0
 62
    29
100
AcDbVertex
100
AcDb2dVertex
 10
200.1131541531779
 20
177.067517211069
 30
0.0
  0
VERTEX
  5
184
330
182
100
AcDbEntity
  8
0
 62
    29
100
AcDbVertex
100
AcDb2dVertex
 10
200.1131541531779
 20
171.5700024638016
 30
0.0
  0
SEQEND
  5
185
330
182
100
AcDbEntity
  8
0
  0
SPLINE
  5
186
330
1F
100
AcDbEntity
  8
0
 62
    29
100
AcDbSpline
210
0.0
220
0.0
230
1.0
 70
     8
 71
     3
 72
    11
 73
     7
 74
     0
 42
0.0000000001
 43
0.0000000001
 40
0.0
 40
0.0
 40
0.0
 40
0.0
 40
1.0
 40
1.0
 40
1.0
 40
2.0
 40
2.0
 40
2.0
 40
2.0
 10
200.1131541531779
 20
177.067517211069
 30
0.0
 10
200.1131541531779
 20
178.1716710424957
 30
0.0
 10
199.2181177556595
 20
179.0667074400142
 30
0.0
 10
198.1139639242328
 20
179.0667074400142
 30
0.0
 10
198.1139639242328
 20
179.0667074400142
 30
0.0
 10
198.1139639242328
 20
179.0667074400142
 30
0.0
 10
198.1139639242328
 20
179.0667074400142
 30
0.0
  0
POLYLINE
  5
187
330
1F
100
AcDbEntity
  8
0
 62
    29
100
AcDb2dPolyline
 66
     1
 10
0.0
 20
0.0
 30
0.0
  0
VERTEX
  5
188
330
187
100
AcDbEntity
  8
0
 62
    29
100
AcDbVertex
100
AcDb2dVertex
 10
181.6212474275428
 20
169.3208703925164
 30
0.0
  0
VERTEX
  5
189
330
187
100
AcDbEntity
  8
0
 62
    29
100
AcDbVertex
100
AcDb2dVertex
 10
184.6198605160726
 20
169.3208703925164
 30
0.0
  0
SEQEND
  5
18A
330
187
100
AcDbEntity
  8
0
  0
POLYLINE
  5
18B
330
1F
100
AcDbEntity
  8
0
 62
    29
100
AcDb2dPolyline
 66
     1
 10
0.0
 20
0.0
 30
0.0
  0
VERTEX
  5
18C
330
18B
100
AcDbEntity
  8
0
 62
    29
100
AcDbVertex
100
AcDb2dVertex
 10
181.6212474275428
 20
167.8215638482514
 30
0.0
  0
VERTEX
  5
18D
330
18B
100
AcDbEntity
  8
0
 62
    29
100
AcDbVertex
100
AcDb2dVertex
 10
184.6198605160726
 20
167.8215638482514
 30
0.0
  0
SEQEND
  5
18E
330
18B
100
AcDbEntity
  8
0
  0
POLYLINE
  5
18F
330
1F
100
AcDbEntity
  8
0
 62
    29
100
AcDb2dPolyline
 66
     1
 10
0.0
 20
0.0
 30
0.0
  0
VERTEX
  5
190
330
18F
100
AcDbEntity
  8
0
 62
    29
100
AcDbVertex
100
AcDb2dVertex
 10
184.6198605160726
 20
167.8215638482514
 30
0.0
  0
VERTEX
  5
191
330
18F
100
AcDbEntity
  8
0
 62
    29
100
AcDbVertex
100
AcDb2dVertex
 10
184.6198605160726
 20
159.5752055999064
 30
0.0
  0
SEQEND
  5
192
330
18F
100
AcDbEntity
  8
0
  0
POLYLINE
  5
193
330
1F
100
AcDbEntity
  8
0
 62
    29
100
AcDb2dPolyline
 66
     1
 10
0.0
 20
0.0
 30
0.0
  0
VERTEX
  5
194
330
193
100
AcDbEntity
  8
0
 62
    29
100
AcDbVertex
100
AcDb2dVertex
 10
181.6212474275428
 20
167.8215638482514
 30
0.0
  0
VERTEX
  5
195
330
193
100
AcDbEntity
  8
0
 62
    29
100
AcDbVertex
100
AcDb2dVertex
 10
181.6212474275428
 20
159.5752055999064
 30
0.0
  0
SEQEND
  5
196
330
193
100
AcDbEntity
  8
0
  0
POLYLINE
  5
197
330
1F
100
AcDbEntity
  8
0
 62
    29
100
AcDb2dPolyline
 66
     1
 10
0.0
 20
0.0
 30
0.0
  0
VERTEX
  5
198
330
197
100
AcDbEntity
  8
0
 62
    29
100
AcDbVertex
100
AcDb2dVertex
 10
184.6198605160726
 20
148.5800038504838
 30
0.0
  0
VERTEX
  5
199
330
197
100
AcDbEntity
  8
0
 62
    29
100
AcDbVertex
100
AcDb2dVertex
 10
184.6198605160726
 20
136.5853792414765
 30
0.0
  0
SEQEND
  5
19A
330
197
100
AcDbEntity
  8
0
  0
SPLINE
  5
19B
330
1F
100
AcDbEntity
  8
0
 62
    29
100
AcDbSpline
210
0.0
220
0.0
230
1.0
 70
     8
 71
     3
 72
    11
 73
     7
 74
     0
 42
0.0000000001
 43
0.0000000001
 40
0.0
 40
0.0
 40
0.0
 40
0.0
 40
1.0
 40
1.0
 40
1.0
 40
2.0
 40
2.0
 40
2.0
 40
2.0
 10
80.23942737090989
 20
94.61237521712606
 30
0.0
 10
80.34295255853664
 20
94.47422679703179
 30
0.0
 10
80.53863411118886
 20
94.4463215051923
 30
0.0
 10
80.67661027639522
 20
94.55001894770695
 30
0.0
 10
80.69590282383982
 20
94.5631103191872
 30
0.0
 10
80.72587517433408
 20
94.59308266968147
 30
0.0
 10
80.73913880070224
 20
94.61237521712606
 30
0.0
  0
SPLINE
  5
19C
330
1F
100
AcDbEntity
  8
0
 62
    29
100
AcDbSpline
210
0.0
220
0.0
230
1.0
 70
     8
 71
     3
 72
    11
 73
     7
 74
     0
 42
0.0000000001
 43
0.0000000001
 40
0.0
 40
0.0
 40
0.0
 40
0.0
 40
1.0
 40
1.0
 40
1.0
 40
2.0
 40
2.0
 40
2.0
 40
2.0
 10
80.73913880070224
 20
94.61237521712606
 30
0.0
 10
80.84266398832898
 20
94.47422679703179
 30
0.0
 10
81.0385177958691
 20
94.4463215051923
 30
0.0
 10
81.17649396107547
 20
94.55001894770695
 30
0.0
 10
81.19578650852006
 20
94.5631103191872
 30
0.0
 10
81.22558660412642
 20
94.59308266968147
 30
0.0
 10
81.23902248538248
 20
94.61237521712606
 30
0.0
  0
SPLINE
  5
19D
330
1F
100
AcDbEntity
  8
0
 62
    29
100
AcDbSpline
210
0.0
220
0.0
230
1.0
 70
     8
 71
     3
 72
    11
 73
     7
 74
     0
 42
0.0000000001
 43
0.0000000001
 40
0.0
 40
0.0
 40
0.0
 40
0.0
 40
1.0
 40
1.0
 40
1.0
 40
2.0
 40
2.0
 40
2.0
 40
2.0
 10
81.23902248538248
 20
94.61237521712606
 30
0.0
 10
81.13549729775572
 20
94.75052363722031
 30
0.0
 10
80.9396434902156
 20
94.77842892905981
 30
0.0
 10
80.80166732500923
 20
94.67473148654516
 30
0.0
 10
80.78237477756466
 20
94.66164011506491
 30
0.0
 10
80.75240242707038
 20
94.63166776457064
 30
0.0
 10
80.73913880070224
 20
94.61237521712606
 30
0.0
  0
POLYLINE
  5
19E
330
1F
100
AcDbEntity
  8
0
 62
    29
100
AcDb2dPolyline
 66
     1
 10
0.0
 20
0.0
 30
0.0
  0
VERTEX
  5
19F
330
19E
100
AcDbEntity
  8
0
 62
    29
100
AcDbVertex
100
AcDb2dVertex
 10
200.1131541531779
 20
171.5700024638016
 30
0.0
  0
VERTEX
  5
1A0
330
19E
100
AcDbEntity
  8
0
 62
    29
100
AcDbVertex
100
AcDb2dVertex
 10
199.6132704684977
 20
171.5700024638016
 30
0.0
  0
SEQEND
  5
1A1
330
19E
100
AcDbEntity
  8
0
  0
POLYLINE
  5
1A2
330
1F
100
AcDbEntity
  8
0
 62
    29
100
AcDb2dPolyline
 66
     1
 10
0.0
 20
0.0
 30
0.0
  0
VERTEX
  5
1A3
330
1A2
100
AcDbEntity
  8
0
 62
    29
100
AcDbVertex
100
AcDb2dVertex
 10
200.1131541531779
 20
136.0854955567962
 30
0.0
  0
VERTEX
  5
1A4
330
1A2
100
AcDbEntity
  8
0
 62
    29
100
AcDbVertex
100
AcDb2dVertex
 10
199.6132704684977
 20
136.0854955567962
 30
0.0
  0
SEQEND
  5
1A5
330
1A2
100
AcDbEntity
  8
0
  0
POLYLINE
  5
1A6
330
1F
100
AcDbEntity
  8
0
 62
    29
100
AcDb2dPolyline
 66
     1
 10
0.0
 20
0.0
 30
0.0
  0
VERTEX
  5
1A7
330
1A6
100
AcDbEntity
  8
0
 62
    29
100
AcDbVertex
100
AcDb2dVertex
 10
199.6132704684977
 20
171.5700024638016
 30
0.0
  0
VERTEX
  5
1A8
330
1A6
100
AcDbEntity
  8
0
 62
    29
100
AcDbVertex
100
AcDb2dVertex
 10
199.6132704684977
 20
136.0854955567962
 30
0.0
  0
SEQEND
  5
1A9
330
1A6
100
AcDbEntity
  8
0
  0
POLYLINE
  5
1AA
330
1F
100
AcDbEntity
  8
0
 62
    29
100
AcDb2dPolyline
 66
     1
 10
0.0
 20
0.0
 30
0.0
  0
VERTEX
  5
1AB
330
1AA
100
AcDbEntity
  8
0
 62
    29
100
AcDbVertex
100
AcDb2dVertex
 10
199.6132704684977
 20
159.0753219152262
 30
0.0
  0
VERTEX
  5
1AC
330
1AA
100
AcDbEntity
  8
0
 62
    29
100
AcDbVertex
100
AcDb2dVertex
 10
200.1131541531779
 20
159.0753219152262
 30
0.0
  0
SEQEND
  5
1AD
330
1AA
100
AcDbEntity
  8
0
  0
POLYLINE
  5
1AE
330
1F
100
AcDbEntity
  8
0
 62
    29
100
AcDb2dPolyline
 66
     1
 10
0.0
 20
0.0
 30
0.0
  0
VERTEX
  5
1AF
330
1AE
100
AcDbEntity
  8
0
 62
    29
100
AcDbVertex
100
AcDb2dVertex
 10
199.6132704684977
 20
149.0797152802761
 30
0.0
  0
VERTEX
  5
1B0
330
1AE
100
AcDbEntity
  8
0
 62
    29
100
AcDbVertex
100
AcDb2dVertex
 10
200.1131541531779
 20
149.0797152802761
 30
0.0
  0
SEQEND
  5
1B1
330
1AE
100
AcDbEntity
  8
0
  0
POLYLINE
  5
1B2
330
1F
100
AcDbEntity
  8
0
 62
    29
100
AcDb2dPolyline
 66
     1
 10
0.0
 20
0.0
 30
0.0
  0
VERTEX
  5
1B3
330
1B2
100
AcDbEntity
  8
0
 62
    29
100
AcDbVertex
100
AcDb2dVertex
 10
200.1131541531779
 20
159.0753219152262
 30
0.0
  0
VERTEX
  5
1B4
330
1B2
100
AcDbEntity
  8
0
 62
    29
100
AcDbVertex
100
AcDb2dVertex
 10
200.1131541531779
 20
149.0797152802761
 30
0.0
  0
SEQEND
  5
1B5
330
1B2
100
AcDbEntity
  8
0
  0
POLYLINE
  5
1B6
330
1F
100
AcDbEntity
  8
0
 62
    29
100
AcDb2dPolyline
 66
     1
 10
0.0
 20
0.0
 30
0.0
  0
VERTEX
  5
1B7
330
1B6
100
AcDbEntity
  8
0
 62
    29
100
AcDbVertex
100
AcDb2dVertex
 10
200.1131541531779
 20
136.0854955567962
 30
0.0
  0
VERTEX
  5
1B8
330
1B6
100
AcDbEntity
  8
0
 62
    29
100
AcDbVertex
100
AcDb2dVertex
 10
200.1131541531779
 20
128.5886183256958
 30
0.0
  0
SEQEND
  5
1B9
330
1B6
100
AcDbEntity
  8
0
  0
SPLINE
  5
1BA
330
1F
100
AcDbEntity
  8
0
 62
    29
100
AcDbSpline
210
0.0
220
0.0
230
1.0
 70
    11
 71
     3
 72
    23
 73
    19
 74
     0
 42
0.0000000001
 43
0.0000000001
 40
0.0
 40
0.0
 40
0.0
 40
0.0
 40
1.0
 40
1.0
 40
1.0
 40
2.0
 40
2.0
 40
2.0
 40
3.0
 40
3.0
 40
3.0
 40
4.0
 40
4.0
 40
4.0
 40
5.0
 40
5.0
 40
5.0
 40
6.0
 40
6.0
 40
6.0
 40
6.0
 10
94.98289548099483
 20
68.76173968048472
 30
0.0
 10
94.98289548099483
 20
76.62827590101445
 30
0.0
 10
88.60584727611985
 20
83.00549636077733
 30
0.0
 10
80.73913880070224
 20
83.00549636077733
 30
0.0
 10
72.87260258017251
 20
83.00549636077733
 30
0.0
 10
66.49538212040963
 20
76.62827590101445
 30
0.0
 10
66.49538212040963
 20
68.76173968048472
 30
0.0
 10
66.49538212040963
 20
60.89520345995501
 30
0.0
 10
72.87260258017251
 20
54.51798300019212
 30
0.0
 10
80.73913880070224
 20
54.51798300019212
 30
0.0
 10
88.60584727611985
 20
54.51798300019212
 30
0.0
 10
94.98289548099483
 20
60.89520345995501
 30
0.0
 10
94.98289548099483
 20
68.76173968048472
 30
0.0
 10
94.98289548099483
 20
68.76173968048472
 30
0.0
 10
94.98289548099483
 20
68.76173968048472
 30
0.0
 10
94.98289548099483
 20
68.76173968048472
 30
0.0
 10
94.98289548099483
 20
68.76173968048472
 30
0.0
 10
94.98289548099483
 20
68.76173968048472
 30
0.0
 10
94.98289548099483
 20
68.76173968048472
 30
0.0
  0
SPLINE
  5
1BB
330
1F
100
AcDbEntity
  8
0
 62
    29
100
AcDbSpline
210
0.0
220
0.0
230
1.0
 70
    11
 71
     3
 72
    23
 73
    19
 74
     0
 42
0.0000000001
 43
0.0000000001
 40
0.0
 40
0.0
 40
0.0
 40
0.0
 40
1.0
 40
1.0
 40
1.0
 40
2.0
 40
2.0
 40
2.0
 40
3.0
 40
3.0
 40
3.0
 40
4.0
 40
4.0
 40
4.0
 40
5.0
 40
5.0
 40
5.0
 40
6.0
 40
6.0
 40
6.0
 40
6.0
 10
83.23804045943975
 20
68.76173968048472
 30
0.0
 10
83.23804045943975
 20
70.14184584232419
 30
0.0
 10
82.11924496254169
 20
71.26081359411013
 30
0.0
 10
80.73913880070224
 20
71.26081359411013
 30
0.0
 10
79.35903263886279
 20
71.26081359411013
 30
0.0
 10
78.24023714196473
 20
70.14184584232419
 30
0.0
 10
78.24023714196473
 20
68.76173968048472
 30
0.0
 10
78.24023714196473
 20
67.38163351864527
 30
0.0
 10
79.35903263886279
 20
66.26301027663511
 30
0.0
 10
80.73913880070224
 20
66.26301027663511
 30
0.0
 10
82.11924496254169
 20
66.26301027663511
 30
0.0
 10
83.23804045943975
 20
67.38163351864527
 30
0.0
 10
83.23804045943975
 20
68.76173968048472
 30
0.0
 10
83.23804045943975
 20
68.76173968048472
 30
0.0
 10
83.23804045943975
 20
68.76173968048472
 30
0.0
 10
83.23804045943975
 20
68.76173968048472
 30
0.0
 10
83.23804045943975
 20
68.76173968048472
 30
0.0
 10
83.23804045943975
 20
68.76173968048472
 30
0.0
 10
83.23804045943975
 20
68.76173968048472
 30
0.0
  0
SPLINE
  5
1BC
330
1F
100
AcDbEntity
  8
0
 62
    29
100
AcDbSpline
210
0.0
220
0.0
230
1.0
 70
    11
 71
     3
 72
    23
 73
    19
 74
     0
 42
0.0000000001
 43
0.0000000001
 40
0.0
 40
0.0
 40
0.0
 40
0.0
 40
1.0
 40
1.0
 40
1.0
 40
2.0
 40
2.0
 40
2.0
 40
3.0
 40
3.0
 40
3.0
 40
4.0
 40
4.0
 40
4.0
 40
5.0
 40
5.0
 40
5.0
 40
6.0
 40
6.0
 40
6.0
 40
6.0
 10
94.48318405120249
 20
68.76173968048472
 30
0.0
 10
94.48318405120249
 20
76.35232357060171
 30
0.0
 10
88.32972269081922
 20
82.50595718587289
 30
0.0
 10
80.73913880070224
 20
82.50595718587289
 30
0.0
 10
73.14855491058525
 20
82.50595718587289
 30
0.0
 10
66.99509355020197
 20
76.35232357060171
 30
0.0
 10
66.99509355020197
 20
68.76173968048472
 30
0.0
 10
66.99509355020197
 20
61.17115579036774
 30
0.0
 10
73.14855491058525
 20
55.01786668487237
 30
0.0
 10
80.73913880070224
 20
55.01786668487237
 30
0.0
 10
88.32972269081922
 20
55.01786668487237
 30
0.0
 10
94.48318405120249
 20
61.17115579036774
 30
0.0
 10
94.48318405120249
 20
68.76173968048472
 30
0.0
 10
94.48318405120249
 20
68.76173968048472
 30
0.0
 10
94.48318405120249
 20
68.76173968048472
 30
0.0
 10
94.48318405120249
 20
68.76173968048472
 30
0.0
 10
94.48318405120249
 20
68.76173968048472
 30
0.0
 10
94.48318405120249
 20
68.76173968048472
 30
0.0
 10
94.48318405120249
 20
68.76173968048472
 30
0.0
  0
SPLINE
  5
1BD
330
1F
100
AcDbEntity
  8
0
 62
    29
100
AcDbSpline
210
0.0
220
0.0
230
1.0
 70
     8
 71
     3
 72
     8
 73
     4
 74
     0
 42
0.0000000001
 43
0.0000000001
 40
0.0
 40
0.0
 40
0.0
 40
0.0
 40
1.0
 40
1.0
 40
1.0
 40
1.0
 10
83.94549128403718
 20
70.16113838976877
 30
0.0
 10
83.70554022519515
 20
70.81398441490251
 30
0.0
 10
82.96673901100026
 20
71.59912219394198
 30
0.0
 10
82.32939592577735
 20
71.87783060256108
 30
0.0
  0
POLYLINE
  5
1BE
330
1F
100
AcDbEntity
  8
0
 62
    29
100
AcDb2dPolyline
 66
     1
 10
0.0
 20
0.0
 30
0.0
  0
VERTEX
  5
1BF
330
1BE
100
AcDbEntity
  8
0
 62
    29
100
AcDbVertex
100
AcDb2dVertex
 10
81.23902248538248
 20
94.61237521712606
 30
0.0
  0
VERTEX
  5
1C0
330
1BE
100
AcDbEntity
  8
0
 62
    29
100
AcDbVertex
100
AcDb2dVertex
 10
81.23902248538248
 20
73.65860163365147
 30
0.0
  0
SEQEND
  5
1C1
330
1BE
100
AcDbEntity
  8
0
  0
POLYLINE
  5
1C2
330
1F
100
AcDbEntity
  8
0
 62
    29
100
AcDb2dPolyline
 66
     1
 10
0.0
 20
0.0
 30
0.0
  0
VERTEX
  5
1C3
330
1C2
100
AcDbEntity
  8
0
 62
    29
100
AcDbVertex
100
AcDb2dVertex
 10
80.23942737090989
 20
94.61237521712606
 30
0.0
  0
VERTEX
  5
1C4
330
1C2
100
AcDbEntity
  8
0
 62
    29
100
AcDbVertex
100
AcDb2dVertex
 10
80.23942737090989
 20
73.34234165947059
 30
0.0
  0
SEQEND
  5
1C5
330
1C2
100
AcDbEntity
  8
0
  0
SPLINE
  5
1C6
330
1F
100
AcDbEntity
  8
0
 62
    29
100
AcDbSpline
210
0.0
220
0.0
230
1.0
 70
     8
 71
     3
 72
     8
 73
     4
 74
     0
 42
0.0000000001
 43
0.0000000001
 40
0.0
 40
0.0
 40
0.0
 40
0.0
 40
1.0
 40
1.0
 40
1.0
 40
1.0
 10
80.23942737090989
 20
73.34234165947059
 30
0.0
 10
80.23115913629079
 20
73.13735834287186
 30
0.0
 10
80.28765873952135
 20
72.7742450391827
 30
0.0
 10
80.35811098867167
 20
72.58131956473686
 30
0.0
  0
SPLINE
  5
1C7
330
1F
100
AcDbEntity
  8
0
 62
    29
100
AcDbSpline
210
0.0
220
0.0
230
1.0
 70
     8
 71
     3
 72
     8
 73
     4
 74
     0
 42
0.0000000001
 43
0.0000000001
 40
0.0
 40
0.0
 40
0.0
 40
0.0
 40
1.0
 40
1.0
 40
1.0
 40
1.0
 10
81.23902248538248
 20
73.65860163365147
 30
0.0
 10
81.23385483874553
 20
73.51838615490243
 30
0.0
 10
81.26796130654935
 20
73.26517146969225
 30
0.0
 10
81.30981924430859
 20
73.13081265713174
 30
0.0
  0
SPLINE
  5
1C8
330
1F
100
AcDbEntity
  8
0
 62
    29
100
AcDbSpline
210
0.0
220
0.0
230
1.0
 70
     8
 71
     3
 72
    11
 73
     7
 74
     0
 42
0.0000000001
 43
0.0000000001
 40
0.0
 40
0.0
 40
0.0
 40
0.0
 40
1.0
 40
1.0
 40
1.0
 40
2.0
 40
2.0
 40
2.0
 40
2.0
 10
83.23804045943975
 20
68.78378830613569
 30
0.0
 10
83.77788727811235
 20
68.8988545712516
 30
0.0
 10
84.12222479902061
 20
69.4300886455293
 30
0.0
 10
84.00698627901679
 20
69.9699354642019
 30
0.0
 10
83.99768451507029
 20
70.02126742079553
 30
0.0
 10
83.96788441946393
 20
70.11394055048469
 30
0.0
 10
83.94549128403718
 20
70.16113838976877
 30
0.0
  0
POLYLINE
  5
1C9
330
1F
100
AcDbEntity
  8
0
 62
    29
100
AcDb2dPolyline
 66
     1
 10
0.0
 20
0.0
 30
0.0
  0
VERTEX
  5
1CA
330
1C9
100
AcDbEntity
  8
0
 62
    29
100
AcDbVertex
100
AcDb2dVertex
 10
78.98989041409719
 20
71.79170315861204
 30
0.0
  0
VERTEX
  5
1CB
330
1C9
100
AcDbEntity
  8
0
 62
    29
100
AcDbVertex
100
AcDb2dVertex
 10
81.33186786995954
 20
73.1435595188362
 30
0.0
  0
SEQEND
  5
1CC
330
1C9
100
AcDbEntity
  8
0
  0
POLYLINE
  5
1CD
330
1F
100
AcDbEntity
  8
0
 62
    29
100
AcDb2dPolyline
 66
     1
 10
0.0
 20
0.0
 30
0.0
  0
VERTEX
  5
1CE
330
1CD
100
AcDbEntity
  8
0
 62
    29
100
AcDbVertex
100
AcDb2dVertex
 10
79.48977409877743
 20
70.92595009203626
 30
0.0
  0
VERTEX
  5
1CF
330
1CD
100
AcDbEntity
  8
0
 62
    29
100
AcDbVertex
100
AcDb2dVertex
 10
81.82296655535698
 20
72.27298331539929
 30
0.0
  0
SEQEND
  5
1D0
330
1CD
100
AcDbEntity
  8
0
  0
SPLINE
  5
1D1
330
1F
100
AcDbEntity
  8
0
 62
    29
100
AcDbSpline
210
0.0
220
0.0
230
1.0
 70
     8
 71
     3
 72
    14
 73
    10
 74
     0
 42
0.0000000001
 43
0.0000000001
 40
0.0
 40
0.0
 40
0.0
 40
0.0
 40
1.0
 40
1.0
 40
1.0
 40
2.0
 40
2.0
 40
2.0
 40
3.0
 40
3.0
 40
3.0
 40
3.0
 10
81.80608557634297
 20
72.26368155145279
 30
0.0
 10
82.05034300738245
 20
72.39252820760055
 30
0.0
 10
82.14387741151111
 20
72.69500779074959
 30
0.0
 10
82.01503075536334
 20
72.93892071201327
 30
0.0
 10
81.88635635410347
 20
73.18317814305276
 30
0.0
 10
81.58404902584233
 20
73.27688480206932
 30
0.0
 10
81.33979159480285
 20
73.14803814592155
 30
0.0
 10
81.33204012484744
 20
73.143904028612
 30
0.0
 10
81.31722620448821
 20
73.13563579399289
 30
0.0
 10
81.30981924430859
 20
73.13081265713174
 30
0.0
  0
SPLINE
  5
1D2
330
1F
100
AcDbEntity
  8
0
 62
    29
100
AcDbSpline
210
0.0
220
0.0
230
1.0
 70
     8
 71
     3
 72
     8
 73
     4
 74
     0
 42
0.0000000001
 43
0.0000000001
 40
0.0
 40
0.0
 40
0.0
 40
0.0
 40
1.0
 40
1.0
 40
1.0
 40
1.0
 10
80.84679810563854
 20
71.70936532219675
 30
0.0
 10
81.03438367855955
 20
71.46820847913944
 30
0.0
 10
81.4526185463761
 20
71.15987222980186
 30
0.0
 10
81.73873391517482
 20
71.05204066997766
 30
0.0
  0
SPLINE
  5
1D3
330
1F
100
AcDbEntity
  8
0
 62
    29
100
AcDbSpline
210
0.0
220
0.0
230
1.0
 70
     8
 71
     3
 72
     8
 73
     4
 74
     0
 42
0.0000000001
 43
0.0000000001
 40
0.0
 40
0.0
 40
0.0
 40
0.0
 40
1.0
 40
1.0
 40
1.0
 40
1.0
 10
81.80625783123087
 20
72.26333704167699
 30
0.0
 10
81.92235762567418
 20
72.13380136597763
 30
0.0
 10
82.1712659386869
 20
71.95052216525407
 30
0.0
 10
82.32939592577735
 20
71.87783060256108
 30
0.0
  0
SPLINE
  5
1D4
330
1F
100
AcDbEntity
  8
0
 62
    29
100
AcDbSpline
210
0.0
220
0.0
230
1.0
 70
     8
 71
     3
 72
     8
 73
     4
 74
     0
 42
0.0000000001
 43
0.0000000001
 40
0.0
 40
0.0
 40
0.0
 40
0.0
 40
1.0
 40
1.0
 40
1.0
 40
1.0
 10
78.98989041409719
 20
71.79170315861204
 30
0.0
 10
78.4217937938093
 20
71.50644906425281
 30
0.0
 10
77.75241129943734
 20
70.75748481167193
 30
0.0
 10
77.53278631736728
 20
70.16113838976877
 30
0.0
  0
SPLINE
  5
1D5
330
1F
100
AcDbEntity
  8
0
 62
    29
100
AcDbSpline
210
0.0
220
0.0
230
1.0
 70
     8
 71
     3
 72
    11
 73
     7
 74
     0
 42
0.0000000001
 43
0.0000000001
 40
0.0
 40
0.0
 40
0.0
 40
0.0
 40
1.0
 40
1.0
 40
1.0
 40
2.0
 40
2.0
 40
2.0
 40
2.0
 10
77.53278631736728
 20
70.16113838976877
 30
0.0
 10
77.31195555108195
 20
69.65539803889999
 30
0.0
 10
77.54312161064118
 20
69.06594181251275
 30
0.0
 10
78.04903421639784
 20
68.8451110462274
 30
0.0
 10
78.09623205568192
 20
68.82306242057645
 30
0.0
 10
78.1889051853711
 20
68.79309007008219
 30
0.0
 10
78.24040939685263
 20
68.78378830613569
 30
0.0
  0
POLYLINE
  5
1D6
330
1F
100
AcDbEntity
  8
0
 62
    29
100
AcDb2dPolyline
 66
     1
 10
0.0
 20
0.0
 30
0.0
  0
VERTEX
  5
1D7
330
1D6
100
AcDbEntity
  8
0
 62
    29
100
AcDbVertex
100
AcDb2dVertex
 10
112.2252652498173
 20
169.0711008050641
 30
0.0
  0
VERTEX
  5
1D8
330
1D6
100
AcDbEntity
  8
0
 62
    29
100
AcDbVertex
100
AcDb2dVertex
 10
88.23584377691476
 20
169.0711008050641
 30
0.0
  0
SEQEND
  5
1D9
330
1D6
100
AcDbEntity
  8
0
  0
POLYLINE
  5
1DA
330
1F
100
AcDbEntity
  8
0
 62
    29
100
AcDb2dPolyline
 66
     1
 10
0.0
 20
0.0
 30
0.0
  0
VERTEX
  5
1DB
330
1DA
100
AcDbEntity
  8
0
 62
    29
100
AcDbVertex
100
AcDb2dVertex
 10
85.23723068838491
 20
166.0723154616464
 30
0.0
  0
VERTEX
  5
1DC
330
1DA
100
AcDbEntity
  8
0
 62
    29
100
AcDbVertex
100
AcDb2dVertex
 10
85.23723068838491
 20
142.0827217338559
 30
0.0
  0
SEQEND
  5
1DD
330
1DA
100
AcDbEntity
  8
0
  0
POLYLINE
  5
1DE
330
1F
100
AcDbEntity
  8
0
 62
    29
100
AcDb2dPolyline
 66
     1
 10
0.0
 20
0.0
 30
0.0
  0
VERTEX
  5
1DF
330
1DE
100
AcDbEntity
  8
0
 62
    29
100
AcDbVertex
100
AcDb2dVertex
 10
88.23584377691476
 20
139.0841086453261
 30
0.0
  0
VERTEX
  5
1E0
330
1DE
100
AcDbEntity
  8
0
 62
    29
100
AcDbVertex
100
AcDb2dVertex
 10
112.2252652498173
 20
139.0841086453261
 30
0.0
  0
SEQEND
  5
1E1
330
1DE
100
AcDbEntity
  8
0
  0
POLYLINE
  5
1E2
330
1F
100
AcDbEntity
  8
0
 62
    29
100
AcDb2dPolyline
 66
     1
 10
0.0
 20
0.0
 30
0.0
  0
VERTEX
  5
1E3
330
1E2
100
AcDbEntity
  8
0
 62
    29
100
AcDbVertex
100
AcDb2dVertex
 10
115.2238783383471
 20
142.0827217338559
 30
0.0
  0
VERTEX
  5
1E4
330
1E2
100
AcDbEntity
  8
0
 62
    29
100
AcDbVertex
100
AcDb2dVertex
 10
115.2238783383471
 20
166.0723154616464
 30
0.0
  0
SEQEND
  5
1E5
330
1E2
100
AcDbEntity
  8
0
  0
SPLINE
  5
1E6
330
1F
100
AcDbEntity
  8
0
 62
    29
100
AcDbSpline
210
0.0
220
0.0
230
1.0
 70
    11
 71
     3
 72
    23
 73
    19
 74
     0
 42
0.0000000001
 43
0.0000000001
 40
0.0
 40
0.0
 40
0.0
 40
0.0
 40
1.0
 40
1.0
 40
1.0
 40
2.0
 40
2.0
 40
2.0
 40
3.0
 40
3.0
 40
3.0
 40
4.0
 40
4.0
 40
4.0
 40
5.0
 40
5.0
 40
5.0
 40
6.0
 40
6.0
 40
6.0
 40
6.0
 10
111.625818239932
 20
154.0775185977512
 30
0.0
 10
111.625818239932
 20
160.3708509271077
 30
0.0
 10
106.5239729701665
 20
165.4725239419853
 30
0.0
 10
100.23064064081
 20
165.4725239419853
 30
0.0
 10
93.93730831145346
 20
165.4725239419853
 30
0.0
 10
88.8356352965759
 20
160.3708509271077
 30
0.0
 10
88.8356352965759
 20
154.0775185977512
 30
0.0
 10
88.8356352965759
 20
147.7843585232825
 30
0.0
 10
93.93730831145346
 20
142.6825132535171
 30
0.0
 10
100.23064064081
 20
142.6825132535171
 30
0.0
 10
106.5239729701665
 20
142.6825132535171
 30
0.0
 10
111.625818239932
 20
147.7843585232825
 30
0.0
 10
111.625818239932
 20
154.0775185977512
 30
0.0
 10
111.625818239932
 20
154.0775185977512
 30
0.0
 10
111.625818239932
 20
154.0775185977512
 30
0.0
 10
111.625818239932
 20
154.0775185977512
 30
0.0
 10
111.625818239932
 20
154.0775185977512
 30
0.0
 10
111.625818239932
 20
154.0775185977512
 30
0.0
 10
111.625818239932
 20
154.0775185977512
 30
0.0
  0
POLYLINE
  5
1E7
330
1F
100
AcDbEntity
  8
0
 62
    29
100
AcDb2dPolyline
 66
     1
 10
0.0
 20
0.0
 30
0.0
  0
VERTEX
  5
1E8
330
1E7
100
AcDbEntity
  8
0
 62
    29
100
AcDbVertex
100
AcDb2dVertex
 10
101.3301435902634
 20
165.9724076266655
 30
0.0
  0
VERTEX
  5
1E9
330
1E7
100
AcDbEntity
  8
0
 62
    29
100
AcDbVertex
100
AcDb2dVertex
 10
101.3301435902634
 20
165.4194694365126
 30
0.0
  0
SEQEND
  5
1EA
330
1E7
100
AcDbEntity
  8
0
  0
POLYLINE
  5
1EB
330
1F
100
AcDbEntity
  8
0
 62
    29
100
AcDb2dPolyline
 66
     1
 10
0.0
 20
0.0
 30
0.0
  0
VERTEX
  5
1EC
330
1EB
100
AcDbEntity
  8
0
 62
    29
100
AcDbVertex
100
AcDb2dVertex
 10
99.1311376913565
 20
165.9724076266655
 30
0.0
  0
VERTEX
  5
1ED
330
1EB
100
AcDbEntity
  8
0
 62
    29
100
AcDbVertex
100
AcDb2dVertex
 10
99.1311376913565
 20
165.4194694365126
 30
0.0
  0
SEQEND
  5
1EE
330
1EB
100
AcDbEntity
  8
0
  0
POLYLINE
  5
1EF
330
1F
100
AcDbEntity
  8
0
 62
    29
100
AcDb2dPolyline
 66
     1
 10
0.0
 20
0.0
 30
0.0
  0
VERTEX
  5
1F0
330
1EF
100
AcDbEntity
  8
0
 62
    29
100
AcDbVertex
100
AcDb2dVertex
 10
99.1311376913565
 20
165.9724076266655
 30
0.0
  0
VERTEX
  5
1F1
330
1EF
100
AcDbEntity
  8
0
 62
    29
100
AcDbVertex
100
AcDb2dVertex
 10
101.3301435902634
 20
165.9724076266655
 30
0.0
  0
SEQEND
  5
1F2
330
1EF
100
AcDbEntity
  8
0
  0
SPLINE
  5
1F3
330
1F
100
AcDbEntity
  8
0
 62
    29
100
AcDbSpline
210
0.0
220
0.0
230
1.0
 70
    11
 71
     3
 72
    23
 73
    19
 74
     0
 42
0.0000000001
 43
0.0000000001
 40
0.0
 40
0.0
 40
0.0
 40
0.0
 40
1.0
 40
1.0
 40
1.0
 40
2.0
 40
2.0
 40
2.0
 40
3.0
 40
3.0
 40
3.0
 40
4.0
 40
4.0
 40
4.0
 40
5.0
 40
5.0
 40
5.0
 40
6.0
 40
6.0
 40
6.0
 40
6.0
 10
109.8264436809486
 20
154.0775185977512
 30
0.0
 10
109.8264436809486
 20
159.3771124788236
 30
0.0
 10
105.5300622669945
 20
163.6733216378898
 30
0.0
 10
100.23064064081
 20
163.6733216378898
 30
0.0
 10
94.93104675973751
 20
163.6733216378898
 30
0.0
 10
90.63483760067139
 20
159.3771124788236
 30
0.0
 10
90.63483760067139
 20
154.0775185977512
 30
0.0
 10
90.63483760067139
 20
148.7779247166787
 30
0.0
 10
94.93104675973751
 20
144.4818878125005
 30
0.0
 10
100.23064064081
 20
144.4818878125005
 30
0.0
 10
105.5300622669945
 20
144.4818878125005
 30
0.0
 10
109.8264436809486
 20
148.7779247166787
 30
0.0
 10
109.8264436809486
 20
154.0775185977512
 30
0.0
 10
109.8264436809486
 20
154.0775185977512
 30
0.0
 10
109.8264436809486
 20
154.0775185977512
 30
0.0
 10
109.8264436809486
 20
154.0775185977512
 30
0.0
 10
109.8264436809486
 20
154.0775185977512
 30
0.0
 10
109.8264436809486
 20
154.0775185977512
 30
0.0
 10
109.8264436809486
 20
154.0775185977512
 30
0.0
  0
SPLINE
  5
1F4
330
1F
100
AcDbEntity
  8
0
 62
    29
100
AcDbSpline
210
0.0
220
0.0
230
1.0
 70
    11
 71
     3
 72
    23
 73
    19
 74
     0
 42
0.0000000001
 43
0.0000000001
 40
0.0
 40
0.0
 40
0.0
 40
0.0
 40
1.0
 40
1.0
 40
1.0
 40
2.0
 40
2.0
 40
2.0
 40
3.0
 40
3.0
 40
3.0
 40
4.0
 40
4.0
 40
4.0
 40
5.0
 40
5.0
 40
5.0
 40
6.0
 40
6.0
 40
6.0
 40
6.0
 10
108.727112986383
 20
154.0775185977512
 30
0.0
 10
108.727112986383
 20
158.7699139989829
 30
0.0
 10
104.9230360420417
 20
162.5738186884363
 30
0.0
 10
100.23064064081
 20
162.5738186884363
 30
0.0
 10
95.53824523957826
 20
162.5738186884363
 30
0.0
 10
91.73434055012486
 20
158.7699139989829
 30
0.0
 10
91.73434055012486
 20
154.0775185977512
 30
0.0
 10
91.73434055012486
 20
149.3852954514074
 30
0.0
 10
95.53824523957826
 20
145.581218507066
 30
0.0
 10
100.23064064081
 20
145.581218507066
 30
0.0
 10
104.9230360420417
 20
145.581218507066
 30
0.0
 10
108.727112986383
 20
149.3852954514074
 30
0.0
 10
108.727112986383
 20
154.0775185977512
 30
0.0
 10
108.727112986383
 20
154.0775185977512
 30
0.0
 10
108.727112986383
 20
154.0775185977512
 30
0.0
 10
108.727112986383
 20
154.0775185977512
 30
0.0
 10
108.727112986383
 20
154.0775185977512
 30
0.0
 10
108.727112986383
 20
154.0775185977512
 30
0.0
 10
108.727112986383
 20
154.0775185977512
 30
0.0
  0
POLYLINE
  5
1F5
330
1F
100
AcDbEntity
  8
0
 62
    29
100
AcDb2dPolyline
 66
     1
 10
0.0
 20
0.0
 30
0.0
  0
VERTEX
  5
1F6
330
1F5
100
AcDbEntity
  8
0
 62
    29
100
AcDbVertex
100
AcDb2dVertex
 10
110.5357893093129
 20
166.762540797454
 30
0.0
  0
VERTEX
  5
1F7
330
1F5
100
AcDbEntity
  8
0
 62
    29
100
AcDbVertex
100
AcDb2dVertex
 10
112.9156628405128
 20
164.3826672662541
 30
0.0
  0
SEQEND
  5
1F8
330
1F5
100
AcDbEntity
  8
0
  0
POLYLINE
  5
1F9
330
1F
100
AcDbEntity
  8
0
 62
    29
100
AcDb2dPolyline
 66
     1
 10
0.0
 20
0.0
 30
0.0
  0
VERTEX
  5
1FA
330
1F9
100
AcDbEntity
  8
0
 62
    29
100
AcDbVertex
100
AcDb2dVertex
 10
110.5357893093129
 20
164.3826672662541
 30
0.0
  0
VERTEX
  5
1FB
330
1F9
100
AcDbEntity
  8
0
 62
    29
100
AcDbVertex
100
AcDb2dVertex
 10
112.9156628405128
 20
166.762540797454
 30
0.0
  0
SEQEND
  5
1FC
330
1F9
100
AcDbEntity
  8
0
  0
SPLINE
  5
1FD
330
1F
100
AcDbEntity
  8
0
 62
    29
100
AcDbSpline
210
0.0
220
0.0
230
1.0
 70
    11
 71
     3
 72
    23
 73
    19
 74
     0
 42
0.0000000001
 43
0.0000000001
 40
0.0
 40
0.0
 40
0.0
 40
0.0
 40
1.0
 40
1.0
 40
1.0
 40
2.0
 40
2.0
 40
2.0
 40
3.0
 40
3.0
 40
3.0
 40
4.0
 40
4.0
 40
4.0
 40
5.0
 40
5.0
 40
5.0
 40
6.0
 40
6.0
 40
6.0
 40
6.0
 10
114.4742250662147
 20
165.572604031854
 30
0.0
 10
114.4742250662147
 20
167.0906863588999
 30
0.0
 10
113.2436361470708
 20
168.3212752780438
 30
0.0
 10
111.7257260749128
 20
168.3212752780438
 30
0.0
 10
110.2074714929791
 20
168.3212752780438
 30
0.0
 10
108.9768825738352
 20
167.0906863588999
 30
0.0
 10
108.9768825738352
 20
165.572604031854
 30
0.0
 10
108.9768825738352
 20
164.0545217048082
 30
0.0
 10
110.2074714929791
 20
162.8237605307764
 30
0.0
 10
111.7257260749128
 20
162.8237605307764
 30
0.0
 10
113.2436361470708
 20
162.8237605307764
 30
0.0
 10
114.4742250662147
 20
164.0545217048082
 30
0.0
 10
114.4742250662147
 20
165.572604031854
 30
0.0
 10
114.4742250662147
 20
165.572604031854
 30
0.0
 10
114.4742250662147
 20
165.572604031854
 30
0.0
 10
114.4742250662147
 20
165.572604031854
 30
0.0
 10
114.4742250662147
 20
165.572604031854
 30
0.0
 10
114.4742250662147
 20
165.572604031854
 30
0.0
 10
114.4742250662147
 20
165.572604031854
 30
0.0
  0
SPLINE
  5
1FE
330
1F
100
AcDbEntity
  8
0
 62
    29
100
AcDbSpline
210
0.0
220
0.0
230
1.0
 70
     8
 71
     3
 72
    11
 73
     7
 74
     0
 42
0.0000000001
 43
0.0000000001
 40
0.0
 40
0.0
 40
0.0
 40
0.0
 40
1.0
 40
1.0
 40
1.0
 40
2.0
 40
2.0
 40
2.0
 40
2.0
 10
115.2238783383471
 20
166.0723154616464
 30
0.0
 10
115.2238783383471
 20
167.7285462087865
 30
0.0
 10
113.8816682518453
 20
169.0711008050641
 30
0.0
 10
112.2252652498173
 20
169.0711008050641
 30
0.0
 10
112.2252652498173
 20
169.0711008050641
 30
0.0
 10
112.2252652498173
 20
169.0711008050641
 30
0.0
 10
112.2252652498173
 20
169.0711008050641
 30
0.0
  0
SPLINE
  5
1FF
330
1F
100
AcDbEntity
  8
0
 62
    29
100
AcDbSpline
210
0.0
220
0.0
230
1.0
 70
     8
 71
     3
 72
    11
 73
     7
 74
     0
 42
0.0000000001
 43
0.0000000001
 40
0.0
 40
0.0
 40
0.0
 40
0.0
 40
1.0
 40
1.0
 40
1.0
 40
2.0
 40
2.0
 40
2.0
 40
2.0
 10
88.23584377691476
 20
169.0711008050641
 30
0.0
 10
86.57978528466258
 20
169.0711008050641
 30
0.0
 10
85.23723068838491
 20
167.7285462087865
 30
0.0
 10
85.23723068838491
 20
166.0723154616464
 30
0.0
 10
85.23723068838491
 20
166.0723154616464
 30
0.0
 10
85.23723068838491
 20
166.0723154616464
 30
0.0
 10
85.23723068838491
 20
166.0723154616464
 30
0.0
  0
SPLINE
  5
200
330
1F
100
AcDbEntity
  8
0
 62
    29
100
AcDbSpline
210
0.0
220
0.0
230
1.0
 70
     8
 71
     3
 72
    11
 73
     7
 74
     0
 42
0.0000000001
 43
0.0000000001
 40
0.0
 40
0.0
 40
0.0
 40
0.0
 40
1.0
 40
1.0
 40
1.0
 40
2.0
 40
2.0
 40
2.0
 40
2.0
 10
85.23723068838491
 20
142.0827217338559
 30
0.0
 10
85.23723068838491
 20
140.4266632416038
 30
0.0
 10
86.57978528466258
 20
139.0841086453261
 30
0.0
 10
88.23584377691476
 20
139.0841086453261
 30
0.0
 10
88.23584377691476
 20
139.0841086453261
 30
0.0
 10
88.23584377691476
 20
139.0841086453261
 30
0.0
 10
88.23584377691476
 20
139.0841086453261
 30
0.0
  0
SPLINE
  5
201
330
1F
100
AcDbEntity
  8
0
 62
    29
100
AcDbSpline
210
0.0
220
0.0
230
1.0
 70
     8
 71
     3
 72
    11
 73
     7
 74
     0
 42
0.0000000001
 43
0.0000000001
 40
0.0
 40
0.0
 40
0.0
 40
0.0
 40
1.0
 40
1.0
 40
1.0
 40
2.0
 40
2.0
 40
2.0
 40
2.0
 10
112.2252652498173
 20
139.0841086453261
 30
0.0
 10
113.8816682518453
 20
139.0841086453261
 30
0.0
 10
115.2238783383471
 20
140.4266632416038
 30
0.0
 10
115.2238783383471
 20
142.0827217338559
 30
0.0
 10
115.2238783383471
 20
142.0827217338559
 30
0.0
 10
115.2238783383471
 20
142.0827217338559
 30
0.0
 10
115.2238783383471
 20
142.0827217338559
 30
0.0
  0
POLYLINE
  5
202
330
1F
100
AcDbEntity
  8
0
 62
    29
100
AcDb2dPolyline
 66
     1
 10
0.0
 20
0.0
 30
0.0
  0
VERTEX
  5
203
330
202
100
AcDbEntity
  8
0
 62
    29
100
AcDbVertex
100
AcDb2dVertex
 10
110.5357893093129
 20
141.3926686529362
 30
0.0
  0
VERTEX
  5
204
330
202
100
AcDbEntity
  8
0
 62
    29
100
AcDbVertex
100
AcDb2dVertex
 10
112.9156628405128
 20
143.7725421841362
 30
0.0
  0
SEQEND
  5
205
330
202
100
AcDbEntity
  8
0
  0
POLYLINE
  5
206
330
1F
100
AcDbEntity
  8
0
 62
    29
100
AcDb2dPolyline
 66
     1
 10
0.0
 20
0.0
 30
0.0
  0
VERTEX
  5
207
330
206
100
AcDbEntity
  8
0
 62
    29
100
AcDbVertex
100
AcDb2dVertex
 10
110.5357893093129
 20
143.7725421841362
 30
0.0
  0
VERTEX
  5
208
330
206
100
AcDbEntity
  8
0
 62
    29
100
AcDbVertex
100
AcDb2dVertex
 10
112.9156628405128
 20
141.3926686529362
 30
0.0
  0
SEQEND
  5
209
330
206
100
AcDbEntity
  8
0
  0
SPLINE
  5
20A
330
1F
100
AcDbEntity
  8
0
 62
    29
100
AcDbSpline
210
0.0
220
0.0
230
1.0
 70
    11
 71
     3
 72
    23
 73
    19
 74
     0
 42
0.0000000001
 43
0.0000000001
 40
0.0
 40
0.0
 40
0.0
 40
0.0
 40
1.0
 40
1.0
 40
1.0
 40
2.0
 40
2.0
 40
2.0
 40
3.0
 40
3.0
 40
3.0
 40
4.0
 40
4.0
 40
4.0
 40
5.0
 40
5.0
 40
5.0
 40
6.0
 40
6.0
 40
6.0
 40
6.0
 10
114.4742250662147
 20
142.5826054185362
 30
0.0
 10
114.4742250662147
 20
144.1008600004699
 30
0.0
 10
113.2436361470708
 20
145.3314489196138
 30
0.0
 10
111.7257260749128
 20
145.3314489196138
 30
0.0
 10
110.2074714929791
 20
145.3314489196138
 30
0.0
 10
108.9768825738352
 20
144.1008600004699
 30
0.0
 10
108.9768825738352
 20
142.5826054185362
 30
0.0
 10
108.9768825738352
 20
141.0643508366025
 30
0.0
 10
110.2074714929791
 20
139.8337619174586
 30
0.0
 10
111.7257260749128
 20
139.8337619174586
 30
0.0
 10
113.2436361470708
 20
139.8337619174586
 30
0.0
 10
114.4742250662147
 20
141.0643508366025
 30
0.0
 10
114.4742250662147
 20
142.5826054185362
 30
0.0
 10
114.4742250662147
 20
142.5826054185362
 30
0.0
 10
114.4742250662147
 20
142.5826054185362
 30
0.0
 10
114.4742250662147
 20
142.5826054185362
 30
0.0
 10
114.4742250662147
 20
142.5826054185362
 30
0.0
 10
114.4742250662147
 20
142.5826054185362
 30
0.0
 10
114.4742250662147
 20
142.5826054185362
 30
0.0
  0
POLYLINE
  5
20B
330
1F
100
AcDbEntity
  8
0
 62
    29
100
AcDb2dPolyline
 66
     1
 10
0.0
 20
0.0
 30
0.0
  0
VERTEX
  5
20C
330
20B
100
AcDbEntity
  8
0
 62
    29
100
AcDbVertex
100
AcDb2dVertex
 10
89.92566422719497
 20
141.3926686529362
 30
0.0
  0
VERTEX
  5
20D
330
20B
100
AcDbEntity
  8
0
 62
    29
100
AcDbVertex
100
AcDb2dVertex
 10
87.54579069599504
 20
143.7725421841362
 30
0.0
  0
SEQEND
  5
20E
330
20B
100
AcDbEntity
  8
0
  0
POLYLINE
  5
20F
330
1F
100
AcDbEntity
  8
0
 62
    29
100
AcDb2dPolyline
 66
     1
 10
0.0
 20
0.0
 30
0.0
  0
VERTEX
  5
210
330
20F
100
AcDbEntity
  8
0
 62
    29
100
AcDbVertex
100
AcDb2dVertex
 10
89.92566422719497
 20
143.7725421841362
 30
0.0
  0
VERTEX
  5
211
330
20F
100
AcDbEntity
  8
0
 62
    29
100
AcDbVertex
100
AcDb2dVertex
 10
87.54579069599504
 20
141.3926686529362
 30
0.0
  0
SEQEND
  5
212
330
20F
100
AcDbEntity
  8
0
  0
SPLINE
  5
213
330
1F
100
AcDbEntity
  8
0
 62
    29
100
AcDbSpline
210
0.0
220
0.0
230
1.0
 70
    11
 71
     3
 72
    23
 73
    19
 74
     0
 42
0.0000000001
 43
0.0000000001
 40
0.0
 40
0.0
 40
0.0
 40
0.0
 40
1.0
 40
1.0
 40
1.0
 40
2.0
 40
2.0
 40
2.0
 40
3.0
 40
3.0
 40
3.0
 40
4.0
 40
4.0
 40
4.0
 40
5.0
 40
5.0
 40
5.0
 40
6.0
 40
6.0
 40
6.0
 40
6.0
 10
91.48439870778473
 20
142.5826054185362
 30
0.0
 10
91.48439870778473
 20
144.1008600004699
 30
0.0
 10
90.25380978864082
 20
145.3314489196138
 30
0.0
 10
88.73572746159501
 20
145.3314489196138
 30
0.0
 10
87.21747287966129
 20
145.3314489196138
 30
0.0
 10
85.98688396051738
 20
144.1008600004699
 30
0.0
 10
85.98688396051738
 20
142.5826054185362
 30
0.0
 10
85.98688396051738
 20
141.0643508366025
 30
0.0
 10
87.21747287966129
 20
139.8337619174586
 30
0.0
 10
88.73572746159501
 20
139.8337619174586
 30
0.0
 10
90.25380978864082
 20
139.8337619174586
 30
0.0
 10
91.48439870778473
 20
141.0643508366025
 30
0.0
 10
91.48439870778473
 20
142.5826054185362
 30
0.0
 10
91.48439870778473
 20
142.5826054185362
 30
0.0
 10
91.48439870778473
 20
142.5826054185362
 30
0.0
 10
91.48439870778473
 20
142.5826054185362
 30
0.0
 10
91.48439870778473
 20
142.5826054185362
 30
0.0
 10
91.48439870778473
 20
142.5826054185362
 30
0.0
 10
91.48439870778473
 20
142.5826054185362
 30
0.0
  0
POLYLINE
  5
214
330
1F
100
AcDbEntity
  8
0
 62
    29
100
AcDb2dPolyline
 66
     1
 10
0.0
 20
0.0
 30
0.0
  0
VERTEX
  5
215
330
214
100
AcDbEntity
  8
0
 62
    29
100
AcDbVertex
100
AcDb2dVertex
 10
81.23902248538248
 20
169.0711008050641
 30
0.0
  0
VERTEX
  5
216
330
214
100
AcDbEntity
  8
0
 62
    29
100
AcDbVertex
100
AcDb2dVertex
 10
57.24942875759205
 20
169.0711008050641
 30
0.0
  0
SEQEND
  5
217
330
214
100
AcDbEntity
  8
0
  0
POLYLINE
  5
218
330
1F
100
AcDbEntity
  8
0
 62
    29
100
AcDb2dPolyline
 66
     1
 10
0.0
 20
0.0
 30
0.0
  0
VERTEX
  5
219
330
218
100
AcDbEntity
  8
0
 62
    29
100
AcDbVertex
100
AcDb2dVertex
 10
54.2508156690622
 20
166.0723154616464
 30
0.0
  0
VERTEX
  5
21A
330
218
100
AcDbEntity
  8
0
 62
    29
100
AcDbVertex
100
AcDb2dVertex
 10
54.2508156690622
 20
142.0827217338559
 30
0.0
  0
SEQEND
  5
21B
330
218
100
AcDbEntity
  8
0
  0
POLYLINE
  5
21C
330
1F
100
AcDbEntity
  8
0
 62
    29
100
AcDb2dPolyline
 66
     1
 10
0.0
 20
0.0
 30
0.0
  0
VERTEX
  5
21D
330
21C
100
AcDbEntity
  8
0
 62
    29
100
AcDbVertex
100
AcDb2dVertex
 10
57.24942875759205
 20
139.0841086453261
 30
0.0
  0
VERTEX
  5
21E
330
21C
100
AcDbEntity
  8
0
 62
    29
100
AcDbVertex
100
AcDb2dVertex
 10
79.53817772227679
 20
139.0841086453261
 30
0.0
  0
SEQEND
  5
21F
330
21C
100
AcDbEntity
  8
0
  0
POLYLINE
  5
220
330
1F
100
AcDbEntity
  8
0
 62
    29
100
AcDb2dPolyline
 66
     1
 10
0.0
 20
0.0
 30
0.0
  0
VERTEX
  5
221
330
220
100
AcDbEntity
  8
0
 62
    29
100
AcDbVertex
100
AcDb2dVertex
 10
84.23763557391233
 20
142.0827217338559
 30
0.0
  0
VERTEX
  5
222
330
220
100
AcDbEntity
  8
0
 62
    29
100
AcDbVertex
100
AcDb2dVertex
 10
84.23763557391233
 20
166.0723154616464
 30
0.0
  0
SEQEND
  5
223
330
220
100
AcDbEntity
  8
0
  0
SPLINE
  5
224
330
1F
100
AcDbEntity
  8
0
 62
    29
100
AcDbSpline
210
0.0
220
0.0
230
1.0
 70
    11
 71
     3
 72
    23
 73
    19
 74
     0
 42
0.0000000001
 43
0.0000000001
 40
0.0
 40
0.0
 40
0.0
 40
0.0
 40
1.0
 40
1.0
 40
1.0
 40
2.0
 40
2.0
 40
2.0
 40
3.0
 40
3.0
 40
3.0
 40
4.0
 40
4.0
 40
4.0
 40
5.0
 40
5.0
 40
5.0
 40
6.0
 40
6.0
 40
6.0
 40
6.0
 10
80.63923096572134
 20
154.0775185977512
 30
0.0
 10
80.63923096572134
 20
160.3708509271077
 30
0.0
 10
75.53755795084378
 20
165.4725239419853
 30
0.0
 10
69.24422562148726
 20
165.4725239419853
 30
0.0
 10
62.95089329213075
 20
165.4725239419853
 30
0.0
 10
57.84922027725318
 20
160.3708509271077
 30
0.0
 10
57.84922027725318
 20
154.0775185977512
 30
0.0
 10
57.84922027725318
 20
147.7843585232825
 30
0.0
 10
62.95089329213075
 20
142.6825132535171
 30
0.0
 10
69.24422562148726
 20
142.6825132535171
 30
0.0
 10
75.53755795084378
 20
142.6825132535171
 30
0.0
 10
80.63923096572134
 20
147.7843585232825
 30
0.0
 10
80.63923096572134
 20
154.0775185977512
 30
0.0
 10
80.63923096572134
 20
154.0775185977512
 30
0.0
 10
80.63923096572134
 20
154.0775185977512
 30
0.0
 10
80.63923096572134
 20
154.0775185977512
 30
0.0
 10
80.63923096572134
 20
154.0775185977512
 30
0.0
 10
80.63923096572134
 20
154.0775185977512
 30
0.0
 10
80.63923096572134
 20
154.0775185977512
 30
0.0
  0
POLYLINE
  5
225
330
1F
100
AcDbEntity
  8
0
 62
    29
100
AcDb2dPolyline
 66
     1
 10
0.0
 20
0.0
 30
0.0
  0
VERTEX
  5
226
330
225
100
AcDbEntity
  8
0
 62
    29
100
AcDbVertex
100
AcDb2dVertex
 10
70.34372857094074
 20
165.9724076266655
 30
0.0
  0
VERTEX
  5
227
330
225
100
AcDbEntity
  8
0
 62
    29
100
AcDbVertex
100
AcDb2dVertex
 10
70.34372857094074
 20
165.4194694365126
 30
0.0
  0
SEQEND
  5
228
330
225
100
AcDbEntity
  8
0
  0
POLYLINE
  5
229
330
1F
100
AcDbEntity
  8
0
 62
    29
100
AcDb2dPolyline
 66
     1
 10
0.0
 20
0.0
 30
0.0
  0
VERTEX
  5
22A
330
229
100
AcDbEntity
  8
0
 62
    29
100
AcDbVertex
100
AcDb2dVertex
 10
68.14472267203379
 20
165.9724076266655
 30
0.0
  0
VERTEX
  5
22B
330
229
100
AcDbEntity
  8
0
 62
    29
100
AcDbVertex
100
AcDb2dVertex
 10
68.14472267203379
 20
165.4194694365126
 30
0.0
  0
SEQEND
  5
22C
330
229
100
AcDbEntity
  8
0
  0
POLYLINE
  5
22D
330
1F
100
AcDbEntity
  8
0
 62
    29
100
AcDb2dPolyline
 66
     1
 10
0.0
 20
0.0
 30
0.0
  0
VERTEX
  5
22E
330
22D
100
AcDbEntity
  8
0
 62
    29
100
AcDbVertex
100
AcDb2dVertex
 10
68.14472267203379
 20
165.9724076266655
 30
0.0
  0
VERTEX
  5
22F
330
22D
100
AcDbEntity
  8
0
 62
    29
100
AcDbVertex
100
AcDb2dVertex
 10
70.34372857094074
 20
165.9724076266655
 30
0.0
  0
SEQEND
  5
230
330
22D
100
AcDbEntity
  8
0
  0
SPLINE
  5
231
330
1F
100
AcDbEntity
  8
0
 62
    29
100
AcDbSpline
210
0.0
220
0.0
230
1.0
 70
    11
 71
     3
 72
    23
 73
    19
 74
     0
 42
0.0000000001
 43
0.0000000001
 40
0.0
 40
0.0
 40
0.0
 40
0.0
 40
1.0
 40
1.0
 40
1.0
 40
2.0
 40
2.0
 40
2.0
 40
3.0
 40
3.0
 40
3.0
 40
4.0
 40
4.0
 40
4.0
 40
5.0
 40
5.0
 40
5.0
 40
6.0
 40
6.0
 40
6.0
 40
6.0
 10
78.84002866162585
 20
154.0775185977512
 30
0.0
 10
78.84002866162585
 20
159.3771124788236
 30
0.0
 10
74.54381950255973
 20
163.6733216378898
 30
0.0
 10
69.24422562148726
 20
163.6733216378898
 30
0.0
 10
63.9446317404148
 20
163.6733216378898
 30
0.0
 10
59.64842258134868
 20
159.3771124788236
 30
0.0
 10
59.64842258134868
 20
154.0775185977512
 30
0.0
 10
59.64842258134868
 20
148.7779247166787
 30
0.0
 10
63.9446317404148
 20
144.4818878125005
 30
0.0
 10
69.24422562148726
 20
144.4818878125005
 30
0.0
 10
74.54381950255973
 20
144.4818878125005
 30
0.0
 10
78.84002866162585
 20
148.7779247166787
 30
0.0
 10
78.84002866162585
 20
154.0775185977512
 30
0.0
 10
78.84002866162585
 20
154.0775185977512
 30
0.0
 10
78.84002866162585
 20
154.0775185977512
 30
0.0
 10
78.84002866162585
 20
154.0775185977512
 30
0.0
 10
78.84002866162585
 20
154.0775185977512
 30
0.0
 10
78.84002866162585
 20
154.0775185977512
 30
0.0
 10
78.84002866162585
 20
154.0775185977512
 30
0.0
  0
SPLINE
  5
232
330
1F
100
AcDbEntity
  8
0
 62
    29
100
AcDbSpline
210
0.0
220
0.0
230
1.0
 70
    11
 71
     3
 72
    23
 73
    19
 74
     0
 42
0.0000000001
 43
0.0000000001
 40
0.0
 40
0.0
 40
0.0
 40
0.0
 40
1.0
 40
1.0
 40
1.0
 40
2.0
 40
2.0
 40
2.0
 40
3.0
 40
3.0
 40
3.0
 40
4.0
 40
4.0
 40
4.0
 40
5.0
 40
5.0
 40
5.0
 40
6.0
 40
6.0
 40
6.0
 40
6.0
 10
77.74052571217239
 20
154.0775185977512
 30
0.0
 10
77.74052571217239
 20
158.7699139989829
 30
0.0
 10
73.93662102271898
 20
162.5738186884363
 30
0.0
 10
69.24422562148726
 20
162.5738186884363
 30
0.0
 10
64.55183022025554
 20
162.5738186884363
 30
0.0
 10
60.74792553080215
 20
158.7699139989829
 30
0.0
 10
60.74792553080215
 20
154.0775185977512
 30
0.0
 10
60.74792553080215
 20
149.3852954514074
 30
0.0
 10
64.55183022025554
 20
145.581218507066
 30
0.0
 10
69.24422562148726
 20
145.581218507066
 30
0.0
 10
73.93662102271898
 20
145.581218507066
 30
0.0
 10
77.74052571217239
 20
149.3852954514074
 30
0.0
 10
77.74052571217239
 20
154.0775185977512
 30
0.0
 10
77.74052571217239
 20
154.0775185977512
 30
0.0
 10
77.74052571217239
 20
154.0775185977512
 30
0.0
 10
77.74052571217239
 20
154.0775185977512
 30
0.0
 10
77.74052571217239
 20
154.0775185977512
 30
0.0
 10
77.74052571217239
 20
154.0775185977512
 30
0.0
 10
77.74052571217239
 20
154.0775185977512
 30
0.0
  0
SPLINE
  5
233
330
1F
100
AcDbEntity
  8
0
 62
    29
100
AcDbSpline
210
0.0
220
0.0
230
1.0
 70
     8
 71
     3
 72
    11
 73
     7
 74
     0
 42
0.0000000001
 43
0.0000000001
 40
0.0
 40
0.0
 40
0.0
 40
0.0
 40
1.0
 40
1.0
 40
1.0
 40
2.0
 40
2.0
 40
2.0
 40
2.0
 10
84.23763557391233
 20
166.0723154616464
 30
0.0
 10
84.23763557391233
 20
167.7285462087865
 30
0.0
 10
82.89508097763466
 20
169.0711008050641
 30
0.0
 10
81.23902248538248
 20
169.0711008050641
 30
0.0
 10
81.23902248538248
 20
169.0711008050641
 30
0.0
 10
81.23902248538248
 20
169.0711008050641
 30
0.0
 10
81.23902248538248
 20
169.0711008050641
 30
0.0
  0
SPLINE
  5
234
330
1F
100
AcDbEntity
  8
0
 62
    29
100
AcDbSpline
210
0.0
220
0.0
230
1.0
 70
     8
 71
     3
 72
    11
 73
     7
 74
     0
 42
0.0000000001
 43
0.0000000001
 40
0.0
 40
0.0
 40
0.0
 40
0.0
 40
1.0
 40
1.0
 40
1.0
 40
2.0
 40
2.0
 40
2.0
 40
2.0
 10
57.24942875759205
 20
169.0711008050641
 30
0.0
 10
55.59337026533987
 20
169.0711008050641
 30
0.0
 10
54.2508156690622
 20
167.7285462087865
 30
0.0
 10
54.2508156690622
 20
166.0723154616464
 30
0.0
 10
54.2508156690622
 20
166.0723154616464
 30
0.0
 10
54.2508156690622
 20
166.0723154616464
 30
0.0
 10
54.2508156690622
 20
166.0723154616464
 30
0.0
  0
SPLINE
  5
235
330
1F
100
AcDbEntity
  8
0
 62
    29
100
AcDbSpline
210
0.0
220
0.0
230
1.0
 70
     8
 71
     3
 72
    11
 73
     7
 74
     0
 42
0.0000000001
 43
0.0000000001
 40
0.0
 40
0.0
 40
0.0
 40
0.0
 40
1.0
 40
1.0
 40
1.0
 40
2.0
 40
2.0
 40
2.0
 40
2.0
 10
54.2508156690622
 20
142.0827217338559
 30
0.0
 10
54.2508156690622
 20
140.4266632416038
 30
0.0
 10
55.59337026533987
 20
139.0841086453261
 30
0.0
 10
57.24942875759205
 20
139.0841086453261
 30
0.0
 10
57.24942875759205
 20
139.0841086453261
 30
0.0
 10
57.24942875759205
 20
139.0841086453261
 30
0.0
 10
57.24942875759205
 20
139.0841086453261
 30
0.0
  0
SPLINE
  5
236
330
1F
100
AcDbEntity
  8
0
 62
    29
100
AcDbSpline
210
0.0
220
0.0
230
1.0
 70
     8
 71
     3
 72
     8
 73
     4
 74
     0
 42
0.0000000001
 43
0.0000000001
 40
0.0
 40
0.0
 40
0.0
 40
0.0
 40
1.0
 40
1.0
 40
1.0
 40
1.0
 10
81.96748840630347
 20
139.1740256968089
 30
0.0
 10
83.26508447683975
 20
139.4613468498229
 30
0.0
 10
84.27432586503463
 20
140.7542920383859
 30
0.0
 10
84.23763557391233
 20
142.0827217338559
 30
0.0
  0
POLYLINE
  5
237
330
1F
100
AcDbEntity
  8
0
 62
    29
100
AcDb2dPolyline
 66
     1
 10
0.0
 20
0.0
 30
0.0
  0
VERTEX
  5
238
330
237
100
AcDbEntity
  8
0
 62
    29
100
AcDbVertex
100
AcDb2dVertex
 10
79.54920203510227
 20
141.3926686529362
 30
0.0
  0
VERTEX
  5
239
330
237
100
AcDbEntity
  8
0
 62
    29
100
AcDbVertex
100
AcDb2dVertex
 10
81.9290755663022
 20
143.7725421841362
 30
0.0
  0
SEQEND
  5
23A
330
237
100
AcDbEntity
  8
0
  0
POLYLINE
  5
23B
330
1F
100
AcDbEntity
  8
0
 62
    29
100
AcDb2dPolyline
 66
     1
 10
0.0
 20
0.0
 30
0.0
  0
VERTEX
  5
23C
330
23B
100
AcDbEntity
  8
0
 62
    29
100
AcDbVertex
100
AcDb2dVertex
 10
79.54920203510227
 20
143.7725421841362
 30
0.0
  0
VERTEX
  5
23D
330
23B
100
AcDbEntity
  8
0
 62
    29
100
AcDbVertex
100
AcDb2dVertex
 10
81.9290755663022
 20
141.3926686529362
 30
0.0
  0
SEQEND
  5
23E
330
23B
100
AcDbEntity
  8
0
  0
SPLINE
  5
23F
330
1F
100
AcDbEntity
  8
0
 62
    29
100
AcDbSpline
210
0.0
220
0.0
230
1.0
 70
    11
 71
     3
 72
    23
 73
    19
 74
     0
 42
0.0000000001
 43
0.0000000001
 40
0.0
 40
0.0
 40
0.0
 40
0.0
 40
1.0
 40
1.0
 40
1.0
 40
2.0
 40
2.0
 40
2.0
 40
3.0
 40
3.0
 40
3.0
 40
4.0
 40
4.0
 40
4.0
 40
5.0
 40
5.0
 40
5.0
 40
6.0
 40
6.0
 40
6.0
 40
6.0
 10
83.48798230177987
 20
142.5826054185362
 30
0.0
 10
83.48798230177987
 20
144.1008600004699
 30
0.0
 10
82.25722112774805
 20
145.3314489196138
 30
0.0
 10
80.73913880070224
 20
145.3314489196138
 30
0.0
 10
79.22105647365642
 20
145.3314489196138
 30
0.0
 10
77.99029529962461
 20
144.1008600004699
 30
0.0
 10
77.99029529962461
 20
142.5826054185362
 30
0.0
 10
77.99029529962461
 20
141.0643508366025
 30
0.0
 10
79.22105647365642
 20
139.8337619174586
 30
0.0
 10
80.73913880070224
 20
139.8337619174586
 30
0.0
 10
82.25722112774805
 20
139.8337619174586
 30
0.0
 10
83.48798230177987
 20
141.0643508366025
 30
0.0
 10
83.48798230177987
 20
142.5826054185362
 30
0.0
 10
83.48798230177987
 20
142.5826054185362
 30
0.0
 10
83.48798230177987
 20
142.5826054185362
 30
0.0
 10
83.48798230177987
 20
142.5826054185362
 30
0.0
 10
83.48798230177987
 20
142.5826054185362
 30
0.0
 10
83.48798230177987
 20
142.5826054185362
 30
0.0
 10
83.48798230177987
 20
142.5826054185362
 30
0.0
  0
POLYLINE
  5
240
330
1F
100
AcDbEntity
  8
0
 62
    29
100
AcDb2dPolyline
 66
     1
 10
0.0
 20
0.0
 30
0.0
  0
VERTEX
  5
241
330
240
100
AcDbEntity
  8
0
 62
    29
100
AcDbVertex
100
AcDb2dVertex
 10
58.93924920787226
 20
166.762540797454
 30
0.0
  0
VERTEX
  5
242
330
240
100
AcDbEntity
  8
0
 62
    29
100
AcDbVertex
100
AcDb2dVertex
 10
56.55920342178443
 20
164.3826672662541
 30
0.0
  0
SEQEND
  5
243
330
240
100
AcDbEntity
  8
0
  0
POLYLINE
  5
244
330
1F
100
AcDbEntity
  8
0
 62
    29
100
AcDb2dPolyline
 66
     1
 10
0.0
 20
0.0
 30
0.0
  0
VERTEX
  5
245
330
244
100
AcDbEntity
  8
0
 62
    29
100
AcDbVertex
100
AcDb2dVertex
 10
58.93924920787226
 20
164.3826672662541
 30
0.0
  0
VERTEX
  5
246
330
244
100
AcDbEntity
  8
0
 62
    29
100
AcDbVertex
100
AcDb2dVertex
 10
56.55920342178443
 20
166.762540797454
 30
0.0
  0
SEQEND
  5
247
330
244
100
AcDbEntity
  8
0
  0
SPLINE
  5
248
330
1F
100
AcDbEntity
  8
0
 62
    29
100
AcDbSpline
210
0.0
220
0.0
230
1.0
 70
    11
 71
     3
 72
    23
 73
    19
 74
     0
 42
0.0000000001
 43
0.0000000001
 40
0.0
 40
0.0
 40
0.0
 40
0.0
 40
1.0
 40
1.0
 40
1.0
 40
2.0
 40
2.0
 40
2.0
 40
3.0
 40
3.0
 40
3.0
 40
4.0
 40
4.0
 40
4.0
 40
5.0
 40
5.0
 40
5.0
 40
6.0
 40
6.0
 40
6.0
 40
6.0
 10
60.49798368846203
 20
165.572604031854
 30
0.0
 10
60.49798368846203
 20
167.0906863588999
 30
0.0
 10
59.26739476931811
 20
168.3212752780438
 30
0.0
 10
57.7491401873844
 20
168.3212752780438
 30
0.0
 10
56.23105786033858
 20
168.3212752780438
 30
0.0
 10
55.00046894119466
 20
167.0906863588999
 30
0.0
 10
55.00046894119466
 20
165.572604031854
 30
0.0
 10
55.00046894119466
 20
164.0545217048082
 30
0.0
 10
56.23105786033858
 20
162.8237605307764
 30
0.0
 10
57.7491401873844
 20
162.8237605307764
 30
0.0
 10
59.26739476931811
 20
162.8237605307764
 30
0.0
 10
60.49798368846203
 20
164.0545217048082
 30
0.0
 10
60.49798368846203
 20
165.572604031854
 30
0.0
 10
60.49798368846203
 20
165.572604031854
 30
0.0
 10
60.49798368846203
 20
165.572604031854
 30
0.0
 10
60.49798368846203
 20
165.572604031854
 30
0.0
 10
60.49798368846203
 20
165.572604031854
 30
0.0
 10
60.49798368846203
 20
165.572604031854
 30
0.0
 10
60.49798368846203
 20
165.572604031854
 30
0.0
  0
POLYLINE
  5
249
330
1F
100
AcDbEntity
  8
0
 62
    29
100
AcDb2dPolyline
 66
     1
 10
0.0
 20
0.0
 30
0.0
  0
VERTEX
  5
24A
330
249
100
AcDbEntity
  8
0
 62
    29
100
AcDbVertex
100
AcDb2dVertex
 10
58.93924920787226
 20
141.3926686529362
 30
0.0
  0
VERTEX
  5
24B
330
249
100
AcDbEntity
  8
0
 62
    29
100
AcDbVertex
100
AcDb2dVertex
 10
56.55920342178443
 20
143.7725421841362
 30
0.0
  0
SEQEND
  5
24C
330
249
100
AcDbEntity
  8
0
  0
POLYLINE
  5
24D
330
1F
100
AcDbEntity
  8
0
 62
    29
100
AcDb2dPolyline
 66
     1
 10
0.0
 20
0.0
 30
0.0
  0
VERTEX
  5
24E
330
24D
100
AcDbEntity
  8
0
 62
    29
100
AcDbVertex
100
AcDb2dVertex
 10
58.93924920787226
 20
143.7725421841362
 30
0.0
  0
VERTEX
  5
24F
330
24D
100
AcDbEntity
  8
0
 62
    29
100
AcDbVertex
100
AcDb2dVertex
 10
56.55920342178443
 20
141.3926686529362
 30
0.0
  0
SEQEND
  5
250
330
24D
100
AcDbEntity
  8
0
  0
SPLINE
  5
251
330
1F
100
AcDbEntity
  8
0
 62
    29
100
AcDbSpline
210
0.0
220
0.0
230
1.0
 70
    11
 71
     3
 72
    23
 73
    19
 74
     0
 42
0.0000000001
 43
0.0000000001
 40
0.0
 40
0.0
 40
0.0
 40
0.0
 40
1.0
 40
1.0
 40
1.0
 40
2.0
 40
2.0
 40
2.0
 40
3.0
 40
3.0
 40
3.0
 40
4.0
 40
4.0
 40
4.0
 40
5.0
 40
5.0
 40
5.0
 40
6.0
 40
6.0
 40
6.0
 40
6.0
 10
60.49798368846203
 20
142.5826054185362
 30
0.0
 10
60.49798368846203
 20
144.1008600004699
 30
0.0
 10
59.26739476931811
 20
145.3314489196138
 30
0.0
 10
57.7491401873844
 20
145.3314489196138
 30
0.0
 10
56.23105786033858
 20
145.3314489196138
 30
0.0
 10
55.00046894119466
 20
144.1008600004699
 30
0.0
 10
55.00046894119466
 20
142.5826054185362
 30
0.0
 10
55.00046894119466
 20
141.0643508366025
 30
0.0
 10
56.23105786033858
 20
139.8337619174586
 30
0.0
 10
57.7491401873844
 20
139.8337619174586
 30
0.0
 10
59.26739476931811
 20
139.8337619174586
 30
0.0
 10
60.49798368846203
 20
141.0643508366025
 30
0.0
 10
60.49798368846203
 20
142.5826054185362
 30
0.0
 10
60.49798368846203
 20
142.5826054185362
 30
0.0
 10
60.49798368846203
 20
142.5826054185362
 30
0.0
 10
60.49798368846203
 20
142.5826054185362
 30
0.0
 10
60.49798368846203
 20
142.5826054185362
 30
0.0
 10
60.49798368846203
 20
142.5826054185362
 30
0.0
 10
60.49798368846203
 20
142.5826054185362
 30
0.0
  0
POLYLINE
  5
252
330
1F
100
AcDbEntity
  8
0
 62
    29
100
AcDb2dPolyline
 66
     1
 10
0.0
 20
0.0
 30
0.0
  0
VERTEX
  5
253
330
252
100
AcDbEntity
  8
0
 62
    29
100
AcDbVertex
100
AcDb2dVertex
 10
50.25243521117186
 20
169.0711008050641
 30
0.0
  0
VERTEX
  5
254
330
252
100
AcDbEntity
  8
0
 62
    29
100
AcDbVertex
100
AcDb2dVertex
 10
26.26301373826934
 20
169.0711008050641
 30
0.0
  0
SEQEND
  5
255
330
252
100
AcDbEntity
  8
0
  0
POLYLINE
  5
256
330
1F
100
AcDbEntity
  8
0
 62
    29
100
AcDb2dPolyline
 66
     1
 10
0.0
 20
0.0
 30
0.0
  0
VERTEX
  5
257
330
256
100
AcDbEntity
  8
0
 62
    29
100
AcDbVertex
100
AcDb2dVertex
 10
23.26422839485159
 20
166.0723154616464
 30
0.0
  0
VERTEX
  5
258
330
256
100
AcDbEntity
  8
0
 62
    29
100
AcDbVertex
100
AcDb2dVertex
 10
23.26422839485159
 20
142.0827217338559
 30
0.0
  0
SEQEND
  5
259
330
256
100
AcDbEntity
  8
0
  0
POLYLINE
  5
25A
330
1F
100
AcDbEntity
  8
0
 62
    29
100
AcDb2dPolyline
 66
     1
 10
0.0
 20
0.0
 30
0.0
  0
VERTEX
  5
25B
330
25A
100
AcDbEntity
  8
0
 62
    29
100
AcDbVertex
100
AcDb2dVertex
 10
26.26301373826934
 20
139.0841086453261
 30
0.0
  0
VERTEX
  5
25C
330
25A
100
AcDbEntity
  8
0
 62
    29
100
AcDbVertex
100
AcDb2dVertex
 10
50.25243521117186
 20
139.0841086453261
 30
0.0
  0
SEQEND
  5
25D
330
25A
100
AcDbEntity
  8
0
  0
POLYLINE
  5
25E
330
1F
100
AcDbEntity
  8
0
 62
    29
100
AcDb2dPolyline
 66
     1
 10
0.0
 20
0.0
 30
0.0
  0
VERTEX
  5
25F
330
25E
100
AcDbEntity
  8
0
 62
    29
100
AcDbVertex
100
AcDb2dVertex
 10
53.25122055458962
 20
142.0827217338559
 30
0.0
  0
VERTEX
  5
260
330
25E
100
AcDbEntity
  8
0
 62
    29
100
AcDbVertex
100
AcDb2dVertex
 10
53.25122055458962
 20
166.0723154616464
 30
0.0
  0
SEQEND
  5
261
330
25E
100
AcDbEntity
  8
0
  0
SPLINE
  5
262
330
1F
100
AcDbEntity
  8
0
 62
    29
100
AcDbSpline
210
0.0
220
0.0
230
1.0
 70
    11
 71
     3
 72
    23
 73
    19
 74
     0
 42
0.0000000001
 43
0.0000000001
 40
0.0
 40
0.0
 40
0.0
 40
0.0
 40
1.0
 40
1.0
 40
1.0
 40
2.0
 40
2.0
 40
2.0
 40
3.0
 40
3.0
 40
3.0
 40
4.0
 40
4.0
 40
4.0
 40
5.0
 40
5.0
 40
5.0
 40
6.0
 40
6.0
 40
6.0
 40
6.0
 10
49.65281594639863
 20
154.0775185977512
 30
0.0
 10
49.65281594639863
 20
160.3708509271077
 30
0.0
 10
44.55097067663316
 20
165.4725239419853
 30
0.0
 10
38.25763834727665
 20
165.4725239419853
 30
0.0
 10
31.96447827280804
 20
165.4725239419853
 30
0.0
 10
26.86263300304257
 20
160.3708509271077
 30
0.0
 10
26.86263300304257
 20
154.0775185977512
 30
0.0
 10
26.86263300304257
 20
147.7843585232825
 30
0.0
 10
31.96447827280804
 20
142.6825132535171
 30
0.0
 10
38.25763834727665
 20
142.6825132535171
 30
0.0
 10
44.55097067663316
 20
142.6825132535171
 30
0.0
 10
49.65281594639863
 20
147.7843585232825
 30
0.0
 10
49.65281594639863
 20
154.0775185977512
 30
0.0
 10
49.65281594639863
 20
154.0775185977512
 30
0.0
 10
49.65281594639863
 20
154.0775185977512
 30
0.0
 10
49.65281594639863
 20
154.0775185977512
 30
0.0
 10
49.65281594639863
 20
154.0775185977512
 30
0.0
 10
49.65281594639863
 20
154.0775185977512
 30
0.0
 10
49.65281594639863
 20
154.0775185977512
 30
0.0
  0
POLYLINE
  5
263
330
1F
100
AcDbEntity
  8
0
 62
    29
100
AcDb2dPolyline
 66
     1
 10
0.0
 20
0.0
 30
0.0
  0
VERTEX
  5
264
330
263
100
AcDbEntity
  8
0
 62
    29
100
AcDbVertex
100
AcDb2dVertex
 10
39.35731355161802
 20
165.9724076266655
 30
0.0
  0
VERTEX
  5
265
330
263
100
AcDbEntity
  8
0
 62
    29
100
AcDbVertex
100
AcDb2dVertex
 10
39.35731355161802
 20
165.4194694365126
 30
0.0
  0
SEQEND
  5
266
330
263
100
AcDbEntity
  8
0
  0
POLYLINE
  5
267
330
1F
100
AcDbEntity
  8
0
 62
    29
100
AcDb2dPolyline
 66
     1
 10
0.0
 20
0.0
 30
0.0
  0
VERTEX
  5
268
330
267
100
AcDbEntity
  8
0
 62
    29
100
AcDbVertex
100
AcDb2dVertex
 10
37.15813539782318
 20
165.9724076266655
 30
0.0
  0
VERTEX
  5
269
330
267
100
AcDbEntity
  8
0
 62
    29
100
AcDbVertex
100
AcDb2dVertex
 10
37.15813539782318
 20
165.4194694365126
 30
0.0
  0
SEQEND
  5
26A
330
267
100
AcDbEntity
  8
0
  0
POLYLINE
  5
26B
330
1F
100
AcDbEntity
  8
0
 62
    29
100
AcDb2dPolyline
 66
     1
 10
0.0
 20
0.0
 30
0.0
  0
VERTEX
  5
26C
330
26B
100
AcDbEntity
  8
0
 62
    29
100
AcDbVertex
100
AcDb2dVertex
 10
37.15813539782318
 20
165.9724076266655
 30
0.0
  0
VERTEX
  5
26D
330
26B
100
AcDbEntity
  8
0
 62
    29
100
AcDbVertex
100
AcDb2dVertex
 10
39.35731355161802
 20
165.9724076266655
 30
0.0
  0
SEQEND
  5
26E
330
26B
100
AcDbEntity
  8
0
  0
SPLINE
  5
26F
330
1F
100
AcDbEntity
  8
0
 62
    29
100
AcDbSpline
210
0.0
220
0.0
230
1.0
 70
    11
 71
     3
 72
    23
 73
    19
 74
     0
 42
0.0000000001
 43
0.0000000001
 40
0.0
 40
0.0
 40
0.0
 40
0.0
 40
1.0
 40
1.0
 40
1.0
 40
2.0
 40
2.0
 40
2.0
 40
3.0
 40
3.0
 40
3.0
 40
4.0
 40
4.0
 40
4.0
 40
5.0
 40
5.0
 40
5.0
 40
6.0
 40
6.0
 40
6.0
 40
6.0
 10
47.85361364230314
 20
154.0775185977512
 30
0.0
 10
47.85361364230314
 20
159.3771124788236
 30
0.0
 10
43.55740448323701
 20
163.6733216378898
 30
0.0
 10
38.25763834727665
 20
163.6733216378898
 30
0.0
 10
32.95804446620419
 20
163.6733216378898
 30
0.0
 10
28.66183530713806
 20
159.3771124788236
 30
0.0
 10
28.66183530713806
 20
154.0775185977512
 30
0.0
 10
28.66183530713806
 20
148.7779247166787
 30
0.0
 10
32.95804446620419
 20
144.4818878125005
 30
0.0
 10
38.25763834727665
 20
144.4818878125005
 30
0.0
 10
43.55740448323701
 20
144.4818878125005
 30
0.0
 10
47.85361364230314
 20
148.7779247166787
 30
0.0
 10
47.85361364230314
 20
154.0775185977512
 30
0.0
 10
47.85361364230314
 20
154.0775185977512
 30
0.0
 10
47.85361364230314
 20
154.0775185977512
 30
0.0
 10
47.85361364230314
 20
154.0775185977512
 30
0.0
 10
47.85361364230314
 20
154.0775185977512
 30
0.0
 10
47.85361364230314
 20
154.0775185977512
 30
0.0
 10
47.85361364230314
 20
154.0775185977512
 30
0.0
  0
SPLINE
  5
270
330
1F
100
AcDbEntity
  8
0
 62
    29
100
AcDbSpline
210
0.0
220
0.0
230
1.0
 70
    11
 71
     3
 72
    23
 73
    19
 74
     0
 42
0.0000000001
 43
0.0000000001
 40
0.0
 40
0.0
 40
0.0
 40
0.0
 40
1.0
 40
1.0
 40
1.0
 40
2.0
 40
2.0
 40
2.0
 40
3.0
 40
3.0
 40
3.0
 40
4.0
 40
4.0
 40
4.0
 40
5.0
 40
5.0
 40
5.0
 40
6.0
 40
6.0
 40
6.0
 40
6.0
 10
46.75393843796177
 20
154.0775185977512
 30
0.0
 10
46.75393843796177
 20
158.7699139989829
 30
0.0
 10
42.95003374850837
 20
162.5738186884363
 30
0.0
 10
38.25763834727665
 20
162.5738186884363
 30
0.0
 10
33.56541520093283
 20
162.5738186884363
 30
0.0
 10
29.76151051147944
 20
158.7699139989829
 30
0.0
 10
29.76151051147944
 20
154.0775185977512
 30
0.0
 10
29.76151051147944
 20
149.3852954514074
 30
0.0
 10
33.56541520093283
 20
145.581218507066
 30
0.0
 10
38.25763834727665
 20
145.581218507066
 30
0.0
 10
42.95003374850837
 20
145.581218507066
 30
0.0
 10
46.75393843796177
 20
149.3852954514074
 30
0.0
 10
46.75393843796177
 20
154.0775185977512
 30
0.0
 10
46.75393843796177
 20
154.0775185977512
 30
0.0
 10
46.75393843796177
 20
154.0775185977512
 30
0.0
 10
46.75393843796177
 20
154.0775185977512
 30
0.0
 10
46.75393843796177
 20
154.0775185977512
 30
0.0
 10
46.75393843796177
 20
154.0775185977512
 30
0.0
 10
46.75393843796177
 20
154.0775185977512
 30
0.0
  0
POLYLINE
  5
271
330
1F
100
AcDbEntity
  8
0
 62
    29
100
AcDb2dPolyline
 66
     1
 10
0.0
 20
0.0
 30
0.0
  0
VERTEX
  5
272
330
271
100
AcDbEntity
  8
0
 62
    29
100
AcDbVertex
100
AcDb2dVertex
 10
48.56278701577956
 20
166.762540797454
 30
0.0
  0
VERTEX
  5
273
330
271
100
AcDbEntity
  8
0
 62
    29
100
AcDbVertex
100
AcDb2dVertex
 10
50.94266054697949
 20
164.3826672662541
 30
0.0
  0
SEQEND
  5
274
330
271
100
AcDbEntity
  8
0
  0
POLYLINE
  5
275
330
1F
100
AcDbEntity
  8
0
 62
    29
100
AcDb2dPolyline
 66
     1
 10
0.0
 20
0.0
 30
0.0
  0
VERTEX
  5
276
330
275
100
AcDbEntity
  8
0
 62
    29
100
AcDbVertex
100
AcDb2dVertex
 10
48.56278701577956
 20
164.3826672662541
 30
0.0
  0
VERTEX
  5
277
330
275
100
AcDbEntity
  8
0
 62
    29
100
AcDbVertex
100
AcDb2dVertex
 10
50.94266054697949
 20
166.762540797454
 30
0.0
  0
SEQEND
  5
278
330
275
100
AcDbEntity
  8
0
  0
SPLINE
  5
279
330
1F
100
AcDbEntity
  8
0
 62
    29
100
AcDbSpline
210
0.0
220
0.0
230
1.0
 70
    11
 71
     3
 72
    23
 73
    19
 74
     0
 42
0.0000000001
 43
0.0000000001
 40
0.0
 40
0.0
 40
0.0
 40
0.0
 40
1.0
 40
1.0
 40
1.0
 40
2.0
 40
2.0
 40
2.0
 40
3.0
 40
3.0
 40
3.0
 40
4.0
 40
4.0
 40
4.0
 40
5.0
 40
5.0
 40
5.0
 40
6.0
 40
6.0
 40
6.0
 40
6.0
 10
52.50156728245715
 20
165.572604031854
 30
0.0
 10
52.50156728245715
 20
167.0906863588999
 30
0.0
 10
51.27080610842534
 20
168.3212752780438
 30
0.0
 10
49.75272378137952
 20
168.3212752780438
 30
0.0
 10
48.2346414543337
 20
168.3212752780438
 30
0.0
 10
47.00388028030189
 20
167.0906863588999
 30
0.0
 10
47.00388028030189
 20
165.572604031854
 30
0.0
 10
47.00388028030189
 20
164.0545217048082
 30
0.0
 10
48.2346414543337
 20
162.8237605307764
 30
0.0
 10
49.75272378137952
 20
162.8237605307764
 30
0.0
 10
51.27080610842534
 20
162.8237605307764
 30
0.0
 10
52.50156728245715
 20
164.0545217048082
 30
0.0
 10
52.50156728245715
 20
165.572604031854
 30
0.0
 10
52.50156728245715
 20
165.572604031854
 30
0.0
 10
52.50156728245715
 20
165.572604031854
 30
0.0
 10
52.50156728245715
 20
165.572604031854
 30
0.0
 10
52.50156728245715
 20
165.572604031854
 30
0.0
 10
52.50156728245715
 20
165.572604031854
 30
0.0
 10
52.50156728245715
 20
165.572604031854
 30
0.0
  0
SPLINE
  5
27A
330
1F
100
AcDbEntity
  8
0
 62
    29
100
AcDbSpline
210
0.0
220
0.0
230
1.0
 70
     8
 71
     3
 72
    11
 73
     7
 74
     0
 42
0.0000000001
 43
0.0000000001
 40
0.0
 40
0.0
 40
0.0
 40
0.0
 40
1.0
 40
1.0
 40
1.0
 40
2.0
 40
2.0
 40
2.0
 40
2.0
 10
53.25122055458962
 20
166.0723154616464
 30
0.0
 10
53.25122055458962
 20
167.7285462087865
 30
0.0
 10
51.90866595831194
 20
169.0711008050641
 30
0.0
 10
50.25243521117186
 20
169.0711008050641
 30
0.0
 10
50.25243521117186
 20
169.0711008050641
 30
0.0
 10
50.25243521117186
 20
169.0711008050641
 30
0.0
 10
50.25243521117186
 20
169.0711008050641
 30
0.0
  0
SPLINE
  5
27B
330
1F
100
AcDbEntity
  8
0
 62
    29
100
AcDbSpline
210
0.0
220
0.0
230
1.0
 70
     8
 71
     3
 72
    11
 73
     7
 74
     0
 42
0.0000000001
 43
0.0000000001
 40
0.0
 40
0.0
 40
0.0
 40
0.0
 40
1.0
 40
1.0
 40
1.0
 40
2.0
 40
2.0
 40
2.0
 40
2.0
 10
26.26301373826934
 20
169.0711008050641
 30
0.0
 10
24.60678299112926
 20
169.0711008050641
 30
0.0
 10
23.26422839485159
 20
167.7285462087865
 30
0.0
 10
23.26422839485159
 20
166.0723154616464
 30
0.0
 10
23.26422839485159
 20
166.0723154616464
 30
0.0
 10
23.26422839485159
 20
166.0723154616464
 30
0.0
 10
23.26422839485159
 20
166.0723154616464
 30
0.0
  0
SPLINE
  5
27C
330
1F
100
AcDbEntity
  8
0
 62
    29
100
AcDbSpline
210
0.0
220
0.0
230
1.0
 70
     8
 71
     3
 72
    11
 73
     7
 74
     0
 42
0.0000000001
 43
0.0000000001
 40
0.0
 40
0.0
 40
0.0
 40
0.0
 40
1.0
 40
1.0
 40
1.0
 40
2.0
 40
2.0
 40
2.0
 40
2.0
 10
23.26422839485159
 20
142.0827217338559
 30
0.0
 10
23.26422839485159
 20
140.4266632416038
 30
0.0
 10
24.60678299112926
 20
139.0841086453261
 30
0.0
 10
26.26301373826934
 20
139.0841086453261
 30
0.0
 10
26.26301373826934
 20
139.0841086453261
 30
0.0
 10
26.26301373826934
 20
139.0841086453261
 30
0.0
 10
26.26301373826934
 20
139.0841086453261
 30
0.0
  0
SPLINE
  5
27D
330
1F
100
AcDbEntity
  8
0
 62
    29
100
AcDbSpline
210
0.0
220
0.0
230
1.0
 70
     8
 71
     3
 72
    11
 73
     7
 74
     0
 42
0.0000000001
 43
0.0000000001
 40
0.0
 40
0.0
 40
0.0
 40
0.0
 40
1.0
 40
1.0
 40
1.0
 40
2.0
 40
2.0
 40
2.0
 40
2.0
 10
50.25243521117186
 20
139.0841086453261
 30
0.0
 10
51.90866595831194
 20
139.0841086453261
 30
0.0
 10
53.25122055458962
 20
140.4266632416038
 30
0.0
 10
53.25122055458962
 20
142.0827217338559
 30
0.0
 10
53.25122055458962
 20
142.0827217338559
 30
0.0
 10
53.25122055458962
 20
142.0827217338559
 30
0.0
 10
53.25122055458962
 20
142.0827217338559
 30
0.0
  0
POLYLINE
  5
27E
330
1F
100
AcDbEntity
  8
0
 62
    29
100
AcDb2dPolyline
 66
     1
 10
0.0
 20
0.0
 30
0.0
  0
VERTEX
  5
27F
330
27E
100
AcDbEntity
  8
0
 62
    29
100
AcDbVertex
100
AcDb2dVertex
 10
48.56278701577956
 20
141.3926686529362
 30
0.0
  0
VERTEX
  5
280
330
27E
100
AcDbEntity
  8
0
 62
    29
100
AcDbVertex
100
AcDb2dVertex
 10
50.94266054697949
 20
143.7725421841362
 30
0.0
  0
SEQEND
  5
281
330
27E
100
AcDbEntity
  8
0
  0
POLYLINE
  5
282
330
1F
100
AcDbEntity
  8
0
 62
    29
100
AcDb2dPolyline
 66
     1
 10
0.0
 20
0.0
 30
0.0
  0
VERTEX
  5
283
330
282
100
AcDbEntity
  8
0
 62
    29
100
AcDbVertex
100
AcDb2dVertex
 10
48.56278701577956
 20
143.7725421841362
 30
0.0
  0
VERTEX
  5
284
330
282
100
AcDbEntity
  8
0
 62
    29
100
AcDbVertex
100
AcDb2dVertex
 10
50.94266054697949
 20
141.3926686529362
 30
0.0
  0
SEQEND
  5
285
330
282
100
AcDbEntity
  8
0
  0
SPLINE
  5
286
330
1F
100
AcDbEntity
  8
0
 62
    29
100
AcDbSpline
210
0.0
220
0.0
230
1.0
 70
    11
 71
     3
 72
    23
 73
    19
 74
     0
 42
0.0000000001
 43
0.0000000001
 40
0.0
 40
0.0
 40
0.0
 40
0.0
 40
1.0
 40
1.0
 40
1.0
 40
2.0
 40
2.0
 40
2.0
 40
3.0
 40
3.0
 40
3.0
 40
4.0
 40
4.0
 40
4.0
 40
5.0
 40
5.0
 40
5.0
 40
6.0
 40
6.0
 40
6.0
 40
6.0
 10
52.50156728245715
 20
142.5826054185362
 30
0.0
 10
52.50156728245715
 20
144.1008600004699
 30
0.0
 10
51.27080610842534
 20
145.3314489196138
 30
0.0
 10
49.75272378137952
 20
145.3314489196138
 30
0.0
 10
48.2346414543337
 20
145.3314489196138
 30
0.0
 10
47.00388028030189
 20
144.1008600004699
 30
0.0
 10
47.00388028030189
 20
142.5826054185362
 30
0.0
 10
47.00388028030189
 20
141.0643508366025
 30
0.0
 10
48.2346414543337
 20
139.8337619174586
 30
0.0
 10
49.75272378137952
 20
139.8337619174586
 30
0.0
 10
51.27080610842534
 20
139.8337619174586
 30
0.0
 10
52.50156728245715
 20
141.0643508366025
 30
0.0
 10
52.50156728245715
 20
142.5826054185362
 30
0.0
 10
52.50156728245715
 20
142.5826054185362
 30
0.0
 10
52.50156728245715
 20
142.5826054185362
 30
0.0
 10
52.50156728245715
 20
142.5826054185362
 30
0.0
 10
52.50156728245715
 20
142.5826054185362
 30
0.0
 10
52.50156728245715
 20
142.5826054185362
 30
0.0
 10
52.50156728245715
 20
142.5826054185362
 30
0.0
  0
POLYLINE
  5
287
330
1F
100
AcDbEntity
  8
0
 62
    29
100
AcDb2dPolyline
 66
     1
 10
0.0
 20
0.0
 30
0.0
  0
VERTEX
  5
288
330
287
100
AcDbEntity
  8
0
 62
    29
100
AcDbVertex
100
AcDb2dVertex
 10
27.95266193366165
 20
166.762540797454
 30
0.0
  0
VERTEX
  5
289
330
287
100
AcDbEntity
  8
0
 62
    29
100
AcDbVertex
100
AcDb2dVertex
 10
25.57278840246171
 20
164.3826672662541
 30
0.0
  0
SEQEND
  5
28A
330
287
100
AcDbEntity
  8
0
  0
POLYLINE
  5
28B
330
1F
100
AcDbEntity
  8
0
 62
    29
100
AcDb2dPolyline
 66
     1
 10
0.0
 20
0.0
 30
0.0
  0
VERTEX
  5
28C
330
28B
100
AcDbEntity
  8
0
 62
    29
100
AcDbVertex
100
AcDb2dVertex
 10
27.95266193366165
 20
164.3826672662541
 30
0.0
  0
VERTEX
  5
28D
330
28B
100
AcDbEntity
  8
0
 62
    29
100
AcDbVertex
100
AcDb2dVertex
 10
25.57278840246171
 20
166.762540797454
 30
0.0
  0
SEQEND
  5
28E
330
28B
100
AcDbEntity
  8
0
  0
SPLINE
  5
28F
330
1F
100
AcDbEntity
  8
0
 62
    29
100
AcDbSpline
210
0.0
220
0.0
230
1.0
 70
    11
 71
     3
 72
    23
 73
    19
 74
     0
 42
0.0000000001
 43
0.0000000001
 40
0.0
 40
0.0
 40
0.0
 40
0.0
 40
1.0
 40
1.0
 40
1.0
 40
2.0
 40
2.0
 40
2.0
 40
3.0
 40
3.0
 40
3.0
 40
4.0
 40
4.0
 40
4.0
 40
5.0
 40
5.0
 40
5.0
 40
6.0
 40
6.0
 40
6.0
 40
6.0
 10
29.51156866913932
 20
165.572604031854
 30
0.0
 10
29.51156866913932
 20
167.0906863588999
 30
0.0
 10
28.2808074951075
 20
168.3212752780438
 30
0.0
 10
26.76272516806168
 20
168.3212752780438
 30
0.0
 10
25.24464284101586
 20
168.3212752780438
 30
0.0
 10
24.01388166698405
 20
167.0906863588999
 30
0.0
 10
24.01388166698405
 20
165.572604031854
 30
0.0
 10
24.01388166698405
 20
164.0545217048082
 30
0.0
 10
25.24464284101586
 20
162.8237605307764
 30
0.0
 10
26.76272516806168
 20
162.8237605307764
 30
0.0
 10
28.2808074951075
 20
162.8237605307764
 30
0.0
 10
29.51156866913932
 20
164.0545217048082
 30
0.0
 10
29.51156866913932
 20
165.572604031854
 30
0.0
 10
29.51156866913932
 20
165.572604031854
 30
0.0
 10
29.51156866913932
 20
165.572604031854
 30
0.0
 10
29.51156866913932
 20
165.572604031854
 30
0.0
 10
29.51156866913932
 20
165.572604031854
 30
0.0
 10
29.51156866913932
 20
165.572604031854
 30
0.0
 10
29.51156866913932
 20
165.572604031854
 30
0.0
  0
POLYLINE
  5
290
330
1F
100
AcDbEntity
  8
0
 62
    29
100
AcDb2dPolyline
 66
     1
 10
0.0
 20
0.0
 30
0.0
  0
VERTEX
  5
291
330
290
100
AcDbEntity
  8
0
 62
    29
100
AcDbVertex
100
AcDb2dVertex
 10
27.95266193366165
 20
141.3926686529362
 30
0.0
  0
VERTEX
  5
292
330
290
100
AcDbEntity
  8
0
 62
    29
100
AcDbVertex
100
AcDb2dVertex
 10
25.57278840246171
 20
143.7725421841362
 30
0.0
  0
SEQEND
  5
293
330
290
100
AcDbEntity
  8
0
  0
POLYLINE
  5
294
330
1F
100
AcDbEntity
  8
0
 62
    29
100
AcDb2dPolyline
 66
     1
 10
0.0
 20
0.0
 30
0.0
  0
VERTEX
  5
295
330
294
100
AcDbEntity
  8
0
 62
    29
100
AcDbVertex
100
AcDb2dVertex
 10
27.95266193366165
 20
143.7725421841362
 30
0.0
  0
VERTEX
  5
296
330
294
100
AcDbEntity
  8
0
 62
    29
100
AcDbVertex
100
AcDb2dVertex
 10
25.57278840246171
 20
141.3926686529362
 30
0.0
  0
SEQEND
  5
297
330
294
100
AcDbEntity
  8
0
  0
SPLINE
  5
298
330
1F
100
AcDbEntity
  8
0
 62
    29
100
AcDbSpline
210
0.0
220
0.0
230
1.0
 70
    11
 71
     3
 72
    23
 73
    19
 74
     0
 42
0.0000000001
 43
0.0000000001
 40
0.0
 40
0.0
 40
0.0
 40
0.0
 40
1.0
 40
1.0
 40
1.0
 40
2.0
 40
2.0
 40
2.0
 40
3.0
 40
3.0
 40
3.0
 40
4.0
 40
4.0
 40
4.0
 40
5.0
 40
5.0
 40
5.0
 40
6.0
 40
6.0
 40
6.0
 40
6.0
 10
29.51156866913932
 20
142.5826054185362
 30
0.0
 10
29.51156866913932
 20
144.1008600004699
 30
0.0
 10
28.2808074951075
 20
145.3314489196138
 30
0.0
 10
26.76272516806168
 20
145.3314489196138
 30
0.0
 10
25.24464284101586
 20
145.3314489196138
 30
0.0
 10
24.01388166698405
 20
144.1008600004699
 30
0.0
 10
24.01388166698405
 20
142.5826054185362
 30
0.0
 10
24.01388166698405
 20
141.0643508366025
 30
0.0
 10
25.24464284101586
 20
139.8337619174586
 30
0.0
 10
26.76272516806168
 20
139.8337619174586
 30
0.0
 10
28.2808074951075
 20
139.8337619174586
 30
0.0
 10
29.51156866913932
 20
141.0643508366025
 30
0.0
 10
29.51156866913932
 20
142.5826054185362
 30
0.0
 10
29.51156866913932
 20
142.5826054185362
 30
0.0
 10
29.51156866913932
 20
142.5826054185362
 30
0.0
 10
29.51156866913932
 20
142.5826054185362
 30
0.0
 10
29.51156866913932
 20
142.5826054185362
 30
0.0
 10
29.51156866913932
 20
142.5826054185362
 30
0.0
 10
29.51156866913932
 20
142.5826054185362
 30
0.0
  0
POLYLINE
  5
299
330
1F
100
AcDbEntity
  8
0
 62
    29
100
AcDb2dPolyline
 66
     1
 10
0.0
 20
0.0
 30
0.0
  0
VERTEX
  5
29A
330
299
100
AcDbEntity
  8
0
 62
    29
100
AcDbVertex
100
AcDb2dVertex
 10
53.25122055458962
 20
217.7196707550169
 30
0.0
  0
VERTEX
  5
29B
330
299
100
AcDbEntity
  8
0
 62
    29
100
AcDbVertex
100
AcDb2dVertex
 10
23.26422839485159
 20
217.7196707550169
 30
0.0
  0
SEQEND
  5
29C
330
299
100
AcDbEntity
  8
0
  0
POLYLINE
  5
29D
330
1F
100
AcDbEntity
  8
0
 62
    29
100
AcDb2dPolyline
 66
     1
 10
0.0
 20
0.0
 30
0.0
  0
VERTEX
  5
29E
330
29D
100
AcDbEntity
  8
0
 62
    29
100
AcDbVertex
100
AcDb2dVertex
 10
49.65281594639863
 20
205.2251624613294
 30
0.0
  0
VERTEX
  5
29F
330
29D
100
AcDbEntity
  8
0
 62
    29
100
AcDbVertex
100
AcDb2dVertex
 10
26.86263300304257
 20
205.2251624613294
 30
0.0
  0
SEQEND
  5
2A0
330
29D
100
AcDbEntity
  8
0
  0
POLYLINE
  5
2A1
330
1F
100
AcDbEntity
  8
0
 62
    29
100
AcDb2dPolyline
 66
     1
 10
0.0
 20
0.0
 30
0.0
  0
VERTEX
  5
2A2
330
2A1
100
AcDbEntity
  8
0
 62
    29
100
AcDbVertex
100
AcDb2dVertex
 10
49.65281594639863
 20
210.2229657788044
 30
0.0
  0
VERTEX
  5
2A3
330
2A1
100
AcDbEntity
  8
0
 62
    29
100
AcDbVertex
100
AcDb2dVertex
 10
26.86263300304257
 20
210.2229657788044
 30
0.0
  0
SEQEND
  5
2A4
330
2A1
100
AcDbEntity
  8
0
  0
POLYLINE
  5
2A5
330
1F
100
AcDbEntity
  8
0
 62
    29
100
AcDb2dPolyline
 66
     1
 10
0.0
 20
0.0
 30
0.0
  0
VERTEX
  5
2A6
330
2A5
100
AcDbEntity
  8
0
 62
    29
100
AcDbVertex
100
AcDb2dVertex
 10
49.65281594639863
 20
212.2219837528617
 30
0.0
  0
VERTEX
  5
2A7
330
2A5
100
AcDbEntity
  8
0
 62
    29
100
AcDbVertex
100
AcDb2dVertex
 10
26.86263300304257
 20
212.2219837528617
 30
0.0
  0
SEQEND
  5
2A8
330
2A5
100
AcDbEntity
  8
0
  0
POLYLINE
  5
2A9
330
1F
100
AcDbEntity
  8
0
 62
    29
100
AcDb2dPolyline
 66
     1
 10
0.0
 20
0.0
 30
0.0
  0
VERTEX
  5
2AA
330
2A9
100
AcDbEntity
  8
0
 62
    29
100
AcDbVertex
100
AcDb2dVertex
 10
49.65281594639863
 20
215.4705386837316
 30
0.0
  0
VERTEX
  5
2AB
330
2A9
100
AcDbEntity
  8
0
 62
    29
100
AcDbVertex
100
AcDb2dVertex
 10
49.65281594639863
 20
212.2219837528617
 30
0.0
  0
SEQEND
  5
2AC
330
2A9
100
AcDbEntity
  8
0
  0
POLYLINE
  5
2AD
330
1F
100
AcDbEntity
  8
0
 62
    29
100
AcDb2dPolyline
 66
     1
 10
0.0
 20
0.0
 30
0.0
  0
VERTEX
  5
2AE
330
2AD
100
AcDbEntity
  8
0
 62
    29
100
AcDbVertex
100
AcDb2dVertex
 10
26.86263300304257
 20
215.4705386837316
 30
0.0
  0
VERTEX
  5
2AF
330
2AD
100
AcDbEntity
  8
0
 62
    29
100
AcDbVertex
100
AcDb2dVertex
 10
26.86263300304257
 20
212.2219837528617
 30
0.0
  0
SEQEND
  5
2B0
330
2AD
100
AcDbEntity
  8
0
  0
POLYLINE
  5
2B1
330
1F
100
AcDbEntity
  8
0
 62
    29
100
AcDb2dPolyline
 66
     1
 10
0.0
 20
0.0
 30
0.0
  0
VERTEX
  5
2B2
330
2B1
100
AcDbEntity
  8
0
 62
    29
100
AcDbVertex
100
AcDb2dVertex
 10
49.15293226171839
 20
212.2219837528617
 30
0.0
  0
VERTEX
  5
2B3
330
2B1
100
AcDbEntity
  8
0
 62
    29
100
AcDbVertex
100
AcDb2dVertex
 10
49.15293226171839
 20
210.2229657788044
 30
0.0
  0
SEQEND
  5
2B4
330
2B1
100
AcDbEntity
  8
0
  0
POLYLINE
  5
2B5
330
1F
100
AcDbEntity
  8
0
 62
    29
100
AcDb2dPolyline
 66
     1
 10
0.0
 20
0.0
 30
0.0
  0
VERTEX
  5
2B6
330
2B5
100
AcDbEntity
  8
0
 62
    29
100
AcDbVertex
100
AcDb2dVertex
 10
27.36251668772281
 20
212.2219837528617
 30
0.0
  0
VERTEX
  5
2B7
330
2B5
100
AcDbEntity
  8
0
 62
    29
100
AcDbVertex
100
AcDb2dVertex
 10
27.36251668772281
 20
210.2229657788044
 30
0.0
  0
SEQEND
  5
2B8
330
2B5
100
AcDbEntity
  8
0
  0
POLYLINE
  5
2B9
330
1F
100
AcDbEntity
  8
0
 62
    29
100
AcDb2dPolyline
 66
     1
 10
0.0
 20
0.0
 30
0.0
  0
VERTEX
  5
2BA
330
2B9
100
AcDbEntity
  8
0
 62
    29
100
AcDbVertex
100
AcDb2dVertex
 10
49.65281594639863
 20
210.2229657788044
 30
0.0
  0
VERTEX
  5
2BB
330
2B9
100
AcDbEntity
  8
0
 62
    29
100
AcDbVertex
100
AcDb2dVertex
 10
49.65281594639863
 20
205.2251624613294
 30
0.0
  0
SEQEND
  5
2BC
330
2B9
100
AcDbEntity
  8
0
  0
POLYLINE
  5
2BD
330
1F
100
AcDbEntity
  8
0
 62
    29
100
AcDb2dPolyline
 66
     1
 10
0.0
 20
0.0
 30
0.0
  0
VERTEX
  5
2BE
330
2BD
100
AcDbEntity
  8
0
 62
    29
100
AcDbVertex
100
AcDb2dVertex
 10
26.86263300304257
 20
210.2229657788044
 30
0.0
  0
VERTEX
  5
2BF
330
2BD
100
AcDbEntity
  8
0
 62
    29
100
AcDbVertex
100
AcDb2dVertex
 10
26.86263300304257
 20
205.2251624613294
 30
0.0
  0
SEQEND
  5
2C0
330
2BD
100
AcDbEntity
  8
0
  0
POLYLINE
  5
2C1
330
1F
100
AcDbEntity
  8
0
 62
    29
100
AcDb2dPolyline
 66
     1
 10
0.0
 20
0.0
 30
0.0
  0
VERTEX
  5
2C2
330
2C1
100
AcDbEntity
  8
0
 62
    29
100
AcDbVertex
100
AcDb2dVertex
 10
53.25122055458962
 20
220.7182838435468
 30
0.0
  0
VERTEX
  5
2C3
330
2C1
100
AcDbEntity
  8
0
 62
    29
100
AcDbVertex
100
AcDb2dVertex
 10
25.9698359190668
 20
220.7182838435468
 30
0.0
  0
SEQEND
  5
2C4
330
2C1
100
AcDbEntity
  8
0
  0
POLYLINE
  5
2C5
330
1F
100
AcDbEntity
  8
0
 62
    29
100
AcDb2dPolyline
 66
     1
 10
0.0
 20
0.0
 30
0.0
  0
VERTEX
  5
2C6
330
2C5
100
AcDbEntity
  8
0
 62
    29
100
AcDbVertex
100
AcDb2dVertex
 10
53.25122055458962
 20
220.7182838435468
 30
0.0
  0
VERTEX
  5
2C7
330
2C5
100
AcDbEntity
  8
0
 62
    29
100
AcDbVertex
100
AcDb2dVertex
 10
53.25122055458962
 20
217.7196707550169
 30
0.0
  0
SEQEND
  5
2C8
330
2C5
100
AcDbEntity
  8
0
  0
POLYLINE
  5
2C9
330
1F
100
AcDbEntity
  8
0
 62
    29
100
AcDb2dPolyline
 66
     1
 10
0.0
 20
0.0
 30
0.0
  0
VERTEX
  5
2CA
330
2C9
100
AcDbEntity
  8
0
 62
    29
100
AcDbVertex
100
AcDb2dVertex
 10
23.26422839485159
 20
219.7186887290742
 30
0.0
  0
VERTEX
  5
2CB
330
2C9
100
AcDbEntity
  8
0
 62
    29
100
AcDbVertex
100
AcDb2dVertex
 10
23.26422839485159
 20
217.7196707550169
 30
0.0
  0
SEQEND
  5
2CC
330
2C9
100
AcDbEntity
  8
0
  0
POLYLINE
  5
2CD
330
1F
100
AcDbEntity
  8
0
 62
    29
100
AcDb2dPolyline
 66
     1
 10
0.0
 20
0.0
 30
0.0
  0
VERTEX
  5
2CE
330
2CD
100
AcDbEntity
  8
0
 62
    29
100
AcDbVertex
100
AcDb2dVertex
 10
53.00127871224949
 20
222.2175903878117
 30
0.0
  0
VERTEX
  5
2CF
330
2CD
100
AcDbEntity
  8
0
 62
    29
100
AcDbVertex
100
AcDb2dVertex
 10
53.00127871224949
 20
220.7182838435468
 30
0.0
  0
SEQEND
  5
2D0
330
2CD
100
AcDbEntity
  8
0
  0
POLYLINE
  5
2D1
330
1F
100
AcDbEntity
  8
0
 62
    29
100
AcDb2dPolyline
 66
     1
 10
0.0
 20
0.0
 30
0.0
  0
VERTEX
  5
2D2
330
2D1
100
AcDbEntity
  8
0
 62
    29
100
AcDbVertex
100
AcDb2dVertex
 10
84.23763557391233
 20
217.7196707550169
 30
0.0
  0
VERTEX
  5
2D3
330
2D1
100
AcDbEntity
  8
0
 62
    29
100
AcDbVertex
100
AcDb2dVertex
 10
54.2508156690622
 20
217.7196707550169
 30
0.0
  0
SEQEND
  5
2D4
330
2D1
100
AcDbEntity
  8
0
  0
POLYLINE
  5
2D5
330
1F
100
AcDbEntity
  8
0
 62
    29
100
AcDb2dPolyline
 66
     1
 10
0.0
 20
0.0
 30
0.0
  0
VERTEX
  5
2D6
330
2D5
100
AcDbEntity
  8
0
 62
    29
100
AcDbVertex
100
AcDb2dVertex
 10
80.63923096572134
 20
205.2251624613294
 30
0.0
  0
VERTEX
  5
2D7
330
2D5
100
AcDbEntity
  8
0
 62
    29
100
AcDbVertex
100
AcDb2dVertex
 10
57.84922027725318
 20
205.2251624613294
 30
0.0
  0
SEQEND
  5
2D8
330
2D5
100
AcDbEntity
  8
0
  0
POLYLINE
  5
2D9
330
1F
100
AcDbEntity
  8
0
 62
    29
100
AcDb2dPolyline
 66
     1
 10
0.0
 20
0.0
 30
0.0
  0
VERTEX
  5
2DA
330
2D9
100
AcDbEntity
  8
0
 62
    29
100
AcDbVertex
100
AcDb2dVertex
 10
80.63923096572134
 20
210.2229657788044
 30
0.0
  0
VERTEX
  5
2DB
330
2D9
100
AcDbEntity
  8
0
 62
    29
100
AcDbVertex
100
AcDb2dVertex
 10
57.84922027725318
 20
210.2229657788044
 30
0.0
  0
SEQEND
  5
2DC
330
2D9
100
AcDbEntity
  8
0
  0
POLYLINE
  5
2DD
330
1F
100
AcDbEntity
  8
0
 62
    29
100
AcDb2dPolyline
 66
     1
 10
0.0
 20
0.0
 30
0.0
  0
VERTEX
  5
2DE
330
2DD
100
AcDbEntity
  8
0
 62
    29
100
AcDbVertex
100
AcDb2dVertex
 10
80.63923096572134
 20
212.2219837528617
 30
0.0
  0
VERTEX
  5
2DF
330
2DD
100
AcDbEntity
  8
0
 62
    29
100
AcDbVertex
100
AcDb2dVertex
 10
57.84922027725318
 20
212.2219837528617
 30
0.0
  0
SEQEND
  5
2E0
330
2DD
100
AcDbEntity
  8
0
  0
POLYLINE
  5
2E1
330
1F
100
AcDbEntity
  8
0
 62
    29
100
AcDb2dPolyline
 66
     1
 10
0.0
 20
0.0
 30
0.0
  0
VERTEX
  5
2E2
330
2E1
100
AcDbEntity
  8
0
 62
    29
100
AcDbVertex
100
AcDb2dVertex
 10
80.63923096572134
 20
215.4705386837316
 30
0.0
  0
VERTEX
  5
2E3
330
2E1
100
AcDbEntity
  8
0
 62
    29
100
AcDbVertex
100
AcDb2dVertex
 10
80.63923096572134
 20
212.2219837528617
 30
0.0
  0
SEQEND
  5
2E4
330
2E1
100
AcDbEntity
  8
0
  0
POLYLINE
  5
2E5
330
1F
100
AcDbEntity
  8
0
 62
    29
100
AcDb2dPolyline
 66
     1
 10
0.0
 20
0.0
 30
0.0
  0
VERTEX
  5
2E6
330
2E5
100
AcDbEntity
  8
0
 62
    29
100
AcDbVertex
100
AcDb2dVertex
 10
57.84922027725318
 20
215.4705386837316
 30
0.0
  0
VERTEX
  5
2E7
330
2E5
100
AcDbEntity
  8
0
 62
    29
100
AcDbVertex
100
AcDb2dVertex
 10
57.84922027725318
 20
212.2219837528617
 30
0.0
  0
SEQEND
  5
2E8
330
2E5
100
AcDbEntity
  8
0
  0
POLYLINE
  5
2E9
330
1F
100
AcDbEntity
  8
0
 62
    29
100
AcDb2dPolyline
 66
     1
 10
0.0
 20
0.0
 30
0.0
  0
VERTEX
  5
2EA
330
2E9
100
AcDbEntity
  8
0
 62
    29
100
AcDbVertex
100
AcDb2dVertex
 10
80.1393472810411
 20
212.2219837528617
 30
0.0
  0
VERTEX
  5
2EB
330
2E9
100
AcDbEntity
  8
0
 62
    29
100
AcDbVertex
100
AcDb2dVertex
 10
80.1393472810411
 20
210.2229657788044
 30
0.0
  0
SEQEND
  5
2EC
330
2E9
100
AcDbEntity
  8
0
  0
POLYLINE
  5
2ED
330
1F
100
AcDbEntity
  8
0
 62
    29
100
AcDb2dPolyline
 66
     1
 10
0.0
 20
0.0
 30
0.0
  0
VERTEX
  5
2EE
330
2ED
100
AcDbEntity
  8
0
 62
    29
100
AcDbVertex
100
AcDb2dVertex
 10
58.34893170704552
 20
212.2219837528617
 30
0.0
  0
VERTEX
  5
2EF
330
2ED
100
AcDbEntity
  8
0
 62
    29
100
AcDbVertex
100
AcDb2dVertex
 10
58.34893170704552
 20
210.2229657788044
 30
0.0
  0
SEQEND
  5
2F0
330
2ED
100
AcDbEntity
  8
0
  0
POLYLINE
  5
2F1
330
1F
100
AcDbEntity
  8
0
 62
    29
100
AcDb2dPolyline
 66
     1
 10
0.0
 20
0.0
 30
0.0
  0
VERTEX
  5
2F2
330
2F1
100
AcDbEntity
  8
0
 62
    29
100
AcDbVertex
100
AcDb2dVertex
 10
80.63923096572134
 20
210.2229657788044
 30
0.0
  0
VERTEX
  5
2F3
330
2F1
100
AcDbEntity
  8
0
 62
    29
100
AcDbVertex
100
AcDb2dVertex
 10
80.63923096572134
 20
205.2251624613294
 30
0.0
  0
SEQEND
  5
2F4
330
2F1
100
AcDbEntity
  8
0
  0
POLYLINE
  5
2F5
330
1F
100
AcDbEntity
  8
0
 62
    29
100
AcDb2dPolyline
 66
     1
 10
0.0
 20
0.0
 30
0.0
  0
VERTEX
  5
2F6
330
2F5
100
AcDbEntity
  8
0
 62
    29
100
AcDbVertex
100
AcDb2dVertex
 10
57.84922027725318
 20
210.2229657788044
 30
0.0
  0
VERTEX
  5
2F7
330
2F5
100
AcDbEntity
  8
0
 62
    29
100
AcDbVertex
100
AcDb2dVertex
 10
57.84922027725318
 20
205.2251624613294
 30
0.0
  0
SEQEND
  5
2F8
330
2F5
100
AcDbEntity
  8
0
  0
POLYLINE
  5
2F9
330
1F
100
AcDbEntity
  8
0
 62
    29
100
AcDb2dPolyline
 66
     1
 10
0.0
 20
0.0
 30
0.0
  0
VERTEX
  5
2FA
330
2F9
100
AcDbEntity
  8
0
 62
    29
100
AcDbVertex
100
AcDb2dVertex
 10
82.03173947948946
 20
220.7182838435468
 30
0.0
  0
VERTEX
  5
2FB
330
2F9
100
AcDbEntity
  8
0
 62
    29
100
AcDbVertex
100
AcDb2dVertex
 10
54.2508156690622
 20
220.7182838435468
 30
0.0
  0
SEQEND
  5
2FC
330
2F9
100
AcDbEntity
  8
0
  0
POLYLINE
  5
2FD
330
1F
100
AcDbEntity
  8
0
 62
    29
100
AcDb2dPolyline
 66
     1
 10
0.0
 20
0.0
 30
0.0
  0
VERTEX
  5
2FE
330
2FD
100
AcDbEntity
  8
0
 62
    29
100
AcDbVertex
100
AcDb2dVertex
 10
84.23763557391233
 20
219.7488333344564
 30
0.0
  0
VERTEX
  5
2FF
330
2FD
100
AcDbEntity
  8
0
 62
    29
100
AcDbVertex
100
AcDb2dVertex
 10
84.23763557391233
 20
217.7196707550169
 30
0.0
  0
SEQEND
  5
300
330
2FD
100
AcDbEntity
  8
0
  0
POLYLINE
  5
301
330
1F
100
AcDbEntity
  8
0
 62
    29
100
AcDb2dPolyline
 66
     1
 10
0.0
 20
0.0
 30
0.0
  0
VERTEX
  5
302
330
301
100
AcDbEntity
  8
0
 62
    29
100
AcDbVertex
100
AcDb2dVertex
 10
54.2508156690622
 20
220.7182838435468
 30
0.0
  0
VERTEX
  5
303
330
301
100
AcDbEntity
  8
0
 62
    29
100
AcDbVertex
100
AcDb2dVertex
 10
54.2508156690622
 20
217.7196707550169
 30
0.0
  0
SEQEND
  5
304
330
301
100
AcDbEntity
  8
0
  0
POLYLINE
  5
305
330
1F
100
AcDbEntity
  8
0
 62
    29
100
AcDb2dPolyline
 66
     1
 10
0.0
 20
0.0
 30
0.0
  0
VERTEX
  5
306
330
305
100
AcDbEntity
  8
0
 62
    29
100
AcDbVertex
100
AcDb2dVertex
 10
54.50058525651442
 20
222.2175903878117
 30
0.0
  0
VERTEX
  5
307
330
305
100
AcDbEntity
  8
0
 62
    29
100
AcDbVertex
100
AcDb2dVertex
 10
54.50058525651442
 20
220.7182838435468
 30
0.0
  0
SEQEND
  5
308
330
305
100
AcDbEntity
  8
0
  0
POLYLINE
  5
309
330
1F
100
AcDbEntity
  8
0
 62
    29
100
AcDb2dPolyline
 66
     1
 10
0.0
 20
0.0
 30
0.0
  0
VERTEX
  5
30A
330
309
100
AcDbEntity
  8
0
 62
    29
100
AcDbVertex
100
AcDb2dVertex
 10
115.2238783383471
 20
217.7196707550169
 30
0.0
  0
VERTEX
  5
30B
330
309
100
AcDbEntity
  8
0
 62
    29
100
AcDbVertex
100
AcDb2dVertex
 10
85.23723068838491
 20
217.7196707550169
 30
0.0
  0
SEQEND
  5
30C
330
309
100
AcDbEntity
  8
0
  0
POLYLINE
  5
30D
330
1F
100
AcDbEntity
  8
0
 62
    29
100
AcDb2dPolyline
 66
     1
 10
0.0
 20
0.0
 30
0.0
  0
VERTEX
  5
30E
330
30D
100
AcDbEntity
  8
0
 62
    29
100
AcDbVertex
100
AcDb2dVertex
 10
111.625818239932
 20
205.2251624613294
 30
0.0
  0
VERTEX
  5
30F
330
30D
100
AcDbEntity
  8
0
 62
    29
100
AcDbVertex
100
AcDb2dVertex
 10
88.8356352965759
 20
205.2251624613294
 30
0.0
  0
SEQEND
  5
310
330
30D
100
AcDbEntity
  8
0
  0
POLYLINE
  5
311
330
1F
100
AcDbEntity
  8
0
 62
    29
100
AcDb2dPolyline
 66
     1
 10
0.0
 20
0.0
 30
0.0
  0
VERTEX
  5
312
330
311
100
AcDbEntity
  8
0
 62
    29
100
AcDbVertex
100
AcDb2dVertex
 10
111.625818239932
 20
210.2229657788044
 30
0.0
  0
VERTEX
  5
313
330
311
100
AcDbEntity
  8
0
 62
    29
100
AcDbVertex
100
AcDb2dVertex
 10
88.8356352965759
 20
210.2229657788044
 30
0.0
  0
SEQEND
  5
314
330
311
100
AcDbEntity
  8
0
  0
POLYLINE
  5
315
330
1F
100
AcDbEntity
  8
0
 62
    29
100
AcDb2dPolyline
 66
     1
 10
0.0
 20
0.0
 30
0.0
  0
VERTEX
  5
316
330
315
100
AcDbEntity
  8
0
 62
    29
100
AcDbVertex
100
AcDb2dVertex
 10
111.625818239932
 20
212.2219837528617
 30
0.0
  0
VERTEX
  5
317
330
315
100
AcDbEntity
  8
0
 62
    29
100
AcDbVertex
100
AcDb2dVertex
 10
88.8356352965759
 20
212.2219837528617
 30
0.0
  0
SEQEND
  5
318
330
315
100
AcDbEntity
  8
0
  0
POLYLINE
  5
319
330
1F
100
AcDbEntity
  8
0
 62
    29
100
AcDb2dPolyline
 66
     1
 10
0.0
 20
0.0
 30
0.0
  0
VERTEX
  5
31A
330
319
100
AcDbEntity
  8
0
 62
    29
100
AcDbVertex
100
AcDb2dVertex
 10
111.625818239932
 20
215.4705386837316
 30
0.0
  0
VERTEX
  5
31B
330
319
100
AcDbEntity
  8
0
 62
    29
100
AcDbVertex
100
AcDb2dVertex
 10
111.625818239932
 20
212.2219837528617
 30
0.0
  0
SEQEND
  5
31C
330
319
100
AcDbEntity
  8
0
  0
POLYLINE
  5
31D
330
1F
100
AcDbEntity
  8
0
 62
    29
100
AcDb2dPolyline
 66
     1
 10
0.0
 20
0.0
 30
0.0
  0
VERTEX
  5
31E
330
31D
100
AcDbEntity
  8
0
 62
    29
100
AcDbVertex
100
AcDb2dVertex
 10
88.8356352965759
 20
215.4705386837316
 30
0.0
  0
VERTEX
  5
31F
330
31D
100
AcDbEntity
  8
0
 62
    29
100
AcDbVertex
100
AcDb2dVertex
 10
88.8356352965759
 20
212.2219837528617
 30
0.0
  0
SEQEND
  5
320
330
31D
100
AcDbEntity
  8
0
  0
POLYLINE
  5
321
330
1F
100
AcDbEntity
  8
0
 62
    29
100
AcDb2dPolyline
 66
     1
 10
0.0
 20
0.0
 30
0.0
  0
VERTEX
  5
322
330
321
100
AcDbEntity
  8
0
 62
    29
100
AcDbVertex
100
AcDb2dVertex
 10
111.1259345552517
 20
212.2219837528617
 30
0.0
  0
VERTEX
  5
323
330
321
100
AcDbEntity
  8
0
 62
    29
100
AcDbVertex
100
AcDb2dVertex
 10
111.1259345552517
 20
210.2229657788044
 30
0.0
  0
SEQEND
  5
324
330
321
100
AcDbEntity
  8
0
  0
POLYLINE
  5
325
330
1F
100
AcDbEntity
  8
0
 62
    29
100
AcDb2dPolyline
 66
     1
 10
0.0
 20
0.0
 30
0.0
  0
VERTEX
  5
326
330
325
100
AcDbEntity
  8
0
 62
    29
100
AcDbVertex
100
AcDb2dVertex
 10
89.33534672636824
 20
212.2219837528617
 30
0.0
  0
VERTEX
  5
327
330
325
100
AcDbEntity
  8
0
 62
    29
100
AcDbVertex
100
AcDb2dVertex
 10
89.33534672636824
 20
210.2229657788044
 30
0.0
  0
SEQEND
  5
328
330
325
100
AcDbEntity
  8
0
  0
POLYLINE
  5
329
330
1F
100
AcDbEntity
  8
0
 62
    29
100
AcDb2dPolyline
 66
     1
 10
0.0
 20
0.0
 30
0.0
  0
VERTEX
  5
32A
330
329
100
AcDbEntity
  8
0
 62
    29
100
AcDbVertex
100
AcDb2dVertex
 10
111.625818239932
 20
210.2229657788044
 30
0.0
  0
VERTEX
  5
32B
330
329
100
AcDbEntity
  8
0
 62
    29
100
AcDbVertex
100
AcDb2dVertex
 10
111.625818239932
 20
205.2251624613294
 30
0.0
  0
SEQEND
  5
32C
330
329
100
AcDbEntity
  8
0
  0
POLYLINE
  5
32D
330
1F
100
AcDbEntity
  8
0
 62
    29
100
AcDb2dPolyline
 66
     1
 10
0.0
 20
0.0
 30
0.0
  0
VERTEX
  5
32E
330
32D
100
AcDbEntity
  8
0
 62
    29
100
AcDbVertex
100
AcDb2dVertex
 10
88.8356352965759
 20
210.2229657788044
 30
0.0
  0
VERTEX
  5
32F
330
32D
100
AcDbEntity
  8
0
 62
    29
100
AcDbVertex
100
AcDb2dVertex
 10
88.8356352965759
 20
205.2251624613294
 30
0.0
  0
SEQEND
  5
330
330
32D
100
AcDbEntity
  8
0
  0
POLYLINE
  5
331
330
1F
100
AcDbEntity
  8
0
 62
    29
100
AcDb2dPolyline
 66
     1
 10
0.0
 20
0.0
 30
0.0
  0
VERTEX
  5
332
330
331
100
AcDbEntity
  8
0
 62
    29
100
AcDbVertex
100
AcDb2dVertex
 10
112.5184430690198
 20
220.7182838435468
 30
0.0
  0
VERTEX
  5
333
330
331
100
AcDbEntity
  8
0
 62
    29
100
AcDbVertex
100
AcDb2dVertex
 10
87.44295452791988
 20
220.7182838435468
 30
0.0
  0
SEQEND
  5
334
330
331
100
AcDbEntity
  8
0
  0
POLYLINE
  5
335
330
1F
100
AcDbEntity
  8
0
 62
    29
100
AcDb2dPolyline
 66
     1
 10
0.0
 20
0.0
 30
0.0
  0
VERTEX
  5
336
330
335
100
AcDbEntity
  8
0
 62
    29
100
AcDbVertex
100
AcDb2dVertex
 10
115.2238783383471
 20
219.7186887290742
 30
0.0
  0
VERTEX
  5
337
330
335
100
AcDbEntity
  8
0
 62
    29
100
AcDbVertex
100
AcDb2dVertex
 10
115.2238783383471
 20
217.7196707550169
 30
0.0
  0
SEQEND
  5
338
330
335
100
AcDbEntity
  8
0
  0
POLYLINE
  5
339
330
1F
100
AcDbEntity
  8
0
 62
    29
100
AcDb2dPolyline
 66
     1
 10
0.0
 20
0.0
 30
0.0
  0
VERTEX
  5
33A
330
339
100
AcDbEntity
  8
0
 62
    29
100
AcDbVertex
100
AcDb2dVertex
 10
85.23723068838491
 20
219.7488333344564
 30
0.0
  0
VERTEX
  5
33B
330
339
100
AcDbEntity
  8
0
 62
    29
100
AcDbVertex
100
AcDb2dVertex
 10
85.23723068838491
 20
217.7196707550169
 30
0.0
  0
SEQEND
  5
33C
330
339
100
AcDbEntity
  8
0
  0
POLYLINE
  5
33D
330
1F
100
AcDbEntity
  8
0
 62
    29
100
AcDb2dPolyline
 66
     1
 10
0.0
 20
0.0
 30
0.0
  0
VERTEX
  5
33E
330
33D
100
AcDbEntity
  8
0
 62
    29
100
AcDbVertex
100
AcDb2dVertex
 10
87.54579069599504
 20
166.762540797454
 30
0.0
  0
VERTEX
  5
33F
330
33D
100
AcDbEntity
  8
0
 62
    29
100
AcDbVertex
100
AcDb2dVertex
 10
89.92566422719497
 20
164.3826672662541
 30
0.0
  0
SEQEND
  5
340
330
33D
100
AcDbEntity
  8
0
  0
POLYLINE
  5
341
330
1F
100
AcDbEntity
  8
0
 62
    29
100
AcDb2dPolyline
 66
     1
 10
0.0
 20
0.0
 30
0.0
  0
VERTEX
  5
342
330
341
100
AcDbEntity
  8
0
 62
    29
100
AcDbVertex
100
AcDb2dVertex
 10
87.54579069599504
 20
164.3826672662541
 30
0.0
  0
VERTEX
  5
343
330
341
100
AcDbEntity
  8
0
 62
    29
100
AcDbVertex
100
AcDb2dVertex
 10
89.92566422719497
 20
166.762540797454
 30
0.0
  0
SEQEND
  5
344
330
341
100
AcDbEntity
  8
0
  0
SPLINE
  5
345
330
1F
100
AcDbEntity
  8
0
 62
    29
100
AcDbSpline
210
0.0
220
0.0
230
1.0
 70
    11
 71
     3
 72
    23
 73
    19
 74
     0
 42
0.0000000001
 43
0.0000000001
 40
0.0
 40
0.0
 40
0.0
 40
0.0
 40
1.0
 40
1.0
 40
1.0
 40
2.0
 40
2.0
 40
2.0
 40
3.0
 40
3.0
 40
3.0
 40
4.0
 40
4.0
 40
4.0
 40
5.0
 40
5.0
 40
5.0
 40
6.0
 40
6.0
 40
6.0
 40
6.0
 10
91.48439870778473
 20
165.572604031854
 30
0.0
 10
91.48439870778473
 20
167.0906863588999
 30
0.0
 10
90.25380978864082
 20
168.3212752780438
 30
0.0
 10
88.73572746159501
 20
168.3212752780438
 30
0.0
 10
87.21747287966129
 20
168.3212752780438
 30
0.0
 10
85.98688396051738
 20
167.0906863588999
 30
0.0
 10
85.98688396051738
 20
165.572604031854
 30
0.0
 10
85.98688396051738
 20
164.0545217048082
 30
0.0
 10
87.21747287966129
 20
162.8237605307764
 30
0.0
 10
88.73572746159501
 20
162.8237605307764
 30
0.0
 10
90.25380978864082
 20
162.8237605307764
 30
0.0
 10
91.48439870778473
 20
164.0545217048082
 30
0.0
 10
91.48439870778473
 20
165.572604031854
 30
0.0
 10
91.48439870778473
 20
165.572604031854
 30
0.0
 10
91.48439870778473
 20
165.572604031854
 30
0.0
 10
91.48439870778473
 20
165.572604031854
 30
0.0
 10
91.48439870778473
 20
165.572604031854
 30
0.0
 10
91.48439870778473
 20
165.572604031854
 30
0.0
 10
91.48439870778473
 20
165.572604031854
 30
0.0
  0
POLYLINE
  5
346
330
1F
100
AcDbEntity
  8
0
 62
    29
100
AcDb2dPolyline
 66
     1
 10
0.0
 20
0.0
 30
0.0
  0
VERTEX
  5
347
330
346
100
AcDbEntity
  8
0
 62
    29
100
AcDbVertex
100
AcDb2dVertex
 10
79.54920203510227
 20
166.762540797454
 30
0.0
  0
VERTEX
  5
348
330
346
100
AcDbEntity
  8
0
 62
    29
100
AcDbVertex
100
AcDb2dVertex
 10
81.9290755663022
 20
164.3826672662541
 30
0.0
  0
SEQEND
  5
349
330
346
100
AcDbEntity
  8
0
  0
POLYLINE
  5
34A
330
1F
100
AcDbEntity
  8
0
 62
    29
100
AcDb2dPolyline
 66
     1
 10
0.0
 20
0.0
 30
0.0
  0
VERTEX
  5
34B
330
34A
100
AcDbEntity
  8
0
 62
    29
100
AcDbVertex
100
AcDb2dVertex
 10
79.54920203510227
 20
164.3826672662541
 30
0.0
  0
VERTEX
  5
34C
330
34A
100
AcDbEntity
  8
0
 62
    29
100
AcDbVertex
100
AcDb2dVertex
 10
81.9290755663022
 20
166.762540797454
 30
0.0
  0
SEQEND
  5
34D
330
34A
100
AcDbEntity
  8
0
  0
SPLINE
  5
34E
330
1F
100
AcDbEntity
  8
0
 62
    29
100
AcDbSpline
210
0.0
220
0.0
230
1.0
 70
    11
 71
     3
 72
    23
 73
    19
 74
     0
 42
0.0000000001
 43
0.0000000001
 40
0.0
 40
0.0
 40
0.0
 40
0.0
 40
1.0
 40
1.0
 40
1.0
 40
2.0
 40
2.0
 40
2.0
 40
3.0
 40
3.0
 40
3.0
 40
4.0
 40
4.0
 40
4.0
 40
5.0
 40
5.0
 40
5.0
 40
6.0
 40
6.0
 40
6.0
 40
6.0
 10
83.48798230177987
 20
165.572604031854
 30
0.0
 10
83.48798230177987
 20
167.0906863588999
 30
0.0
 10
82.25722112774805
 20
168.3212752780438
 30
0.0
 10
80.73913880070224
 20
168.3212752780438
 30
0.0
 10
79.22105647365642
 20
168.3212752780438
 30
0.0
 10
77.99029529962461
 20
167.0906863588999
 30
0.0
 10
77.99029529962461
 20
165.572604031854
 30
0.0
 10
77.99029529962461
 20
164.0545217048082
 30
0.0
 10
79.22105647365642
 20
162.8237605307764
 30
0.0
 10
80.73913880070224
 20
162.8237605307764
 30
0.0
 10
82.25722112774805
 20
162.8237605307764
 30
0.0
 10
83.48798230177987
 20
164.0545217048082
 30
0.0
 10
83.48798230177987
 20
165.572604031854
 30
0.0
 10
83.48798230177987
 20
165.572604031854
 30
0.0
 10
83.48798230177987
 20
165.572604031854
 30
0.0
 10
83.48798230177987
 20
165.572604031854
 30
0.0
 10
83.48798230177987
 20
165.572604031854
 30
0.0
 10
83.48798230177987
 20
165.572604031854
 30
0.0
 10
83.48798230177987
 20
165.572604031854
 30
0.0
  0
POLYLINE
  5
34F
330
1F
100
AcDbEntity
  8
0
 62
    29
100
AcDb2dPolyline
 66
     1
 10
0.0
 20
0.0
 30
0.0
  0
VERTEX
  5
350
330
34F
100
AcDbEntity
  8
0
 62
    29
100
AcDbVertex
100
AcDb2dVertex
 10
68.98549877986434
 20
171.5183259974322
 30
0.0
  0
VERTEX
  5
351
330
34F
100
AcDbEntity
  8
0
 62
    29
100
AcDbVertex
100
AcDb2dVertex
 10
70.20971426815602
 20
172.742369230836
 30
0.0
  0
SEQEND
  5
352
330
34F
100
AcDbEntity
  8
0
  0
POLYLINE
  5
353
330
1F
100
AcDbEntity
  8
0
 62
    29
100
AcDb2dPolyline
 66
     1
 10
0.0
 20
0.0
 30
0.0
  0
VERTEX
  5
354
330
353
100
AcDbEntity
  8
0
 62
    29
100
AcDbVertex
100
AcDb2dVertex
 10
68.72677193824141
 20
171.9663609608551
 30
0.0
  0
VERTEX
  5
355
330
353
100
AcDbEntity
  8
0
 62
    29
100
AcDbVertex
100
AcDb2dVertex
 10
70.82931509992544
 20
174.0689041225392
 30
0.0
  0
SEQEND
  5
356
330
353
100
AcDbEntity
  8
0
  0
POLYLINE
  5
357
330
1F
100
AcDbEntity
  8
0
 62
    29
100
AcDb2dPolyline
 66
     1
 10
0.0
 20
0.0
 30
0.0
  0
VERTEX
  5
358
330
357
100
AcDbEntity
  8
0
 62
    29
100
AcDbVertex
100
AcDb2dVertex
 10
68.4680450966185
 20
172.414395924278
 30
0.0
  0
VERTEX
  5
359
330
357
100
AcDbEntity
  8
0
 62
    29
100
AcDbVertex
100
AcDb2dVertex
 10
70.12255329487959
 20
174.0689041225392
 30
0.0
  0
SEQEND
  5
35A
330
357
100
AcDbEntity
  8
0
  0
POLYLINE
  5
35B
330
1F
100
AcDbEntity
  8
0
 62
    29
100
AcDb2dPolyline
 66
     1
 10
0.0
 20
0.0
 30
0.0
  0
VERTEX
  5
35C
330
35B
100
AcDbEntity
  8
0
 62
    29
100
AcDbVertex
100
AcDb2dVertex
 10
68.20931825499557
 20
172.8626031425889
 30
0.0
  0
VERTEX
  5
35D
330
35B
100
AcDbEntity
  8
0
 62
    29
100
AcDbVertex
100
AcDb2dVertex
 10
69.41561923494585
 20
174.0689041225392
 30
0.0
  0
SEQEND
  5
35E
330
35B
100
AcDbEntity
  8
0
  0
POLYLINE
  5
35F
330
1F
100
AcDbEntity
  8
0
 62
    29
100
AcDb2dPolyline
 66
     1
 10
0.0
 20
0.0
 30
0.0
  0
VERTEX
  5
360
330
35F
100
AcDbEntity
  8
0
 62
    29
100
AcDbVertex
100
AcDb2dVertex
 10
67.95059141337265
 20
173.3106381060118
 30
0.0
  0
VERTEX
  5
361
330
35F
100
AcDbEntity
  8
0
 62
    29
100
AcDbVertex
100
AcDb2dVertex
 10
68.70885742990002
 20
174.0689041225392
 30
0.0
  0
SEQEND
  5
362
330
35F
100
AcDbEntity
  8
0
  0
POLYLINE
  5
363
330
1F
100
AcDbEntity
  8
0
 62
    29
100
AcDb2dPolyline
 66
     1
 10
0.0
 20
0.0
 30
0.0
  0
VERTEX
  5
364
330
363
100
AcDbEntity
  8
0
 62
    29
100
AcDbVertex
100
AcDb2dVertex
 10
67.69186457174973
 20
173.7586730694347
 30
0.0
  0
VERTEX
  5
365
330
363
100
AcDbEntity
  8
0
 62
    29
100
AcDbVertex
100
AcDb2dVertex
 10
68.00209562485418
 20
174.0689041225392
 30
0.0
  0
SEQEND
  5
366
330
363
100
AcDbEntity
  8
0
  0
POLYLINE
  5
367
330
1F
100
AcDbEntity
  8
0
 62
    29
100
AcDb2dPolyline
 66
     1
 10
0.0
 20
0.0
 30
0.0
  0
VERTEX
  5
368
330
367
100
AcDbEntity
  8
0
 62
    29
100
AcDbVertex
100
AcDb2dVertex
 10
68.2787369748185
 20
172.742369230836
 30
0.0
  0
VERTEX
  5
369
330
367
100
AcDbEntity
  8
0
 62
    29
100
AcDbVertex
100
AcDb2dVertex
 10
69.50295246311019
 20
171.5183259974322
 30
0.0
  0
SEQEND
  5
36A
330
367
100
AcDbEntity
  8
0
  0
POLYLINE
  5
36B
330
1F
100
AcDbEntity
  8
0
 62
    29
100
AcDb2dPolyline
 66
     1
 10
0.0
 20
0.0
 30
0.0
  0
VERTEX
  5
36C
330
36B
100
AcDbEntity
  8
0
 62
    29
100
AcDbVertex
100
AcDb2dVertex
 10
67.6591361430491
 20
174.0689041225392
 30
0.0
  0
VERTEX
  5
36D
330
36B
100
AcDbEntity
  8
0
 62
    29
100
AcDbVertex
100
AcDb2dVertex
 10
69.76167930473311
 20
171.9663609608551
 30
0.0
  0
SEQEND
  5
36E
330
36B
100
AcDbEntity
  8
0
  0
POLYLINE
  5
36F
330
1F
100
AcDbEntity
  8
0
 62
    29
100
AcDb2dPolyline
 66
     1
 10
0.0
 20
0.0
 30
0.0
  0
VERTEX
  5
370
330
36F
100
AcDbEntity
  8
0
 62
    29
100
AcDbVertex
100
AcDb2dVertex
 10
68.36589794809493
 20
174.0689041225392
 30
0.0
  0
VERTEX
  5
371
330
36F
100
AcDbEntity
  8
0
 62
    29
100
AcDbVertex
100
AcDb2dVertex
 10
70.02023389146814
 20
172.414395924278
 30
0.0
  0
SEQEND
  5
372
330
36F
100
AcDbEntity
  8
0
  0
POLYLINE
  5
373
330
1F
100
AcDbEntity
  8
0
 62
    29
100
AcDb2dPolyline
 66
     1
 10
0.0
 20
0.0
 30
0.0
  0
VERTEX
  5
374
330
373
100
AcDbEntity
  8
0
 62
    29
100
AcDbVertex
100
AcDb2dVertex
 10
69.07265975314077
 20
174.0689041225392
 30
0.0
  0
VERTEX
  5
375
330
373
100
AcDbEntity
  8
0
 62
    29
100
AcDbVertex
100
AcDb2dVertex
 10
70.27896073309105
 20
172.8626031425889
 30
0.0
  0
SEQEND
  5
376
330
373
100
AcDbEntity
  8
0
  0
POLYLINE
  5
377
330
1F
100
AcDbEntity
  8
0
 62
    29
100
AcDb2dPolyline
 66
     1
 10
0.0
 20
0.0
 30
0.0
  0
VERTEX
  5
378
330
377
100
AcDbEntity
  8
0
 62
    29
100
AcDbVertex
100
AcDb2dVertex
 10
69.77942155818661
 20
174.0689041225392
 30
0.0
  0
VERTEX
  5
379
330
377
100
AcDbEntity
  8
0
 62
    29
100
AcDbVertex
100
AcDb2dVertex
 10
70.53768757471399
 20
173.3106381060118
 30
0.0
  0
SEQEND
  5
37A
330
377
100
AcDbEntity
  8
0
  0
POLYLINE
  5
37B
330
1F
100
AcDbEntity
  8
0
 62
    29
100
AcDb2dPolyline
 66
     1
 10
0.0
 20
0.0
 30
0.0
  0
VERTEX
  5
37C
330
37B
100
AcDbEntity
  8
0
 62
    29
100
AcDbVertex
100
AcDb2dVertex
 10
70.48635561812036
 20
174.0689041225392
 30
0.0
  0
VERTEX
  5
37D
330
37B
100
AcDbEntity
  8
0
 62
    29
100
AcDbVertex
100
AcDb2dVertex
 10
70.7964144163369
 20
173.7586730694347
 30
0.0
  0
SEQEND
  5
37E
330
37B
100
AcDbEntity
  8
0
  0
POLYLINE
  5
37F
330
1F
100
AcDbEntity
  8
0
 62
    29
100
AcDb2dPolyline
 66
     1
 10
0.0
 20
0.0
 30
0.0
  0
VERTEX
  5
380
330
37F
100
AcDbEntity
  8
0
 62
    29
100
AcDbVertex
100
AcDb2dVertex
 10
99.97191379918705
 20
171.5183259974322
 30
0.0
  0
VERTEX
  5
381
330
37F
100
AcDbEntity
  8
0
 62
    29
100
AcDbVertex
100
AcDb2dVertex
 10
101.1961292874787
 20
172.742369230836
 30
0.0
  0
SEQEND
  5
382
330
37F
100
AcDbEntity
  8
0
  0
POLYLINE
  5
383
330
1F
100
AcDbEntity
  8
0
 62
    29
100
AcDb2dPolyline
 66
     1
 10
0.0
 20
0.0
 30
0.0
  0
VERTEX
  5
384
330
383
100
AcDbEntity
  8
0
 62
    29
100
AcDbVertex
100
AcDb2dVertex
 10
99.71318695756413
 20
171.9663609608551
 30
0.0
  0
VERTEX
  5
385
330
383
100
AcDbEntity
  8
0
 62
    29
100
AcDbVertex
100
AcDb2dVertex
 10
101.8157301192481
 20
174.0689041225392
 30
0.0
  0
SEQEND
  5
386
330
383
100
AcDbEntity
  8
0
  0
POLYLINE
  5
387
330
1F
100
AcDbEntity
  8
0
 62
    29
100
AcDb2dPolyline
 66
     1
 10
0.0
 20
0.0
 30
0.0
  0
VERTEX
  5
388
330
387
100
AcDbEntity
  8
0
 62
    29
100
AcDbVertex
100
AcDb2dVertex
 10
99.4544601159412
 20
172.414395924278
 30
0.0
  0
VERTEX
  5
389
330
387
100
AcDbEntity
  8
0
 62
    29
100
AcDbVertex
100
AcDb2dVertex
 10
101.1089683142023
 20
174.0689041225392
 30
0.0
  0
SEQEND
  5
38A
330
387
100
AcDbEntity
  8
0
  0
POLYLINE
  5
38B
330
1F
100
AcDbEntity
  8
0
 62
    29
100
AcDb2dPolyline
 66
     1
 10
0.0
 20
0.0
 30
0.0
  0
VERTEX
  5
38C
330
38B
100
AcDbEntity
  8
0
 62
    29
100
AcDbVertex
100
AcDb2dVertex
 10
99.19590552920619
 20
172.8626031425889
 30
0.0
  0
VERTEX
  5
38D
330
38B
100
AcDbEntity
  8
0
 62
    29
100
AcDbVertex
100
AcDb2dVertex
 10
100.4022065091565
 20
174.0689041225392
 30
0.0
  0
SEQEND
  5
38E
330
38B
100
AcDbEntity
  8
0
  0
POLYLINE
  5
38F
330
1F
100
AcDbEntity
  8
0
 62
    29
100
AcDb2dPolyline
 66
     1
 10
0.0
 20
0.0
 30
0.0
  0
VERTEX
  5
390
330
38F
100
AcDbEntity
  8
0
 62
    29
100
AcDbVertex
100
AcDb2dVertex
 10
98.93717868758326
 20
173.3106381060118
 30
0.0
  0
VERTEX
  5
391
330
38F
100
AcDbEntity
  8
0
 62
    29
100
AcDbVertex
100
AcDb2dVertex
 10
99.69527244922273
 20
174.0689041225392
 30
0.0
  0
SEQEND
  5
392
330
38F
100
AcDbEntity
  8
0
  0
POLYLINE
  5
393
330
1F
100
AcDbEntity
  8
0
 62
    29
100
AcDb2dPolyline
 66
     1
 10
0.0
 20
0.0
 30
0.0
  0
VERTEX
  5
394
330
393
100
AcDbEntity
  8
0
 62
    29
100
AcDbVertex
100
AcDb2dVertex
 10
98.67845184596034
 20
173.7586730694347
 30
0.0
  0
VERTEX
  5
395
330
393
100
AcDbEntity
  8
0
 62
    29
100
AcDbVertex
100
AcDb2dVertex
 10
98.98851064417688
 20
174.0689041225392
 30
0.0
  0
SEQEND
  5
396
330
393
100
AcDbEntity
  8
0
  0
POLYLINE
  5
397
330
1F
100
AcDbEntity
  8
0
 62
    29
100
AcDb2dPolyline
 66
     1
 10
0.0
 20
0.0
 30
0.0
  0
VERTEX
  5
398
330
397
100
AcDbEntity
  8
0
 62
    29
100
AcDbVertex
100
AcDb2dVertex
 10
99.26515199414121
 20
172.742369230836
 30
0.0
  0
VERTEX
  5
399
330
397
100
AcDbEntity
  8
0
 62
    29
100
AcDbVertex
100
AcDb2dVertex
 10
100.4893674824329
 20
171.5183259974322
 30
0.0
  0
SEQEND
  5
39A
330
397
100
AcDbEntity
  8
0
  0
POLYLINE
  5
39B
330
1F
100
AcDbEntity
  8
0
 62
    29
100
AcDb2dPolyline
 66
     1
 10
0.0
 20
0.0
 30
0.0
  0
VERTEX
  5
39C
330
39B
100
AcDbEntity
  8
0
 62
    29
100
AcDbVertex
100
AcDb2dVertex
 10
98.6455511623718
 20
174.0689041225392
 30
0.0
  0
VERTEX
  5
39D
330
39B
100
AcDbEntity
  8
0
 62
    29
100
AcDbVertex
100
AcDb2dVertex
 10
100.7480943240558
 20
171.9663609608551
 30
0.0
  0
SEQEND
  5
39E
330
39B
100
AcDbEntity
  8
0
  0
POLYLINE
  5
39F
330
1F
100
AcDbEntity
  8
0
 62
    29
100
AcDb2dPolyline
 66
     1
 10
0.0
 20
0.0
 30
0.0
  0
VERTEX
  5
3A0
330
39F
100
AcDbEntity
  8
0
 62
    29
100
AcDbVertex
100
AcDb2dVertex
 10
99.35231296741765
 20
174.0689041225392
 30
0.0
  0
VERTEX
  5
3A1
330
39F
100
AcDbEntity
  8
0
 62
    29
100
AcDbVertex
100
AcDb2dVertex
 10
101.0068211656787
 20
172.414395924278
 30
0.0
  0
SEQEND
  5
3A2
330
39F
100
AcDbEntity
  8
0
  0
POLYLINE
  5
3A3
330
1F
100
AcDbEntity
  8
0
 62
    29
100
AcDb2dPolyline
 66
     1
 10
0.0
 20
0.0
 30
0.0
  0
VERTEX
  5
3A4
330
3A3
100
AcDbEntity
  8
0
 62
    29
100
AcDbVertex
100
AcDb2dVertex
 10
100.0590747724635
 20
174.0689041225392
 30
0.0
  0
VERTEX
  5
3A5
330
3A3
100
AcDbEntity
  8
0
 62
    29
100
AcDbVertex
100
AcDb2dVertex
 10
101.2655480073017
 20
172.8626031425889
 30
0.0
  0
SEQEND
  5
3A6
330
3A3
100
AcDbEntity
  8
0
  0
POLYLINE
  5
3A7
330
1F
100
AcDbEntity
  8
0
 62
    29
100
AcDb2dPolyline
 66
     1
 10
0.0
 20
0.0
 30
0.0
  0
VERTEX
  5
3A8
330
3A7
100
AcDbEntity
  8
0
 62
    29
100
AcDbVertex
100
AcDb2dVertex
 10
100.7660088323972
 20
174.0689041225392
 30
0.0
  0
VERTEX
  5
3A9
330
3A7
100
AcDbEntity
  8
0
 62
    29
100
AcDbVertex
100
AcDb2dVertex
 10
101.5241025940367
 20
173.3106381060118
 30
0.0
  0
SEQEND
  5
3AA
330
3A7
100
AcDbEntity
  8
0
  0
POLYLINE
  5
3AB
330
1F
100
AcDbEntity
  8
0
 62
    29
100
AcDb2dPolyline
 66
     1
 10
0.0
 20
0.0
 30
0.0
  0
VERTEX
  5
3AC
330
3AB
100
AcDbEntity
  8
0
 62
    29
100
AcDbVertex
100
AcDb2dVertex
 10
101.4727706374431
 20
174.0689041225392
 30
0.0
  0
VERTEX
  5
3AD
330
3AB
100
AcDbEntity
  8
0
 62
    29
100
AcDbVertex
100
AcDb2dVertex
 10
101.7828294356596
 20
173.7586730694347
 30
0.0
  0
SEQEND
  5
3AE
330
3AB
100
AcDbEntity
  8
0
  0
POLYLINE
  5
3AF
330
1F
100
AcDbEntity
  8
0
 62
    29
100
AcDb2dPolyline
 66
     1
 10
0.0
 20
0.0
 30
0.0
  0
VERTEX
  5
3B0
330
3AF
100
AcDbEntity
  8
0
 62
    29
100
AcDbVertex
100
AcDb2dVertex
 10
37.99908376054163
 20
171.5183259974322
 30
0.0
  0
VERTEX
  5
3B1
330
3AF
100
AcDbEntity
  8
0
 62
    29
100
AcDbVertex
100
AcDb2dVertex
 10
39.22329924883331
 20
172.742369230836
 30
0.0
  0
SEQEND
  5
3B2
330
3AF
100
AcDbEntity
  8
0
  0
POLYLINE
  5
3B3
330
1F
100
AcDbEntity
  8
0
 62
    29
100
AcDb2dPolyline
 66
     1
 10
0.0
 20
0.0
 30
0.0
  0
VERTEX
  5
3B4
330
3B3
100
AcDbEntity
  8
0
 62
    29
100
AcDbVertex
100
AcDb2dVertex
 10
37.74035691891871
 20
171.9663609608551
 30
0.0
  0
VERTEX
  5
3B5
330
3B3
100
AcDbEntity
  8
0
 62
    29
100
AcDbVertex
100
AcDb2dVertex
 10
39.84290008060272
 20
174.0689041225392
 30
0.0
  0
SEQEND
  5
3B6
330
3B3
100
AcDbEntity
  8
0
  0
POLYLINE
  5
3B7
330
1F
100
AcDbEntity
  8
0
 62
    29
100
AcDb2dPolyline
 66
     1
 10
0.0
 20
0.0
 30
0.0
  0
VERTEX
  5
3B8
330
3B7
100
AcDbEntity
  8
0
 62
    29
100
AcDbVertex
100
AcDb2dVertex
 10
37.48163007729578
 20
172.414395924278
 30
0.0
  0
VERTEX
  5
3B9
330
3B7
100
AcDbEntity
  8
0
 62
    29
100
AcDbVertex
100
AcDb2dVertex
 10
39.13596602066899
 20
174.0689041225392
 30
0.0
  0
SEQEND
  5
3BA
330
3B7
100
AcDbEntity
  8
0
  0
POLYLINE
  5
3BB
330
1F
100
AcDbEntity
  8
0
 62
    29
100
AcDb2dPolyline
 66
     1
 10
0.0
 20
0.0
 30
0.0
  0
VERTEX
  5
3BC
330
3BB
100
AcDbEntity
  8
0
 62
    29
100
AcDbVertex
100
AcDb2dVertex
 10
37.22290323567286
 20
172.8626031425889
 30
0.0
  0
VERTEX
  5
3BD
330
3BB
100
AcDbEntity
  8
0
 62
    29
100
AcDbVertex
100
AcDb2dVertex
 10
38.42920421562314
 20
174.0689041225392
 30
0.0
  0
SEQEND
  5
3BE
330
3BB
100
AcDbEntity
  8
0
  0
POLYLINE
  5
3BF
330
1F
100
AcDbEntity
  8
0
 62
    29
100
AcDb2dPolyline
 66
     1
 10
0.0
 20
0.0
 30
0.0
  0
VERTEX
  5
3C0
330
3BF
100
AcDbEntity
  8
0
 62
    29
100
AcDbVertex
100
AcDb2dVertex
 10
36.96417639404994
 20
173.3106381060118
 30
0.0
  0
VERTEX
  5
3C1
330
3BF
100
AcDbEntity
  8
0
 62
    29
100
AcDbVertex
100
AcDb2dVertex
 10
37.7224424105773
 20
174.0689041225392
 30
0.0
  0
SEQEND
  5
3C2
330
3BF
100
AcDbEntity
  8
0
  0
POLYLINE
  5
3C3
330
1F
100
AcDbEntity
  8
0
 62
    29
100
AcDb2dPolyline
 66
     1
 10
0.0
 20
0.0
 30
0.0
  0
VERTEX
  5
3C4
330
3C3
100
AcDbEntity
  8
0
 62
    29
100
AcDbVertex
100
AcDb2dVertex
 10
36.70544955242701
 20
173.7586730694347
 30
0.0
  0
VERTEX
  5
3C5
330
3C3
100
AcDbEntity
  8
0
 62
    29
100
AcDbVertex
100
AcDb2dVertex
 10
37.01568060553146
 20
174.0689041225392
 30
0.0
  0
SEQEND
  5
3C6
330
3C3
100
AcDbEntity
  8
0
  0
POLYLINE
  5
3C7
330
1F
100
AcDbEntity
  8
0
 62
    29
100
AcDb2dPolyline
 66
     1
 10
0.0
 20
0.0
 30
0.0
  0
VERTEX
  5
3C8
330
3C7
100
AcDbEntity
  8
0
 62
    29
100
AcDbVertex
100
AcDb2dVertex
 10
37.29214970060789
 20
172.742369230836
 30
0.0
  0
VERTEX
  5
3C9
330
3C7
100
AcDbEntity
  8
0
 62
    29
100
AcDbVertex
100
AcDb2dVertex
 10
38.51636518889958
 20
171.5183259974322
 30
0.0
  0
SEQEND
  5
3CA
330
3C7
100
AcDbEntity
  8
0
  0
POLYLINE
  5
3CB
330
1F
100
AcDbEntity
  8
0
 62
    29
100
AcDb2dPolyline
 66
     1
 10
0.0
 20
0.0
 30
0.0
  0
VERTEX
  5
3CC
330
3CB
100
AcDbEntity
  8
0
 62
    29
100
AcDbVertex
100
AcDb2dVertex
 10
36.67254886883848
 20
174.0689041225392
 30
0.0
  0
VERTEX
  5
3CD
330
3CB
100
AcDbEntity
  8
0
 62
    29
100
AcDbVertex
100
AcDb2dVertex
 10
38.7750920305225
 20
171.9663609608551
 30
0.0
  0
SEQEND
  5
3CE
330
3CB
100
AcDbEntity
  8
0
  0
POLYLINE
  5
3CF
330
1F
100
AcDbEntity
  8
0
 62
    29
100
AcDb2dPolyline
 66
     1
 10
0.0
 20
0.0
 30
0.0
  0
VERTEX
  5
3D0
330
3CF
100
AcDbEntity
  8
0
 62
    29
100
AcDbVertex
100
AcDb2dVertex
 10
37.37948292877222
 20
174.0689041225392
 30
0.0
  0
VERTEX
  5
3D1
330
3CF
100
AcDbEntity
  8
0
 62
    29
100
AcDbVertex
100
AcDb2dVertex
 10
39.03381887214542
 20
172.414395924278
 30
0.0
  0
SEQEND
  5
3D2
330
3CF
100
AcDbEntity
  8
0
  0
POLYLINE
  5
3D3
330
1F
100
AcDbEntity
  8
0
 62
    29
100
AcDb2dPolyline
 66
     1
 10
0.0
 20
0.0
 30
0.0
  0
VERTEX
  5
3D4
330
3D3
100
AcDbEntity
  8
0
 62
    29
100
AcDbVertex
100
AcDb2dVertex
 10
38.08624473381806
 20
174.0689041225392
 30
0.0
  0
VERTEX
  5
3D5
330
3D3
100
AcDbEntity
  8
0
 62
    29
100
AcDbVertex
100
AcDb2dVertex
 10
39.29254571376834
 20
172.8626031425889
 30
0.0
  0
SEQEND
  5
3D6
330
3D3
100
AcDbEntity
  8
0
  0
POLYLINE
  5
3D7
330
1F
100
AcDbEntity
  8
0
 62
    29
100
AcDb2dPolyline
 66
     1
 10
0.0
 20
0.0
 30
0.0
  0
VERTEX
  5
3D8
330
3D7
100
AcDbEntity
  8
0
 62
    29
100
AcDbVertex
100
AcDb2dVertex
 10
38.7930065388639
 20
174.0689041225392
 30
0.0
  0
VERTEX
  5
3D9
330
3D7
100
AcDbEntity
  8
0
 62
    29
100
AcDbVertex
100
AcDb2dVertex
 10
39.55127255539126
 20
173.3106381060118
 30
0.0
  0
SEQEND
  5
3DA
330
3D7
100
AcDbEntity
  8
0
  0
POLYLINE
  5
3DB
330
1F
100
AcDbEntity
  8
0
 62
    29
100
AcDb2dPolyline
 66
     1
 10
0.0
 20
0.0
 30
0.0
  0
VERTEX
  5
3DC
330
3DB
100
AcDbEntity
  8
0
 62
    29
100
AcDbVertex
100
AcDb2dVertex
 10
39.49976834390974
 20
174.0689041225392
 30
0.0
  0
VERTEX
  5
3DD
330
3DB
100
AcDbEntity
  8
0
 62
    29
100
AcDbVertex
100
AcDb2dVertex
 10
39.80999939701419
 20
173.7586730694347
 30
0.0
  0
SEQEND
  5
3DE
330
3DB
100
AcDbEntity
  8
0
  0
POLYLINE
  5
3DF
330
1F
100
AcDbEntity
  8
0
 62
    29
100
AcDb2dPolyline
 66
     1
 10
0.0
 20
0.0
 30
0.0
  0
VERTEX
  5
3E0
330
3DF
100
AcDbEntity
  8
0
 62
    29
100
AcDbVertex
100
AcDb2dVertex
 10
114.0339415727472
 20
175.008899045799
 30
0.0
  0
VERTEX
  5
3E1
330
3DF
100
AcDbEntity
  8
0
 62
    29
100
AcDbVertex
100
AcDb2dVertex
 10
116.4138151039471
 20
172.629025514599
 30
0.0
  0
SEQEND
  5
3E2
330
3DF
100
AcDbEntity
  8
0
  0
POLYLINE
  5
3E3
330
1F
100
AcDbEntity
  8
0
 62
    29
100
AcDb2dPolyline
 66
     1
 10
0.0
 20
0.0
 30
0.0
  0
VERTEX
  5
3E4
330
3E3
100
AcDbEntity
  8
0
 62
    29
100
AcDbVertex
100
AcDb2dVertex
 10
114.0339415727472
 20
172.629025514599
 30
0.0
  0
VERTEX
  5
3E5
330
3E3
100
AcDbEntity
  8
0
 62
    29
100
AcDbVertex
100
AcDb2dVertex
 10
116.4138151039471
 20
175.008899045799
 30
0.0
  0
SEQEND
  5
3E6
330
3E3
100
AcDbEntity
  8
0
  0
SPLINE
  5
3E7
330
1F
100
AcDbEntity
  8
0
 62
    29
100
AcDbSpline
210
0.0
220
0.0
230
1.0
 70
    11
 71
     3
 72
    23
 73
    19
 74
     0
 42
0.0000000001
 43
0.0000000001
 40
0.0
 40
0.0
 40
0.0
 40
0.0
 40
1.0
 40
1.0
 40
1.0
 40
2.0
 40
2.0
 40
2.0
 40
3.0
 40
3.0
 40
3.0
 40
4.0
 40
4.0
 40
4.0
 40
5.0
 40
5.0
 40
5.0
 40
6.0
 40
6.0
 40
6.0
 40
6.0
 10
118.4226516066146
 20
173.818962280199
 30
0.0
 10
118.4226516066146
 20
175.5854361555939
 30
0.0
 10
116.9905244686299
 20
177.0175632935785
 30
0.0
 10
115.2238783383471
 20
177.0175632935785
 30
0.0
 10
113.4575767178402
 20
177.0175632935785
 30
0.0
 10
112.0254495798555
 20
175.5854361555939
 30
0.0
 10
112.0254495798555
 20
173.818962280199
 30
0.0
 10
112.0254495798555
 20
172.0524884048042
 30
0.0
 10
113.4575767178402
 20
170.6203612668195
 30
0.0
 10
115.2238783383471
 20
170.6203612668195
 30
0.0
 10
116.9905244686299
 20
170.6203612668195
 30
0.0
 10
118.4226516066146
 20
172.0524884048042
 30
0.0
 10
118.4226516066146
 20
173.818962280199
 30
0.0
 10
118.4226516066146
 20
173.818962280199
 30
0.0
 10
118.4226516066146
 20
173.818962280199
 30
0.0
 10
118.4226516066146
 20
173.818962280199
 30
0.0
 10
118.4226516066146
 20
173.818962280199
 30
0.0
 10
118.4226516066146
 20
173.818962280199
 30
0.0
 10
118.4226516066146
 20
173.818962280199
 30
0.0
  0
POLYLINE
  5
3E8
330
1F
100
AcDbEntity
  8
0
 62
    29
100
AcDb2dPolyline
 66
     1
 10
0.0
 20
0.0
 30
0.0
  0
VERTEX
  5
3E9
330
3E8
100
AcDbEntity
  8
0
 62
    29
100
AcDbVertex
100
AcDb2dVertex
 10
179.1221735139173
 20
176.2679100214461
 30
0.0
  0
VERTEX
  5
3EA
330
3E8
100
AcDbEntity
  8
0
 62
    29
100
AcDbVertex
100
AcDb2dVertex
 10
180.1219408832778
 20
176.2679100214461
 30
0.0
  0
SEQEND
  5
3EB
330
3E8
100
AcDbEntity
  8
0
  0
POLYLINE
  5
3EC
330
1F
100
AcDbEntity
  8
0
 62
    29
100
AcDb2dPolyline
 66
     1
 10
0.0
 20
0.0
 30
0.0
  0
VERTEX
  5
3ED
330
3EC
100
AcDbEntity
  8
0
 62
    29
100
AcDbVertex
100
AcDb2dVertex
 10
179.1221735139173
 20
169.870707994687
 30
0.0
  0
VERTEX
  5
3EE
330
3EC
100
AcDbEntity
  8
0
 62
    29
100
AcDbVertex
100
AcDb2dVertex
 10
180.1219408832778
 20
169.870707994687
 30
0.0
  0
SEQEND
  5
3EF
330
3EC
100
AcDbEntity
  8
0
  0
POLYLINE
  5
3F0
330
1F
100
AcDbEntity
  8
0
 62
    29
100
AcDb2dPolyline
 66
     1
 10
0.0
 20
0.0
 30
0.0
  0
VERTEX
  5
3F1
330
3F0
100
AcDbEntity
  8
0
 62
    29
100
AcDbVertex
100
AcDb2dVertex
 10
179.1221735139173
 20
176.2679100214461
 30
0.0
  0
VERTEX
  5
3F2
330
3F0
100
AcDbEntity
  8
0
 62
    29
100
AcDbVertex
100
AcDb2dVertex
 10
179.1221735139173
 20
169.870707994687
 30
0.0
  0
SEQEND
  5
3F3
330
3F0
100
AcDbEntity
  8
0
  0
SPLINE
  5
3F4
330
1F
100
AcDbEntity
  8
0
 62
    29
100
AcDbSpline
210
0.0
220
0.0
230
1.0
 70
     8
 71
     3
 72
    11
 73
     7
 74
     0
 42
0.0000000001
 43
0.0000000001
 40
0.0
 40
0.0
 40
0.0
 40
0.0
 40
1.0
 40
1.0
 40
1.0
 40
2.0
 40
2.0
 40
2.0
 40
2.0
 10
179.1221735139173
 20
176.2679100214461
 30
0.0
 10
177.3558718934104
 20
174.797542298348
 30
0.0
 10
177.1157485796805
 20
172.1735835909965
 30
0.0
 10
178.5857717930027
 20
170.4071097156017
 30
0.0
 10
178.7073837438588
 20
170.2529415909329
 30
0.0
 10
178.9681776441365
 20
169.9923199455431
 30
0.0
 10
179.1221735139173
 20
169.870707994687
 30
0.0
  0
POLYLINE
  5
3F5
330
1F
100
AcDbEntity
  8
0
 62
    29
100
AcDb2dPolyline
 66
     1
 10
0.0
 20
0.0
 30
0.0
  0
VERTEX
  5
3F6
330
3F5
100
AcDbEntity
  8
0
 62
    29
100
AcDbVertex
100
AcDb2dVertex
 10
177.6228669696524
 20
173.0693090080666
 30
0.0
  0
VERTEX
  5
3F7
330
3F5
100
AcDbEntity
  8
0
 62
    29
100
AcDbVertex
100
AcDb2dVertex
 10
178.6195337510308
 20
174.7953029848054
 30
0.0
  0
SEQEND
  5
3F8
330
3F5
100
AcDbEntity
  8
0
  0
POLYLINE
  5
3F9
330
1F
100
AcDbEntity
  8
0
 62
    29
100
AcDb2dPolyline
 66
     1
 10
0.0
 20
0.0
 30
0.0
  0
VERTEX
  5
3FA
330
3F9
100
AcDbEntity
  8
0
 62
    29
100
AcDbVertex
100
AcDb2dVertex
 10
177.6228669696524
 20
173.0693090080666
 30
0.0
  0
VERTEX
  5
3FB
330
3F9
100
AcDbEntity
  8
0
 62
    29
100
AcDbVertex
100
AcDb2dVertex
 10
178.6150551239454
 20
171.3510665012832
 30
0.0
  0
SEQEND
  5
3FC
330
3F9
100
AcDbEntity
  8
0
  0
POLYLINE
  5
3FD
330
1F
100
AcDbEntity
  8
0
 62
    29
100
AcDb2dPolyline
 66
     1
 10
0.0
 20
0.0
 30
0.0
  0
VERTEX
  5
3FE
330
3FD
100
AcDbEntity
  8
0
 62
    29
100
AcDbVertex
100
AcDb2dVertex
 10
179.1221735139173
 20
138.2845014557032
 30
0.0
  0
VERTEX
  5
3FF
330
3FD
100
AcDbEntity
  8
0
 62
    29
100
AcDbVertex
100
AcDb2dVertex
 10
180.1219408832778
 20
138.2845014557032
 30
0.0
  0
SEQEND
  5
400
330
3FD
100
AcDbEntity
  8
0
  0
POLYLINE
  5
401
330
1F
100
AcDbEntity
  8
0
 62
    29
100
AcDb2dPolyline
 66
     1
 10
0.0
 20
0.0
 30
0.0
  0
VERTEX
  5
402
330
401
100
AcDbEntity
  8
0
 62
    29
100
AcDbVertex
100
AcDb2dVertex
 10
179.1221735139173
 20
131.8872994289441
 30
0.0
  0
VERTEX
  5
403
330
401
100
AcDbEntity
  8
0
 62
    29
100
AcDbVertex
100
AcDb2dVertex
 10
180.1219408832778
 20
131.8872994289441
 30
0.0
  0
SEQEND
  5
404
330
401
100
AcDbEntity
  8
0
  0
POLYLINE
  5
405
330
1F
100
AcDbEntity
  8
0
 62
    29
100
AcDb2dPolyline
 66
     1
 10
0.0
 20
0.0
 30
0.0
  0
VERTEX
  5
406
330
405
100
AcDbEntity
  8
0
 62
    29
100
AcDbVertex
100
AcDb2dVertex
 10
179.1221735139173
 20
138.2845014557032
 30
0.0
  0
VERTEX
  5
407
330
405
100
AcDbEntity
  8
0
 62
    29
100
AcDbVertex
100
AcDb2dVertex
 10
179.1221735139173
 20
131.8872994289441
 30
0.0
  0
SEQEND
  5
408
330
405
100
AcDbEntity
  8
0
  0
SPLINE
  5
409
330
1F
100
AcDbEntity
  8
0
 62
    29
100
AcDbSpline
210
0.0
220
0.0
230
1.0
 70
     8
 71
     3
 72
    11
 73
     7
 74
     0
 42
0.0000000001
 43
0.0000000001
 40
0.0
 40
0.0
 40
0.0
 40
0.0
 40
1.0
 40
1.0
 40
1.0
 40
2.0
 40
2.0
 40
2.0
 40
2.0
 10
179.1221735139173
 20
138.2845014557032
 30
0.0
 10
177.3558718934104
 20
136.8141337326051
 30
0.0
 10
177.1157485796805
 20
134.1903472801415
 30
0.0
 10
178.5857717930027
 20
132.4237011498588
 30
0.0
 10
178.7073837438588
 20
132.2693607703021
 30
0.0
 10
178.9681776441365
 20
132.0089113798002
 30
0.0
 10
179.1221735139173
 20
131.8872994289441
 30
0.0
  0
POLYLINE
  5
40A
330
1F
100
AcDbEntity
  8
0
 62
    29
100
AcDb2dPolyline
 66
     1
 10
0.0
 20
0.0
 30
0.0
  0
VERTEX
  5
40B
330
40A
100
AcDbEntity
  8
0
 62
    29
100
AcDbVertex
100
AcDb2dVertex
 10
177.6228669696524
 20
135.0857281874358
 30
0.0
  0
VERTEX
  5
40C
330
40A
100
AcDbEntity
  8
0
 62
    29
100
AcDbVertex
100
AcDb2dVertex
 10
178.6195337510308
 20
136.8117221641746
 30
0.0
  0
SEQEND
  5
40D
330
40A
100
AcDbEntity
  8
0
  0
POLYLINE
  5
40E
330
1F
100
AcDbEntity
  8
0
 62
    29
100
AcDb2dPolyline
 66
     1
 10
0.0
 20
0.0
 30
0.0
  0
VERTEX
  5
40F
330
40E
100
AcDbEntity
  8
0
 62
    29
100
AcDbVertex
100
AcDb2dVertex
 10
177.6228669696524
 20
135.0857281874358
 30
0.0
  0
VERTEX
  5
410
330
40E
100
AcDbEntity
  8
0
 62
    29
100
AcDbVertex
100
AcDb2dVertex
 10
178.6150551239454
 20
133.3676579355403
 30
0.0
  0
SEQEND
  5
411
330
40E
100
AcDbEntity
  8
0
  0
POLYLINE
  5
412
330
1F
100
AcDbEntity
  8
0
 62
    29
100
AcDb2dPolyline
 66
     1
 10
0.0
 20
0.0
 30
0.0
  0
VERTEX
  5
413
330
412
100
AcDbEntity
  8
0
 62
    29
100
AcDbVertex
100
AcDb2dVertex
 10
114.0339415727472
 20
133.1461381497033
 30
0.0
  0
VERTEX
  5
414
330
412
100
AcDbEntity
  8
0
 62
    29
100
AcDbVertex
100
AcDb2dVertex
 10
116.4138151039471
 20
135.5260116809033
 30
0.0
  0
SEQEND
  5
415
330
412
100
AcDbEntity
  8
0
  0
POLYLINE
  5
416
330
1F
100
AcDbEntity
  8
0
 62
    29
100
AcDb2dPolyline
 66
     1
 10
0.0
 20
0.0
 30
0.0
  0
VERTEX
  5
417
330
416
100
AcDbEntity
  8
0
 62
    29
100
AcDbVertex
100
AcDb2dVertex
 10
114.0339415727472
 20
135.5260116809033
 30
0.0
  0
VERTEX
  5
418
330
416
100
AcDbEntity
  8
0
 62
    29
100
AcDbVertex
100
AcDb2dVertex
 10
116.4138151039471
 20
133.1461381497033
 30
0.0
  0
SEQEND
  5
419
330
416
100
AcDbEntity
  8
0
  0
SPLINE
  5
41A
330
1F
100
AcDbEntity
  8
0
 62
    29
100
AcDbSpline
210
0.0
220
0.0
230
1.0
 70
    11
 71
     3
 72
    23
 73
    19
 74
     0
 42
0.0000000001
 43
0.0000000001
 40
0.0
 40
0.0
 40
0.0
 40
0.0
 40
1.0
 40
1.0
 40
1.0
 40
2.0
 40
2.0
 40
2.0
 40
3.0
 40
3.0
 40
3.0
 40
4.0
 40
4.0
 40
4.0
 40
5.0
 40
5.0
 40
5.0
 40
6.0
 40
6.0
 40
6.0
 40
6.0
 10
118.4226516066146
 20
134.3360749153033
 30
0.0
 10
118.4226516066146
 20
136.1027210455861
 30
0.0
 10
116.9905244686299
 20
137.5348481835707
 30
0.0
 10
115.2238783383471
 20
137.5348481835707
 30
0.0
 10
113.4575767178402
 20
137.5348481835707
 30
0.0
 10
112.0254495798555
 20
136.1027210455861
 30
0.0
 10
112.0254495798555
 20
134.3360749153033
 30
0.0
 10
112.0254495798555
 20
132.5697732947963
 30
0.0
 10
113.4575767178402
 20
131.1376461568117
 30
0.0
 10
115.2238783383471
 20
131.1376461568117
 30
0.0
 10
116.9905244686299
 20
131.1376461568117
 30
0.0
 10
118.4226516066146
 20
132.5697732947963
 30
0.0
 10
118.4226516066146
 20
134.3360749153033
 30
0.0
 10
118.4226516066146
 20
134.3360749153033
 30
0.0
 10
118.4226516066146
 20
134.3360749153033
 30
0.0
 10
118.4226516066146
 20
134.3360749153033
 30
0.0
 10
118.4226516066146
 20
134.3360749153033
 30
0.0
 10
118.4226516066146
 20
134.3360749153033
 30
0.0
 10
118.4226516066146
 20
134.3360749153033
 30
0.0
  0
POLYLINE
  5
41B
330
1F
100
AcDbEntity
  8
0
 62
    29
100
AcDb2dPolyline
 66
     1
 10
0.0
 20
0.0
 30
0.0
  0
VERTEX
  5
41C
330
41B
100
AcDbEntity
  8
0
 62
    29
100
AcDbVertex
100
AcDb2dVertex
 10
24.45416516045156
 20
175.008899045799
 30
0.0
  0
VERTEX
  5
41D
330
41B
100
AcDbEntity
  8
0
 62
    29
100
AcDbVertex
100
AcDb2dVertex
 10
22.07429162925162
 20
172.629025514599
 30
0.0
  0
SEQEND
  5
41E
330
41B
100
AcDbEntity
  8
0
  0
POLYLINE
  5
41F
330
1F
100
AcDbEntity
  8
0
 62
    29
100
AcDb2dPolyline
 66
     1
 10
0.0
 20
0.0
 30
0.0
  0
VERTEX
  5
420
330
41F
100
AcDbEntity
  8
0
 62
    29
100
AcDbVertex
100
AcDb2dVertex
 10
24.45416516045156
 20
172.629025514599
 30
0.0
  0
VERTEX
  5
421
330
41F
100
AcDbEntity
  8
0
 62
    29
100
AcDbVertex
100
AcDb2dVertex
 10
22.07429162925162
 20
175.008899045799
 30
0.0
  0
SEQEND
  5
422
330
41F
100
AcDbEntity
  8
0
  0
SPLINE
  5
423
330
1F
100
AcDbEntity
  8
0
 62
    29
100
AcDbSpline
210
0.0
220
0.0
230
1.0
 70
    11
 71
     3
 72
    23
 73
    19
 74
     0
 42
0.0000000001
 43
0.0000000001
 40
0.0
 40
0.0
 40
0.0
 40
0.0
 40
1.0
 40
1.0
 40
1.0
 40
2.0
 40
2.0
 40
2.0
 40
3.0
 40
3.0
 40
3.0
 40
4.0
 40
4.0
 40
4.0
 40
5.0
 40
5.0
 40
5.0
 40
6.0
 40
6.0
 40
6.0
 40
6.0
 10
26.46282940823112
 20
173.818962280199
 30
0.0
 10
26.46282940823112
 20
175.5854361555939
 30
0.0
 10
25.03087452513434
 20
177.0175632935785
 30
0.0
 10
23.26422839485159
 20
177.0175632935785
 30
0.0
 10
21.49775451945673
 20
177.0175632935785
 30
0.0
 10
20.06562738147206
 20
175.5854361555939
 30
0.0
 10
20.06562738147206
 20
173.818962280199
 30
0.0
 10
20.06562738147206
 20
172.0524884048042
 30
0.0
 10
21.49775451945673
 20
170.6203612668195
 30
0.0
 10
23.26422839485159
 20
170.6203612668195
 30
0.0
 10
25.03087452513434
 20
170.6203612668195
 30
0.0
 10
26.46282940823112
 20
172.0524884048042
 30
0.0
 10
26.46282940823112
 20
173.818962280199
 30
0.0
 10
26.46282940823112
 20
173.818962280199
 30
0.0
 10
26.46282940823112
 20
173.818962280199
 30
0.0
 10
26.46282940823112
 20
173.818962280199
 30
0.0
 10
26.46282940823112
 20
173.818962280199
 30
0.0
 10
26.46282940823112
 20
173.818962280199
 30
0.0
 10
26.46282940823112
 20
173.818962280199
 30
0.0
  0
POLYLINE
  5
424
330
1F
100
AcDbEntity
  8
0
 62
    29
100
AcDb2dPolyline
 66
     1
 10
0.0
 20
0.0
 30
0.0
  0
VERTEX
  5
425
330
424
100
AcDbEntity
  8
0
 62
    29
100
AcDbVertex
100
AcDb2dVertex
 10
24.45416516045156
 20
133.1461381497033
 30
0.0
  0
VERTEX
  5
426
330
424
100
AcDbEntity
  8
0
 62
    29
100
AcDbVertex
100
AcDb2dVertex
 10
22.07429162925162
 20
135.5260116809033
 30
0.0
  0
SEQEND
  5
427
330
424
100
AcDbEntity
  8
0
  0
POLYLINE
  5
428
330
1F
100
AcDbEntity
  8
0
 62
    29
100
AcDb2dPolyline
 66
     1
 10
0.0
 20
0.0
 30
0.0
  0
VERTEX
  5
429
330
428
100
AcDbEntity
  8
0
 62
    29
100
AcDbVertex
100
AcDb2dVertex
 10
24.45416516045156
 20
135.5260116809033
 30
0.0
  0
VERTEX
  5
42A
330
428
100
AcDbEntity
  8
0
 62
    29
100
AcDbVertex
100
AcDb2dVertex
 10
22.07429162925162
 20
133.1461381497033
 30
0.0
  0
SEQEND
  5
42B
330
428
100
AcDbEntity
  8
0
  0
SPLINE
  5
42C
330
1F
100
AcDbEntity
  8
0
 62
    29
100
AcDbSpline
210
0.0
220
0.0
230
1.0
 70
    11
 71
     3
 72
    23
 73
    19
 74
     0
 42
0.0000000001
 43
0.0000000001
 40
0.0
 40
0.0
 40
0.0
 40
0.0
 40
1.0
 40
1.0
 40
1.0
 40
2.0
 40
2.0
 40
2.0
 40
3.0
 40
3.0
 40
3.0
 40
4.0
 40
4.0
 40
4.0
 40
5.0
 40
5.0
 40
5.0
 40
6.0
 40
6.0
 40
6.0
 40
6.0
 10
26.46282940823112
 20
134.3360749153033
 30
0.0
 10
26.46282940823112
 20
136.1027210455861
 30
0.0
 10
25.03087452513434
 20
137.5348481835707
 30
0.0
 10
23.26422839485159
 20
137.5348481835707
 30
0.0
 10
21.49775451945673
 20
137.5348481835707
 30
0.0
 10
20.06562738147206
 20
136.1027210455861
 30
0.0
 10
20.06562738147206
 20
134.3360749153033
 30
0.0
 10
20.06562738147206
 20
132.5697732947963
 30
0.0
 10
21.49775451945673
 20
131.1376461568117
 30
0.0
 10
23.26422839485159
 20
131.1376461568117
 30
0.0
 10
25.03087452513434
 20
131.1376461568117
 30
0.0
 10
26.46282940823112
 20
132.5697732947963
 30
0.0
 10
26.46282940823112
 20
134.3360749153033
 30
0.0
 10
26.46282940823112
 20
134.3360749153033
 30
0.0
 10
26.46282940823112
 20
134.3360749153033
 30
0.0
 10
26.46282940823112
 20
134.3360749153033
 30
0.0
 10
26.46282940823112
 20
134.3360749153033
 30
0.0
 10
26.46282940823112
 20
134.3360749153033
 30
0.0
 10
26.46282940823112
 20
134.3360749153033
 30
0.0
  0
POLYLINE
  5
42D
330
1F
100
AcDbEntity
  8
0
 62
    29
100
AcDb2dPolyline
 66
     1
 10
0.0
 20
0.0
 30
0.0
  0
VERTEX
  5
42E
330
42D
100
AcDbEntity
  8
0
 62
    29
100
AcDbVertex
100
AcDb2dVertex
 10
83.5474102381047
 20
175.008899045799
 30
0.0
  0
VERTEX
  5
42F
330
42D
100
AcDbEntity
  8
0
 62
    29
100
AcDbVertex
100
AcDb2dVertex
 10
85.92745602419254
 20
172.629025514599
 30
0.0
  0
SEQEND
  5
430
330
42D
100
AcDbEntity
  8
0
  0
POLYLINE
  5
431
330
1F
100
AcDbEntity
  8
0
 62
    29
100
AcDb2dPolyline
 66
     1
 10
0.0
 20
0.0
 30
0.0
  0
VERTEX
  5
432
330
431
100
AcDbEntity
  8
0
 62
    29
100
AcDbVertex
100
AcDb2dVertex
 10
83.5474102381047
 20
172.629025514599
 30
0.0
  0
VERTEX
  5
433
330
431
100
AcDbEntity
  8
0
 62
    29
100
AcDbVertex
100
AcDb2dVertex
 10
85.92745602419254
 20
175.008899045799
 30
0.0
  0
SEQEND
  5
434
330
431
100
AcDbEntity
  8
0
  0
SPLINE
  5
435
330
1F
100
AcDbEntity
  8
0
 62
    29
100
AcDbSpline
210
0.0
220
0.0
230
1.0
 70
    11
 71
     3
 72
    23
 73
    19
 74
     0
 42
0.0000000001
 43
0.0000000001
 40
0.0
 40
0.0
 40
0.0
 40
0.0
 40
1.0
 40
1.0
 40
1.0
 40
2.0
 40
2.0
 40
2.0
 40
3.0
 40
3.0
 40
3.0
 40
4.0
 40
4.0
 40
4.0
 40
5.0
 40
5.0
 40
5.0
 40
6.0
 40
6.0
 40
6.0
 40
6.0
 10
87.9359480170842
 20
173.818962280199
 30
0.0
 10
87.9359480170842
 20
175.5854361555939
 30
0.0
 10
86.50399313398742
 20
177.0175632935785
 30
0.0
 10
84.73734700370467
 20
177.0175632935785
 30
0.0
 10
82.97087312830982
 20
177.0175632935785
 30
0.0
 10
81.53874599032514
 20
175.5854361555939
 30
0.0
 10
81.53874599032514
 20
173.818962280199
 30
0.0
 10
81.53874599032514
 20
172.0524884048042
 30
0.0
 10
82.97087312830982
 20
170.6203612668195
 30
0.0
 10
84.73734700370467
 20
170.6203612668195
 30
0.0
 10
86.50399313398742
 20
170.6203612668195
 30
0.0
 10
87.9359480170842
 20
172.0524884048042
 30
0.0
 10
87.9359480170842
 20
173.818962280199
 30
0.0
 10
87.9359480170842
 20
173.818962280199
 30
0.0
 10
87.9359480170842
 20
173.818962280199
 30
0.0
 10
87.9359480170842
 20
173.818962280199
 30
0.0
 10
87.9359480170842
 20
173.818962280199
 30
0.0
 10
87.9359480170842
 20
173.818962280199
 30
0.0
 10
87.9359480170842
 20
173.818962280199
 30
0.0
  0
POLYLINE
  5
436
330
1F
100
AcDbEntity
  8
0
 62
    29
100
AcDb2dPolyline
 66
     1
 10
0.0
 20
0.0
 30
0.0
  0
VERTEX
  5
437
330
436
100
AcDbEntity
  8
0
 62
    29
100
AcDbVertex
100
AcDb2dVertex
 10
52.56099521878199
 20
135.5260116809033
 30
0.0
  0
VERTEX
  5
438
330
436
100
AcDbEntity
  8
0
 62
    29
100
AcDbVertex
100
AcDb2dVertex
 10
54.94086874998192
 20
133.1461381497033
 30
0.0
  0
SEQEND
  5
439
330
436
100
AcDbEntity
  8
0
  0
POLYLINE
  5
43A
330
1F
100
AcDbEntity
  8
0
 62
    29
100
AcDb2dPolyline
 66
     1
 10
0.0
 20
0.0
 30
0.0
  0
VERTEX
  5
43B
330
43A
100
AcDbEntity
  8
0
 62
    29
100
AcDbVertex
100
AcDb2dVertex
 10
52.56099521878199
 20
133.1461381497033
 30
0.0
  0
VERTEX
  5
43C
330
43A
100
AcDbEntity
  8
0
 62
    29
100
AcDbVertex
100
AcDb2dVertex
 10
54.94086874998192
 20
135.5260116809033
 30
0.0
  0
SEQEND
  5
43D
330
43A
100
AcDbEntity
  8
0
  0
SPLINE
  5
43E
330
1F
100
AcDbEntity
  8
0
 62
    29
100
AcDbSpline
210
0.0
220
0.0
230
1.0
 70
    11
 71
     3
 72
    23
 73
    19
 74
     0
 42
0.0000000001
 43
0.0000000001
 40
0.0
 40
0.0
 40
0.0
 40
0.0
 40
1.0
 40
1.0
 40
1.0
 40
2.0
 40
2.0
 40
2.0
 40
3.0
 40
3.0
 40
3.0
 40
4.0
 40
4.0
 40
4.0
 40
5.0
 40
5.0
 40
5.0
 40
6.0
 40
6.0
 40
6.0
 40
6.0
 10
56.94953299776149
 20
134.3360749153033
 30
0.0
 10
56.94953299776149
 20
136.1027210455861
 30
0.0
 10
55.51757811466471
 20
137.5348481835707
 30
0.0
 10
53.75093198438196
 20
137.5348481835707
 30
0.0
 10
51.9844581089871
 20
137.5348481835707
 30
0.0
 10
50.55233097100243
 20
136.1027210455861
 30
0.0
 10
50.55233097100243
 20
134.3360749153033
 30
0.0
 10
50.55233097100243
 20
132.5697732947963
 30
0.0
 10
51.9844581089871
 20
131.1376461568117
 30
0.0
 10
53.75093198438196
 20
131.1376461568117
 30
0.0
 10
55.51757811466471
 20
131.1376461568117
 30
0.0
 10
56.94953299776149
 20
132.5697732947963
 30
0.0
 10
56.94953299776149
 20
134.3360749153033
 30
0.0
 10
56.94953299776149
 20
134.3360749153033
 30
0.0
 10
56.94953299776149
 20
134.3360749153033
 30
0.0
 10
56.94953299776149
 20
134.3360749153033
 30
0.0
 10
56.94953299776149
 20
134.3360749153033
 30
0.0
 10
56.94953299776149
 20
134.3360749153033
 30
0.0
 10
56.94953299776149
 20
134.3360749153033
 30
0.0
  0
POLYLINE
  5
43F
330
1F
100
AcDbEntity
  8
0
 62
    29
100
AcDb2dPolyline
 66
     1
 10
0.0
 20
0.0
 30
0.0
  0
VERTEX
  5
440
330
43F
100
AcDbEntity
  8
0
 62
    29
100
AcDbVertex
100
AcDb2dVertex
 10
112.0254495798555
 20
221.2179952733391
 30
0.0
  0
VERTEX
  5
441
330
43F
100
AcDbEntity
  8
0
 62
    29
100
AcDbVertex
100
AcDb2dVertex
 10
112.0254495798555
 20
222.2175903878117
 30
0.0
  0
SEQEND
  5
442
330
43F
100
AcDbEntity
  8
0
  0
POLYLINE
  5
443
330
1F
100
AcDbEntity
  8
0
 62
    29
100
AcDb2dPolyline
 66
     1
 10
0.0
 20
0.0
 30
0.0
  0
VERTEX
  5
444
330
443
100
AcDbEntity
  8
0
 62
    29
100
AcDbVertex
100
AcDb2dVertex
 10
118.4226516066146
 20
221.2179952733391
 30
0.0
  0
VERTEX
  5
445
330
443
100
AcDbEntity
  8
0
 62
    29
100
AcDbVertex
100
AcDb2dVertex
 10
118.4226516066146
 20
222.2175903878117
 30
0.0
  0
SEQEND
  5
446
330
443
100
AcDbEntity
  8
0
  0
POLYLINE
  5
447
330
1F
100
AcDbEntity
  8
0
 62
    29
100
AcDb2dPolyline
 66
     1
 10
0.0
 20
0.0
 30
0.0
  0
VERTEX
  5
448
330
447
100
AcDbEntity
  8
0
 62
    29
100
AcDbVertex
100
AcDb2dVertex
 10
112.0254495798555
 20
221.2179952733391
 30
0.0
  0
VERTEX
  5
449
330
447
100
AcDbEntity
  8
0
 62
    29
100
AcDbVertex
100
AcDb2dVertex
 10
118.4226516066146
 20
221.2179952733391
 30
0.0
  0
SEQEND
  5
44A
330
447
100
AcDbEntity
  8
0
  0
SPLINE
  5
44B
330
1F
100
AcDbEntity
  8
0
 62
    29
100
AcDbSpline
210
0.0
220
0.0
230
1.0
 70
     8
 71
     3
 72
    11
 73
     7
 74
     0
 42
0.0000000001
 43
0.0000000001
 40
0.0
 40
0.0
 40
0.0
 40
0.0
 40
1.0
 40
1.0
 40
1.0
 40
2.0
 40
2.0
 40
2.0
 40
2.0
 10
112.0254495798555
 20
221.2179952733391
 30
0.0
 10
113.4958173029536
 20
219.4515213979443
 30
0.0
 10
116.1196037554172
 20
219.2113980842144
 30
0.0
 10
117.8862498856999
 20
220.6815935524245
 30
0.0
 10
118.0405902652566
 20
220.8032055032805
 30
0.0
 10
118.3010396557585
 20
221.0638271486703
 30
0.0
 10
118.4226516066146
 20
221.2179952733391
 30
0.0
  0
POLYLINE
  5
44C
330
1F
100
AcDbEntity
  8
0
 62
    29
100
AcDb2dPolyline
 66
     1
 10
0.0
 20
0.0
 30
0.0
  0
VERTEX
  5
44D
330
44C
100
AcDbEntity
  8
0
 62
    29
100
AcDbVertex
100
AcDb2dVertex
 10
115.2238783383471
 20
219.7186887290742
 30
0.0
  0
VERTEX
  5
44E
330
44C
100
AcDbEntity
  8
0
 62
    29
100
AcDbVertex
100
AcDb2dVertex
 10
113.4978843616083
 20
220.7151832555646
 30
0.0
  0
SEQEND
  5
44F
330
44C
100
AcDbEntity
  8
0
  0
POLYLINE
  5
450
330
1F
100
AcDbEntity
  8
0
 62
    29
100
AcDb2dPolyline
 66
     1
 10
0.0
 20
0.0
 30
0.0
  0
VERTEX
  5
451
330
450
100
AcDbEntity
  8
0
 62
    29
100
AcDbVertex
100
AcDb2dVertex
 10
115.2238783383471
 20
219.7186887290742
 30
0.0
  0
VERTEX
  5
452
330
450
100
AcDbEntity
  8
0
 62
    29
100
AcDbVertex
100
AcDb2dVertex
 10
116.9422931000184
 20
220.7107046284793
 30
0.0
  0
SEQEND
  5
453
330
450
100
AcDbEntity
  8
0
  0
POLYLINE
  5
454
330
1F
100
AcDbEntity
  8
0
 62
    29
100
AcDb2dPolyline
 66
     1
 10
0.0
 20
0.0
 30
0.0
  0
VERTEX
  5
455
330
454
100
AcDbEntity
  8
0
 62
    29
100
AcDbVertex
100
AcDb2dVertex
 10
81.53874599032514
 20
221.2179952733391
 30
0.0
  0
VERTEX
  5
456
330
454
100
AcDbEntity
  8
0
 62
    29
100
AcDbVertex
100
AcDb2dVertex
 10
81.53874599032514
 20
222.2175903878117
 30
0.0
  0
SEQEND
  5
457
330
454
100
AcDbEntity
  8
0
  0
POLYLINE
  5
458
330
1F
100
AcDbEntity
  8
0
 62
    29
100
AcDb2dPolyline
 66
     1
 10
0.0
 20
0.0
 30
0.0
  0
VERTEX
  5
459
330
458
100
AcDbEntity
  8
0
 62
    29
100
AcDbVertex
100
AcDb2dVertex
 10
87.9359480170842
 20
221.2179952733391
 30
0.0
  0
VERTEX
  5
45A
330
458
100
AcDbEntity
  8
0
 62
    29
100
AcDbVertex
100
AcDb2dVertex
 10
87.9359480170842
 20
222.2175903878117
 30
0.0
  0
SEQEND
  5
45B
330
458
100
AcDbEntity
  8
0
  0
POLYLINE
  5
45C
330
1F
100
AcDbEntity
  8
0
 62
    29
100
AcDb2dPolyline
 66
     1
 10
0.0
 20
0.0
 30
0.0
  0
VERTEX
  5
45D
330
45C
100
AcDbEntity
  8
0
 62
    29
100
AcDbVertex
100
AcDb2dVertex
 10
81.53874599032514
 20
221.2179952733391
 30
0.0
  0
VERTEX
  5
45E
330
45C
100
AcDbEntity
  8
0
 62
    29
100
AcDbVertex
100
AcDb2dVertex
 10
87.9359480170842
 20
221.2179952733391
 30
0.0
  0
SEQEND
  5
45F
330
45C
100
AcDbEntity
  8
0
  0
SPLINE
  5
460
330
1F
100
AcDbEntity
  8
0
 62
    29
100
AcDbSpline
210
0.0
220
0.0
230
1.0
 70
     8
 71
     3
 72
    11
 73
     7
 74
     0
 42
0.0000000001
 43
0.0000000001
 40
0.0
 40
0.0
 40
0.0
 40
0.0
 40
1.0
 40
1.0
 40
1.0
 40
2.0
 40
2.0
 40
2.0
 40
2.0
 10
81.53874599032514
 20
221.2179952733391
 30
0.0
 10
83.00911371342319
 20
219.4515213979443
 30
0.0
 10
85.63307242077471
 20
219.2113980842144
 30
0.0
 10
87.39954629616956
 20
220.6815935524245
 30
0.0
 10
87.55388667572625
 20
220.8032055032805
 30
0.0
 10
87.81450832111605
 20
221.0638271486703
 30
0.0
 10
87.9359480170842
 20
221.2179952733391
 30
0.0
  0
POLYLINE
  5
461
330
1F
100
AcDbEntity
  8
0
 62
    29
100
AcDb2dPolyline
 66
     1
 10
0.0
 20
0.0
 30
0.0
  0
VERTEX
  5
462
330
461
100
AcDbEntity
  8
0
 62
    29
100
AcDbVertex
100
AcDb2dVertex
 10
84.73734700370467
 20
219.7186887290742
 30
0.0
  0
VERTEX
  5
463
330
461
100
AcDbEntity
  8
0
 62
    29
100
AcDbVertex
100
AcDb2dVertex
 10
83.01135302696586
 20
220.7151832555646
 30
0.0
  0
SEQEND
  5
464
330
461
100
AcDbEntity
  8
0
  0
POLYLINE
  5
465
330
1F
100
AcDbEntity
  8
0
 62
    29
100
AcDb2dPolyline
 66
     1
 10
0.0
 20
0.0
 30
0.0
  0
VERTEX
  5
466
330
465
100
AcDbEntity
  8
0
 62
    29
100
AcDbVertex
100
AcDb2dVertex
 10
84.73734700370467
 20
219.7186887290742
 30
0.0
  0
VERTEX
  5
467
330
465
100
AcDbEntity
  8
0
 62
    29
100
AcDbVertex
100
AcDb2dVertex
 10
86.45558951048807
 20
220.7107046284793
 30
0.0
  0
SEQEND
  5
468
330
465
100
AcDbEntity
  8
0
  0
POLYLINE
  5
469
330
1F
100
AcDbEntity
  8
0
 62
    29
100
AcDb2dPolyline
 66
     1
 10
0.0
 20
0.0
 30
0.0
  0
VERTEX
  5
46A
330
469
100
AcDbEntity
  8
0
 62
    29
100
AcDbVertex
100
AcDb2dVertex
 10
20.06562738147206
 20
221.2179952733391
 30
0.0
  0
VERTEX
  5
46B
330
469
100
AcDbEntity
  8
0
 62
    29
100
AcDbVertex
100
AcDb2dVertex
 10
20.06562738147206
 20
222.2175903878117
 30
0.0
  0
SEQEND
  5
46C
330
469
100
AcDbEntity
  8
0
  0
POLYLINE
  5
46D
330
1F
100
AcDbEntity
  8
0
 62
    29
100
AcDb2dPolyline
 66
     1
 10
0.0
 20
0.0
 30
0.0
  0
VERTEX
  5
46E
330
46D
100
AcDbEntity
  8
0
 62
    29
100
AcDbVertex
100
AcDb2dVertex
 10
26.46282940823112
 20
221.2179952733391
 30
0.0
  0
VERTEX
  5
46F
330
46D
100
AcDbEntity
  8
0
 62
    29
100
AcDbVertex
100
AcDb2dVertex
 10
26.46282940823112
 20
222.2175903878117
 30
0.0
  0
SEQEND
  5
470
330
46D
100
AcDbEntity
  8
0
  0
POLYLINE
  5
471
330
1F
100
AcDbEntity
  8
0
 62
    29
100
AcDb2dPolyline
 66
     1
 10
0.0
 20
0.0
 30
0.0
  0
VERTEX
  5
472
330
471
100
AcDbEntity
  8
0
 62
    29
100
AcDbVertex
100
AcDb2dVertex
 10
20.06562738147206
 20
221.2179952733391
 30
0.0
  0
VERTEX
  5
473
330
471
100
AcDbEntity
  8
0
 62
    29
100
AcDbVertex
100
AcDb2dVertex
 10
26.46282940823112
 20
221.2179952733391
 30
0.0
  0
SEQEND
  5
474
330
471
100
AcDbEntity
  8
0
  0
SPLINE
  5
475
330
1F
100
AcDbEntity
  8
0
 62
    29
100
AcDbSpline
210
0.0
220
0.0
230
1.0
 70
     8
 71
     3
 72
    11
 73
     7
 74
     0
 42
0.0000000001
 43
0.0000000001
 40
0.0
 40
0.0
 40
0.0
 40
0.0
 40
1.0
 40
1.0
 40
1.0
 40
2.0
 40
2.0
 40
2.0
 40
2.0
 10
20.06562738147206
 20
221.2179952733391
 30
0.0
 10
21.53599510457011
 20
219.4515213979443
 30
0.0
 10
24.15995381192163
 20
219.2113980842144
 30
0.0
 10
25.92642768731648
 20
220.6815935524245
 30
0.0
 10
26.08076806687317
 20
220.8032055032805
 30
0.0
 10
26.34121745737507
 20
221.0638271486703
 30
0.0
 10
26.46282940823112
 20
221.2179952733391
 30
0.0
  0
POLYLINE
  5
476
330
1F
100
AcDbEntity
  8
0
 62
    29
100
AcDb2dPolyline
 66
     1
 10
0.0
 20
0.0
 30
0.0
  0
VERTEX
  5
477
330
476
100
AcDbEntity
  8
0
 62
    29
100
AcDbVertex
100
AcDb2dVertex
 10
23.26422839485159
 20
219.7186887290742
 30
0.0
  0
VERTEX
  5
478
330
476
100
AcDbEntity
  8
0
 62
    29
100
AcDbVertex
100
AcDb2dVertex
 10
21.53823441811278
 20
220.7151832555646
 30
0.0
  0
SEQEND
  5
479
330
476
100
AcDbEntity
  8
0
  0
POLYLINE
  5
47A
330
1F
100
AcDbEntity
  8
0
 62
    29
100
AcDb2dPolyline
 66
     1
 10
0.0
 20
0.0
 30
0.0
  0
VERTEX
  5
47B
330
47A
100
AcDbEntity
  8
0
 62
    29
100
AcDbVertex
100
AcDb2dVertex
 10
23.26422839485159
 20
219.7186887290742
 30
0.0
  0
VERTEX
  5
47C
330
47A
100
AcDbEntity
  8
0
 62
    29
100
AcDbVertex
100
AcDb2dVertex
 10
24.98247090163498
 20
220.7107046284793
 30
0.0
  0
SEQEND
  5
47D
330
47A
100
AcDbEntity
  8
0
  0
POLYLINE
  5
47E
330
1F
100
AcDbEntity
  8
0
 62
    29
100
AcDb2dPolyline
 66
     1
 10
0.0
 20
0.0
 30
0.0
  0
VERTEX
  5
47F
330
47E
100
AcDbEntity
  8
0
 62
    29
100
AcDbVertex
100
AcDb2dVertex
 10
81.73873391517482
 20
136.7851949114383
 30
0.0
  0
VERTEX
  5
480
330
47E
100
AcDbEntity
  8
0
 62
    29
100
AcDbVertex
100
AcDb2dVertex
 10
79.73954368622965
 20
136.7851949114383
 30
0.0
  0
SEQEND
  5
481
330
47E
100
AcDbEntity
  8
0
  0
POLYLINE
  5
482
330
1F
100
AcDbEntity
  8
0
 62
    29
100
AcDb2dPolyline
 66
     1
 10
0.0
 20
0.0
 30
0.0
  0
VERTEX
  5
483
330
482
100
AcDbEntity
  8
0
 62
    29
100
AcDbVertex
100
AcDb2dVertex
 10
81.73873391517482
 20
137.6795422894051
 30
0.0
  0
VERTEX
  5
484
330
482
100
AcDbEntity
  8
0
 62
    29
100
AcDbVertex
100
AcDb2dVertex
 10
81.73873391517482
 20
132.7868144535479
 30
0.0
  0
SEQEND
  5
485
330
482
100
AcDbEntity
  8
0
  0
POLYLINE
  5
486
330
1F
100
AcDbEntity
  8
0
 62
    29
100
AcDb2dPolyline
 66
     1
 10
0.0
 20
0.0
 30
0.0
  0
VERTEX
  5
487
330
486
100
AcDbEntity
  8
0
 62
    29
100
AcDbVertex
100
AcDb2dVertex
 10
79.73954368622965
 20
137.6795422894051
 30
0.0
  0
VERTEX
  5
488
330
486
100
AcDbEntity
  8
0
 62
    29
100
AcDbVertex
100
AcDb2dVertex
 10
79.73954368622965
 20
132.7868144535479
 30
0.0
  0
SEQEND
  5
489
330
486
100
AcDbEntity
  8
0
  0
POLYLINE
  5
48A
330
1F
100
AcDbEntity
  8
0
 62
    29
100
AcDb2dPolyline
 66
     1
 10
0.0
 20
0.0
 30
0.0
  0
VERTEX
  5
48B
330
48A
100
AcDbEntity
  8
0
 62
    29
100
AcDbVertex
100
AcDb2dVertex
 10
81.73873391517482
 20
132.7868144535479
 30
0.0
  0
VERTEX
  5
48C
330
48A
100
AcDbEntity
  8
0
 62
    29
100
AcDbVertex
100
AcDb2dVertex
 10
79.73954368622965
 20
132.7868144535479
 30
0.0
  0
SEQEND
  5
48D
330
48A
100
AcDbEntity
  8
0
  0
SPLINE
  5
48E
330
1F
100
AcDbEntity
  8
0
 62
    29
100
AcDbSpline
210
0.0
220
0.0
230
1.0
 70
     8
 71
     3
 72
     8
 73
     4
 74
     0
 42
0.0000000001
 43
0.0000000001
 40
0.0
 40
0.0
 40
0.0
 40
0.0
 40
1.0
 40
1.0
 40
1.0
 40
1.0
 10
82.86734794068306
 20
140.8428310507655
 30
0.0
 10
82.19607064254423
 20
140.1145373847324
 30
0.0
 10
81.67999499840157
 20
138.6679408361643
 30
0.0
 10
81.73873391517482
 20
137.6795422894051
 30
0.0
  0
SPLINE
  5
48F
330
1F
100
AcDbEntity
  8
0
 62
    29
100
AcDbSpline
210
0.0
220
0.0
230
1.0
 70
     8
 71
     3
 72
     8
 73
     4
 74
     0
 42
0.0000000001
 43
0.0000000001
 40
0.0
 40
0.0
 40
0.0
 40
0.0
 40
1.0
 40
1.0
 40
1.0
 40
1.0
 10
79.73954368622965
 20
137.6795422894051
 30
0.0
 10
79.79828260300289
 20
138.6679408361643
 30
0.0
 10
79.28220695886023
 20
140.1145373847324
 30
0.0
 10
78.6111019156093
 20
140.8428310507655
 30
0.0
  0
POLYLINE
  5
490
330
1F
100
AcDbEntity
  8
0
 62
    29
100
AcDb2dPolyline
 66
     1
 10
0.0
 20
0.0
 30
0.0
  0
VERTEX
  5
491
330
490
100
AcDbEntity
  8
0
 62
    29
100
AcDbVertex
100
AcDb2dVertex
 10
81.23902248538248
 20
132.7868144535479
 30
0.0
  0
VERTEX
  5
492
330
490
100
AcDbEntity
  8
0
 62
    29
100
AcDbVertex
100
AcDb2dVertex
 10
81.23902248538248
 20
132.580453097846
 30
0.0
  0
SEQEND
  5
493
330
490
100
AcDbEntity
  8
0
  0
POLYLINE
  5
494
330
1F
100
AcDbEntity
  8
0
 62
    29
100
AcDb2dPolyline
 66
     1
 10
0.0
 20
0.0
 30
0.0
  0
VERTEX
  5
495
330
494
100
AcDbEntity
  8
0
 62
    29
100
AcDbVertex
100
AcDb2dVertex
 10
80.23942737090989
 20
132.7868144535479
 30
0.0
  0
VERTEX
  5
496
330
494
100
AcDbEntity
  8
0
 62
    29
100
AcDbVertex
100
AcDb2dVertex
 10
80.23942737090989
 20
132.580453097846
 30
0.0
  0
SEQEND
  5
497
330
494
100
AcDbEntity
  8
0
  0
POLYLINE
  5
498
330
1F
100
AcDbEntity
  8
0
 62
    29
100
AcDb2dPolyline
 66
     1
 10
0.0
 20
0.0
 30
0.0
  0
VERTEX
  5
499
330
498
100
AcDbEntity
  8
0
 62
    29
100
AcDbVertex
100
AcDb2dVertex
 10
175.373907153255
 20
168.3212752780438
 30
0.0
  0
VERTEX
  5
49A
330
498
100
AcDbEntity
  8
0
 62
    29
100
AcDbVertex
100
AcDb2dVertex
 10
175.373907153255
 20
162.8237605307764
 30
0.0
  0
SEQEND
  5
49B
330
498
100
AcDbEntity
  8
0
  0
POLYLINE
  5
49C
330
1F
100
AcDbEntity
  8
0
 62
    29
100
AcDb2dPolyline
 66
     1
 10
0.0
 20
0.0
 30
0.0
  0
VERTEX
  5
49D
330
49C
100
AcDbEntity
  8
0
 62
    29
100
AcDbVertex
100
AcDb2dVertex
 10
173.3747169243099
 20
166.8219687337788
 30
0.0
  0
VERTEX
  5
49E
330
49C
100
AcDbEntity
  8
0
 62
    29
100
AcDbVertex
100
AcDb2dVertex
 10
173.3747169243099
 20
164.3230670750413
 30
0.0
  0
SEQEND
  5
49F
330
49C
100
AcDbEntity
  8
0
  0
SPLINE
  5
4A0
330
1F
100
AcDbEntity
  8
0
 62
    29
100
AcDbSpline
210
0.0
220
0.0
230
1.0
 70
     8
 71
     3
 72
    11
 73
     7
 74
     0
 42
0.0000000001
 43
0.0000000001
 40
0.0
 40
0.0
 40
0.0
 40
0.0
 40
1.0
 40
1.0
 40
1.0
 40
2.0
 40
2.0
 40
2.0
 40
2.0
 10
174.8740234685748
 20
168.3212752780438
 30
0.0
 10
174.0461664773366
 20
168.3212752780438
 30
0.0
 10
173.3747169243099
 20
167.6499979799049
 30
0.0
 10
173.3747169243099
 20
166.8219687337788
 30
0.0
 10
173.3747169243099
 20
166.8219687337788
 30
0.0
 10
173.3747169243099
 20
166.8219687337788
 30
0.0
 10
173.3747169243099
 20
166.8219687337788
 30
0.0
  0
SPLINE
  5
4A1
330
1F
100
AcDbEntity
  8
0
 62
    29
100
AcDbSpline
210
0.0
220
0.0
230
1.0
 70
     8
 71
     3
 72
    11
 73
     7
 74
     0
 42
0.0000000001
 43
0.0000000001
 40
0.0
 40
0.0
 40
0.0
 40
0.0
 40
1.0
 40
1.0
 40
1.0
 40
2.0
 40
2.0
 40
2.0
 40
2.0
 10
173.3747169243099
 20
164.3230670750413
 30
0.0
 10
173.3747169243099
 20
163.4950378289152
 30
0.0
 10
174.0461664773366
 20
162.8237605307764
 30
0.0
 10
174.8740234685748
 20
162.8237605307764
 30
0.0
 10
174.8740234685748
 20
162.8237605307764
 30
0.0
 10
174.8740234685748
 20
162.8237605307764
 30
0.0
 10
174.8740234685748
 20
162.8237605307764
 30
0.0
  0
POLYLINE
  5
4A2
330
1F
100
AcDbEntity
  8
0
 62
    29
100
AcDb2dPolyline
 66
     1
 10
0.0
 20
0.0
 30
0.0
  0
VERTEX
  5
4A3
330
4A2
100
AcDbEntity
  8
0
 62
    29
100
AcDbVertex
100
AcDb2dVertex
 10
175.6236767407073
 20
168.3212752780438
 30
0.0
  0
VERTEX
  5
4A4
330
4A2
100
AcDbEntity
  8
0
 62
    29
100
AcDbVertex
100
AcDb2dVertex
 10
174.8740234685748
 20
168.3212752780438
 30
0.0
  0
SEQEND
  5
4A5
330
4A2
100
AcDbEntity
  8
0
  0
POLYLINE
  5
4A6
330
1F
100
AcDbEntity
  8
0
 62
    29
100
AcDb2dPolyline
 66
     1
 10
0.0
 20
0.0
 30
0.0
  0
VERTEX
  5
4A7
330
4A6
100
AcDbEntity
  8
0
 62
    29
100
AcDbVertex
100
AcDb2dVertex
 10
175.6236767407073
 20
162.8237605307764
 30
0.0
  0
VERTEX
  5
4A8
330
4A6
100
AcDbEntity
  8
0
 62
    29
100
AcDbVertex
100
AcDb2dVertex
 10
174.8740234685748
 20
162.8237605307764
 30
0.0
  0
SEQEND
  5
4A9
330
4A6
100
AcDbEntity
  8
0
  0
POLYLINE
  5
4AA
330
1F
100
AcDbEntity
  8
0
 62
    29
100
AcDb2dPolyline
 66
     1
 10
0.0
 20
0.0
 30
0.0
  0
VERTEX
  5
4AB
330
4AA
100
AcDbEntity
  8
0
 62
    29
100
AcDbVertex
100
AcDb2dVertex
 10
173.3747169243099
 20
165.572604031854
 30
0.0
  0
VERTEX
  5
4AC
330
4AA
100
AcDbEntity
  8
0
 62
    29
100
AcDbVertex
100
AcDb2dVertex
 10
174.1336719603888
 20
166.8870810814043
 30
0.0
  0
SEQEND
  5
4AD
330
4AA
100
AcDbEntity
  8
0
  0
POLYLINE
  5
4AE
330
1F
100
AcDbEntity
  8
0
 62
    29
100
AcDb2dPolyline
 66
     1
 10
0.0
 20
0.0
 30
0.0
  0
VERTEX
  5
4AF
330
4AE
100
AcDbEntity
  8
0
 62
    29
100
AcDbVertex
100
AcDb2dVertex
 10
173.3747169243099
 20
165.572604031854
 30
0.0
  0
VERTEX
  5
4B0
330
4AE
100
AcDbEntity
  8
0
 62
    29
100
AcDbVertex
100
AcDb2dVertex
 10
174.1336719603888
 20
164.2579547274159
 30
0.0
  0
SEQEND
  5
4B1
330
4AE
100
AcDbEntity
  8
0
  0
POLYLINE
  5
4B2
330
1F
100
AcDbEntity
  8
0
 62
    29
100
AcDb2dPolyline
 66
     1
 10
0.0
 20
0.0
 30
0.0
  0
VERTEX
  5
4B3
330
4B2
100
AcDbEntity
  8
0
 62
    29
100
AcDbVertex
100
AcDb2dVertex
 10
175.373907153255
 20
145.3314489196138
 30
0.0
  0
VERTEX
  5
4B4
330
4B2
100
AcDbEntity
  8
0
 62
    29
100
AcDbVertex
100
AcDb2dVertex
 10
175.373907153255
 20
139.8337619174586
 30
0.0
  0
SEQEND
  5
4B5
330
4B2
100
AcDbEntity
  8
0
  0
POLYLINE
  5
4B6
330
1F
100
AcDbEntity
  8
0
 62
    29
100
AcDb2dPolyline
 66
     1
 10
0.0
 20
0.0
 30
0.0
  0
VERTEX
  5
4B7
330
4B6
100
AcDbEntity
  8
0
 62
    29
100
AcDbVertex
100
AcDb2dVertex
 10
173.3747169243099
 20
143.8321423753489
 30
0.0
  0
VERTEX
  5
4B8
330
4B6
100
AcDbEntity
  8
0
 62
    29
100
AcDbVertex
100
AcDb2dVertex
 10
173.3747169243099
 20
141.3330684617235
 30
0.0
  0
SEQEND
  5
4B9
330
4B6
100
AcDbEntity
  8
0
  0
SPLINE
  5
4BA
330
1F
100
AcDbEntity
  8
0
 62
    29
100
AcDbSpline
210
0.0
220
0.0
230
1.0
 70
     8
 71
     3
 72
    11
 73
     7
 74
     0
 42
0.0000000001
 43
0.0000000001
 40
0.0
 40
0.0
 40
0.0
 40
0.0
 40
1.0
 40
1.0
 40
1.0
 40
2.0
 40
2.0
 40
2.0
 40
2.0
 10
174.8740234685748
 20
145.3314489196138
 30
0.0
 10
174.0461664773366
 20
145.3314489196138
 30
0.0
 10
173.3747169243099
 20
144.6603438763629
 30
0.0
 10
173.3747169243099
 20
143.8321423753489
 30
0.0
 10
173.3747169243099
 20
143.8321423753489
 30
0.0
 10
173.3747169243099
 20
143.8321423753489
 30
0.0
 10
173.3747169243099
 20
143.8321423753489
 30
0.0
  0
SPLINE
  5
4BB
330
1F
100
AcDbEntity
  8
0
 62
    29
100
AcDbSpline
210
0.0
220
0.0
230
1.0
 70
     8
 71
     3
 72
    11
 73
     7
 74
     0
 42
0.0000000001
 43
0.0000000001
 40
0.0
 40
0.0
 40
0.0
 40
0.0
 40
1.0
 40
1.0
 40
1.0
 40
2.0
 40
2.0
 40
2.0
 40
2.0
 10
173.3747169243099
 20
141.3330684617235
 30
0.0
 10
173.3747169243099
 20
140.5052114704853
 30
0.0
 10
174.0461664773366
 20
139.8337619174586
 30
0.0
 10
174.8740234685748
 20
139.8337619174586
 30
0.0
 10
174.8740234685748
 20
139.8337619174586
 30
0.0
 10
174.8740234685748
 20
139.8337619174586
 30
0.0
 10
174.8740234685748
 20
139.8337619174586
 30
0.0
  0
POLYLINE
  5
4BC
330
1F
100
AcDbEntity
  8
0
 62
    29
100
AcDb2dPolyline
 66
     1
 10
0.0
 20
0.0
 30
0.0
  0
VERTEX
  5
4BD
330
4BC
100
AcDbEntity
  8
0
 62
    29
100
AcDbVertex
100
AcDb2dVertex
 10
175.6236767407073
 20
145.3314489196138
 30
0.0
  0
VERTEX
  5
4BE
330
4BC
100
AcDbEntity
  8
0
 62
    29
100
AcDbVertex
100
AcDb2dVertex
 10
174.8740234685748
 20
145.3314489196138
 30
0.0
  0
SEQEND
  5
4BF
330
4BC
100
AcDbEntity
  8
0
  0
POLYLINE
  5
4C0
330
1F
100
AcDbEntity
  8
0
 62
    29
100
AcDb2dPolyline
 66
     1
 10
0.0
 20
0.0
 30
0.0
  0
VERTEX
  5
4C1
330
4C0
100
AcDbEntity
  8
0
 62
    29
100
AcDbVertex
100
AcDb2dVertex
 10
175.6236767407073
 20
139.8337619174586
 30
0.0
  0
VERTEX
  5
4C2
330
4C0
100
AcDbEntity
  8
0
 62
    29
100
AcDbVertex
100
AcDb2dVertex
 10
174.8740234685748
 20
139.8337619174586
 30
0.0
  0
SEQEND
  5
4C3
330
4C0
100
AcDbEntity
  8
0
  0
POLYLINE
  5
4C4
330
1F
100
AcDbEntity
  8
0
 62
    29
100
AcDb2dPolyline
 66
     1
 10
0.0
 20
0.0
 30
0.0
  0
VERTEX
  5
4C5
330
4C4
100
AcDbEntity
  8
0
 62
    29
100
AcDbVertex
100
AcDb2dVertex
 10
173.3747169243099
 20
142.5826054185362
 30
0.0
  0
VERTEX
  5
4C6
330
4C4
100
AcDbEntity
  8
0
 62
    29
100
AcDbVertex
100
AcDb2dVertex
 10
174.1336719603888
 20
143.8969102131986
 30
0.0
  0
SEQEND
  5
4C7
330
4C4
100
AcDbEntity
  8
0
  0
POLYLINE
  5
4C8
330
1F
100
AcDbEntity
  8
0
 62
    29
100
AcDb2dPolyline
 66
     1
 10
0.0
 20
0.0
 30
0.0
  0
VERTEX
  5
4C9
330
4C8
100
AcDbEntity
  8
0
 62
    29
100
AcDbVertex
100
AcDb2dVertex
 10
173.3747169243099
 20
142.5826054185362
 30
0.0
  0
VERTEX
  5
4CA
330
4C8
100
AcDbEntity
  8
0
 62
    29
100
AcDbVertex
100
AcDb2dVertex
 10
174.1336719603888
 20
141.267956114098
 30
0.0
  0
SEQEND
  5
4CB
330
4C8
100
AcDbEntity
  8
0
  0
POLYLINE
  5
4CC
330
1F
100
AcDbEntity
  8
0
 62
    29
100
AcDb2dPolyline
 66
     1
 10
0.0
 20
0.0
 30
0.0
  0
VERTEX
  5
4CD
330
4CC
100
AcDbEntity
  8
0
 62
    29
100
AcDbVertex
100
AcDb2dVertex
 10
108.9768825738352
 20
217.4697289126768
 30
0.0
  0
VERTEX
  5
4CE
330
4CC
100
AcDbEntity
  8
0
 62
    29
100
AcDbVertex
100
AcDb2dVertex
 10
114.4742250662147
 20
217.4697289126768
 30
0.0
  0
SEQEND
  5
4CF
330
4CC
100
AcDbEntity
  8
0
  0
POLYLINE
  5
4D0
330
1F
100
AcDbEntity
  8
0
 62
    29
100
AcDb2dPolyline
 66
     1
 10
0.0
 20
0.0
 30
0.0
  0
VERTEX
  5
4D1
330
4D0
100
AcDbEntity
  8
0
 62
    29
100
AcDbVertex
100
AcDb2dVertex
 10
110.4761891181001
 20
215.4705386837316
 30
0.0
  0
VERTEX
  5
4D2
330
4D0
100
AcDbEntity
  8
0
 62
    29
100
AcDbVertex
100
AcDb2dVertex
 10
112.9749185219497
 20
215.4705386837316
 30
0.0
  0
SEQEND
  5
4D3
330
4D0
100
AcDbEntity
  8
0
  0
SPLINE
  5
4D4
330
1F
100
AcDbEntity
  8
0
 62
    29
100
AcDbSpline
210
0.0
220
0.0
230
1.0
 70
     8
 71
     3
 72
    11
 73
     7
 74
     0
 42
0.0000000001
 43
0.0000000001
 40
0.0
 40
0.0
 40
0.0
 40
0.0
 40
1.0
 40
1.0
 40
1.0
 40
2.0
 40
2.0
 40
2.0
 40
2.0
 10
108.9768825738352
 20
216.9700174828845
 30
0.0
 10
108.9768825738352
 20
216.1418159818705
 30
0.0
 10
109.6483321268619
 20
215.4705386837316
 30
0.0
 10
110.4761891181001
 20
215.4705386837316
 30
0.0
 10
110.4761891181001
 20
215.4705386837316
 30
0.0
 10
110.4761891181001
 20
215.4705386837316
 30
0.0
 10
110.4761891181001
 20
215.4705386837316
 30
0.0
  0
SPLINE
  5
4D5
330
1F
100
AcDbEntity
  8
0
 62
    29
100
AcDbSpline
210
0.0
220
0.0
230
1.0
 70
     8
 71
     3
 72
    11
 73
     7
 74
     0
 42
0.0000000001
 43
0.0000000001
 40
0.0
 40
0.0
 40
0.0
 40
0.0
 40
1.0
 40
1.0
 40
1.0
 40
2.0
 40
2.0
 40
2.0
 40
2.0
 10
112.9749185219497
 20
215.4705386837316
 30
0.0
 10
113.8031200229637
 20
215.4705386837316
 30
0.0
 10
114.4742250662147
 20
216.1418159818705
 30
0.0
 10
114.4742250662147
 20
216.9700174828845
 30
0.0
 10
114.4742250662147
 20
216.9700174828845
 30
0.0
 10
114.4742250662147
 20
216.9700174828845
 30
0.0
 10
114.4742250662147
 20
216.9700174828845
 30
0.0
  0
POLYLINE
  5
4D6
330
1F
100
AcDbEntity
  8
0
 62
    29
100
AcDb2dPolyline
 66
     1
 10
0.0
 20
0.0
 30
0.0
  0
VERTEX
  5
4D7
330
4D6
100
AcDbEntity
  8
0
 62
    29
100
AcDbVertex
100
AcDb2dVertex
 10
108.9768825738352
 20
217.7196707550169
 30
0.0
  0
VERTEX
  5
4D8
330
4D6
100
AcDbEntity
  8
0
 62
    29
100
AcDbVertex
100
AcDb2dVertex
 10
108.9768825738352
 20
216.9700174828845
 30
0.0
  0
SEQEND
  5
4D9
330
4D6
100
AcDbEntity
  8
0
  0
POLYLINE
  5
4DA
330
1F
100
AcDbEntity
  8
0
 62
    29
100
AcDb2dPolyline
 66
     1
 10
0.0
 20
0.0
 30
0.0
  0
VERTEX
  5
4DB
330
4DA
100
AcDbEntity
  8
0
 62
    29
100
AcDbVertex
100
AcDb2dVertex
 10
114.4742250662147
 20
217.7196707550169
 30
0.0
  0
VERTEX
  5
4DC
330
4DA
100
AcDbEntity
  8
0
 62
    29
100
AcDbVertex
100
AcDb2dVertex
 10
114.4742250662147
 20
216.9700174828845
 30
0.0
  0
SEQEND
  5
4DD
330
4DA
100
AcDbEntity
  8
0
  0
POLYLINE
  5
4DE
330
1F
100
AcDbEntity
  8
0
 62
    29
100
AcDb2dPolyline
 66
     1
 10
0.0
 20
0.0
 30
0.0
  0
VERTEX
  5
4DF
330
4DE
100
AcDbEntity
  8
0
 62
    29
100
AcDbVertex
100
AcDb2dVertex
 10
111.7257260749128
 20
215.4705386837316
 30
0.0
  0
VERTEX
  5
4E0
330
4DE
100
AcDbEntity
  8
0
 62
    29
100
AcDbVertex
100
AcDb2dVertex
 10
110.4110767704747
 20
216.2294937198106
 30
0.0
  0
SEQEND
  5
4E1
330
4DE
100
AcDbEntity
  8
0
  0
POLYLINE
  5
4E2
330
1F
100
AcDbEntity
  8
0
 62
    29
100
AcDb2dPolyline
 66
     1
 10
0.0
 20
0.0
 30
0.0
  0
VERTEX
  5
4E3
330
4E2
100
AcDbEntity
  8
0
 62
    29
100
AcDbVertex
100
AcDb2dVertex
 10
111.7257260749128
 20
215.4705386837316
 30
0.0
  0
VERTEX
  5
4E4
330
4E2
100
AcDbEntity
  8
0
 62
    29
100
AcDbVertex
100
AcDb2dVertex
 10
113.040375379351
 20
216.2294937198106
 30
0.0
  0
SEQEND
  5
4E5
330
4E2
100
AcDbEntity
  8
0
  0
POLYLINE
  5
4E6
330
1F
100
AcDbEntity
  8
0
 62
    29
100
AcDb2dPolyline
 66
     1
 10
0.0
 20
0.0
 30
0.0
  0
VERTEX
  5
4E7
330
4E6
100
AcDbEntity
  8
0
 62
    29
100
AcDbVertex
100
AcDb2dVertex
 10
91.48439870778473
 20
217.4697289126768
 30
0.0
  0
VERTEX
  5
4E8
330
4E6
100
AcDbEntity
  8
0
 62
    29
100
AcDbVertex
100
AcDb2dVertex
 10
85.98688396051738
 20
217.4697289126768
 30
0.0
  0
SEQEND
  5
4E9
330
4E6
100
AcDbEntity
  8
0
  0
POLYLINE
  5
4EA
330
1F
100
AcDbEntity
  8
0
 62
    29
100
AcDb2dPolyline
 66
     1
 10
0.0
 20
0.0
 30
0.0
  0
VERTEX
  5
4EB
330
4EA
100
AcDbEntity
  8
0
 62
    29
100
AcDbVertex
100
AcDb2dVertex
 10
89.98509216351981
 20
215.4705386837316
 30
0.0
  0
VERTEX
  5
4EC
330
4EA
100
AcDbEntity
  8
0
 62
    29
100
AcDbVertex
100
AcDb2dVertex
 10
87.4861905047823
 20
215.4705386837316
 30
0.0
  0
SEQEND
  5
4ED
330
4EA
100
AcDbEntity
  8
0
  0
SPLINE
  5
4EE
330
1F
100
AcDbEntity
  8
0
 62
    29
100
AcDbSpline
210
0.0
220
0.0
230
1.0
 70
     8
 71
     3
 72
    11
 73
     7
 74
     0
 42
0.0000000001
 43
0.0000000001
 40
0.0
 40
0.0
 40
0.0
 40
0.0
 40
1.0
 40
1.0
 40
1.0
 40
2.0
 40
2.0
 40
2.0
 40
2.0
 10
89.98509216351981
 20
215.4705386837316
 30
0.0
 10
90.8131214096459
 20
215.4705386837316
 30
0.0
 10
91.48439870778473
 20
216.1418159818705
 30
0.0
 10
91.48439870778473
 20
216.9700174828845
 30
0.0
 10
91.48439870778473
 20
216.9700174828845
 30
0.0
 10
91.48439870778473
 20
216.9700174828845
 30
0.0
 10
91.48439870778473
 20
216.9700174828845
 30
0.0
  0
SPLINE
  5
4EF
330
1F
100
AcDbEntity
  8
0
 62
    29
100
AcDbSpline
210
0.0
220
0.0
230
1.0
 70
     8
 71
     3
 72
    11
 73
     7
 74
     0
 42
0.0000000001
 43
0.0000000001
 40
0.0
 40
0.0
 40
0.0
 40
0.0
 40
1.0
 40
1.0
 40
1.0
 40
2.0
 40
2.0
 40
2.0
 40
2.0
 10
85.98688396051738
 20
216.9700174828845
 30
0.0
 10
85.98688396051738
 20
216.1418159818705
 30
0.0
 10
86.65816125865621
 20
215.4705386837316
 30
0.0
 10
87.4861905047823
 20
215.4705386837316
 30
0.0
 10
87.4861905047823
 20
215.4705386837316
 30
0.0
 10
87.4861905047823
 20
215.4705386837316
 30
0.0
 10
87.4861905047823
 20
215.4705386837316
 30
0.0
  0
POLYLINE
  5
4F0
330
1F
100
AcDbEntity
  8
0
 62
    29
100
AcDb2dPolyline
 66
     1
 10
0.0
 20
0.0
 30
0.0
  0
VERTEX
  5
4F1
330
4F0
100
AcDbEntity
  8
0
 62
    29
100
AcDbVertex
100
AcDb2dVertex
 10
91.48439870778473
 20
217.7196707550169
 30
0.0
  0
VERTEX
  5
4F2
330
4F0
100
AcDbEntity
  8
0
 62
    29
100
AcDbVertex
100
AcDb2dVertex
 10
91.48439870778473
 20
216.9700174828845
 30
0.0
  0
SEQEND
  5
4F3
330
4F0
100
AcDbEntity
  8
0
  0
POLYLINE
  5
4F4
330
1F
100
AcDbEntity
  8
0
 62
    29
100
AcDb2dPolyline
 66
     1
 10
0.0
 20
0.0
 30
0.0
  0
VERTEX
  5
4F5
330
4F4
100
AcDbEntity
  8
0
 62
    29
100
AcDbVertex
100
AcDb2dVertex
 10
85.98688396051738
 20
217.7196707550169
 30
0.0
  0
VERTEX
  5
4F6
330
4F4
100
AcDbEntity
  8
0
 62
    29
100
AcDbVertex
100
AcDb2dVertex
 10
85.98688396051738
 20
216.9700174828845
 30
0.0
  0
SEQEND
  5
4F7
330
4F4
100
AcDbEntity
  8
0
  0
POLYLINE
  5
4F8
330
1F
100
AcDbEntity
  8
0
 62
    29
100
AcDb2dPolyline
 66
     1
 10
0.0
 20
0.0
 30
0.0
  0
VERTEX
  5
4F9
330
4F8
100
AcDbEntity
  8
0
 62
    29
100
AcDbVertex
100
AcDb2dVertex
 10
88.73572746159501
 20
215.4705386837316
 30
0.0
  0
VERTEX
  5
4FA
330
4F8
100
AcDbEntity
  8
0
 62
    29
100
AcDbVertex
100
AcDb2dVertex
 10
90.05020451114528
 20
216.2294937198106
 30
0.0
  0
SEQEND
  5
4FB
330
4F8
100
AcDbEntity
  8
0
  0
POLYLINE
  5
4FC
330
1F
100
AcDbEntity
  8
0
 62
    29
100
AcDb2dPolyline
 66
     1
 10
0.0
 20
0.0
 30
0.0
  0
VERTEX
  5
4FD
330
4FC
100
AcDbEntity
  8
0
 62
    29
100
AcDbVertex
100
AcDb2dVertex
 10
88.73572746159501
 20
215.4705386837316
 30
0.0
  0
VERTEX
  5
4FE
330
4FC
100
AcDbEntity
  8
0
 62
    29
100
AcDbVertex
100
AcDb2dVertex
 10
87.42107815715683
 20
216.2294937198106
 30
0.0
  0
SEQEND
  5
4FF
330
4FC
100
AcDbEntity
  8
0
  0
POLYLINE
  5
500
330
1F
100
AcDbEntity
  8
0
 62
    29
100
AcDb2dPolyline
 66
     1
 10
0.0
 20
0.0
 30
0.0
  0
VERTEX
  5
501
330
500
100
AcDbEntity
  8
0
 62
    29
100
AcDbVertex
100
AcDb2dVertex
 10
77.99029529962461
 20
217.4697289126768
 30
0.0
  0
VERTEX
  5
502
330
500
100
AcDbEntity
  8
0
 62
    29
100
AcDbVertex
100
AcDb2dVertex
 10
83.48798230177987
 20
217.4697289126768
 30
0.0
  0
SEQEND
  5
503
330
500
100
AcDbEntity
  8
0
  0
POLYLINE
  5
504
330
1F
100
AcDbEntity
  8
0
 62
    29
100
AcDb2dPolyline
 66
     1
 10
0.0
 20
0.0
 30
0.0
  0
VERTEX
  5
505
330
504
100
AcDbEntity
  8
0
 62
    29
100
AcDbVertex
100
AcDb2dVertex
 10
79.48977409877743
 20
215.4705386837316
 30
0.0
  0
VERTEX
  5
506
330
504
100
AcDbEntity
  8
0
 62
    29
100
AcDbVertex
100
AcDb2dVertex
 10
81.98867575751494
 20
215.4705386837316
 30
0.0
  0
SEQEND
  5
507
330
504
100
AcDbEntity
  8
0
  0
SPLINE
  5
508
330
1F
100
AcDbEntity
  8
0
 62
    29
100
AcDbSpline
210
0.0
220
0.0
230
1.0
 70
     8
 71
     3
 72
    11
 73
     7
 74
     0
 42
0.0000000001
 43
0.0000000001
 40
0.0
 40
0.0
 40
0.0
 40
0.0
 40
1.0
 40
1.0
 40
1.0
 40
2.0
 40
2.0
 40
2.0
 40
2.0
 10
77.99029529962461
 20
216.9700174828845
 30
0.0
 10
77.99029529962461
 20
216.1418159818705
 30
0.0
 10
78.66157259776344
 20
215.4705386837316
 30
0.0
 10
79.48977409877743
 20
215.4705386837316
 30
0.0
 10
79.48977409877743
 20
215.4705386837316
 30
0.0
 10
79.48977409877743
 20
215.4705386837316
 30
0.0
 10
79.48977409877743
 20
215.4705386837316
 30
0.0
  0
SPLINE
  5
509
330
1F
100
AcDbEntity
  8
0
 62
    29
100
AcDbSpline
210
0.0
220
0.0
230
1.0
 70
     8
 71
     3
 72
    11
 73
     7
 74
     0
 42
0.0000000001
 43
0.0000000001
 40
0.0
 40
0.0
 40
0.0
 40
0.0
 40
1.0
 40
1.0
 40
1.0
 40
2.0
 40
2.0
 40
2.0
 40
2.0
 10
81.98867575751494
 20
215.4705386837316
 30
0.0
 10
82.81670500364103
 20
215.4705386837316
 30
0.0
 10
83.48798230177987
 20
216.1418159818705
 30
0.0
 10
83.48798230177987
 20
216.9700174828845
 30
0.0
 10
83.48798230177987
 20
216.9700174828845
 30
0.0
 10
83.48798230177987
 20
216.9700174828845
 30
0.0
 10
83.48798230177987
 20
216.9700174828845
 30
0.0
  0
POLYLINE
  5
50A
330
1F
100
AcDbEntity
  8
0
 62
    29
100
AcDb2dPolyline
 66
     1
 10
0.0
 20
0.0
 30
0.0
  0
VERTEX
  5
50B
330
50A
100
AcDbEntity
  8
0
 62
    29
100
AcDbVertex
100
AcDb2dVertex
 10
77.99029529962461
 20
217.7196707550169
 30
0.0
  0
VERTEX
  5
50C
330
50A
100
AcDbEntity
  8
0
 62
    29
100
AcDbVertex
100
AcDb2dVertex
 10
77.99029529962461
 20
216.9700174828845
 30
0.0
  0
SEQEND
  5
50D
330
50A
100
AcDbEntity
  8
0
  0
POLYLINE
  5
50E
330
1F
100
AcDbEntity
  8
0
 62
    29
100
AcDb2dPolyline
 66
     1
 10
0.0
 20
0.0
 30
0.0
  0
VERTEX
  5
50F
330
50E
100
AcDbEntity
  8
0
 62
    29
100
AcDbVertex
100
AcDb2dVertex
 10
83.48798230177987
 20
217.7196707550169
 30
0.0
  0
VERTEX
  5
510
330
50E
100
AcDbEntity
  8
0
 62
    29
100
AcDbVertex
100
AcDb2dVertex
 10
83.48798230177987
 20
216.9700174828845
 30
0.0
  0
SEQEND
  5
511
330
50E
100
AcDbEntity
  8
0
  0
POLYLINE
  5
512
330
1F
100
AcDbEntity
  8
0
 62
    29
100
AcDb2dPolyline
 66
     1
 10
0.0
 20
0.0
 30
0.0
  0
VERTEX
  5
513
330
512
100
AcDbEntity
  8
0
 62
    29
100
AcDbVertex
100
AcDb2dVertex
 10
80.73913880070224
 20
215.4705386837316
 30
0.0
  0
VERTEX
  5
514
330
512
100
AcDbEntity
  8
0
 62
    29
100
AcDbVertex
100
AcDb2dVertex
 10
79.42466175115195
 20
216.2294937198106
 30
0.0
  0
SEQEND
  5
515
330
512
100
AcDbEntity
  8
0
  0
POLYLINE
  5
516
330
1F
100
AcDbEntity
  8
0
 62
    29
100
AcDb2dPolyline
 66
     1
 10
0.0
 20
0.0
 30
0.0
  0
VERTEX
  5
517
330
516
100
AcDbEntity
  8
0
 62
    29
100
AcDbVertex
100
AcDb2dVertex
 10
80.73913880070224
 20
215.4705386837316
 30
0.0
  0
VERTEX
  5
518
330
516
100
AcDbEntity
  8
0
 62
    29
100
AcDbVertex
100
AcDb2dVertex
 10
82.05361585025251
 20
216.2294937198106
 30
0.0
  0
SEQEND
  5
519
330
516
100
AcDbEntity
  8
0
  0
POLYLINE
  5
51A
330
1F
100
AcDbEntity
  8
0
 62
    29
100
AcDb2dPolyline
 66
     1
 10
0.0
 20
0.0
 30
0.0
  0
VERTEX
  5
51B
330
51A
100
AcDbEntity
  8
0
 62
    29
100
AcDbVertex
100
AcDb2dVertex
 10
60.49798368846203
 20
217.4697289126768
 30
0.0
  0
VERTEX
  5
51C
330
51A
100
AcDbEntity
  8
0
 62
    29
100
AcDbVertex
100
AcDb2dVertex
 10
55.00046894119466
 20
217.4697289126768
 30
0.0
  0
SEQEND
  5
51D
330
51A
100
AcDbEntity
  8
0
  0
POLYLINE
  5
51E
330
1F
100
AcDbEntity
  8
0
 62
    29
100
AcDb2dPolyline
 66
     1
 10
0.0
 20
0.0
 30
0.0
  0
VERTEX
  5
51F
330
51E
100
AcDbEntity
  8
0
 62
    29
100
AcDbVertex
100
AcDb2dVertex
 10
58.9986771441971
 20
215.4705386837316
 30
0.0
  0
VERTEX
  5
520
330
51E
100
AcDbEntity
  8
0
 62
    29
100
AcDbVertex
100
AcDb2dVertex
 10
56.49977548545959
 20
215.4705386837316
 30
0.0
  0
SEQEND
  5
521
330
51E
100
AcDbEntity
  8
0
  0
SPLINE
  5
522
330
1F
100
AcDbEntity
  8
0
 62
    29
100
AcDbSpline
210
0.0
220
0.0
230
1.0
 70
     8
 71
     3
 72
    11
 73
     7
 74
     0
 42
0.0000000001
 43
0.0000000001
 40
0.0
 40
0.0
 40
0.0
 40
0.0
 40
1.0
 40
1.0
 40
1.0
 40
2.0
 40
2.0
 40
2.0
 40
2.0
 10
58.9986771441971
 20
215.4705386837316
 30
0.0
 10
59.82670639032319
 20
215.4705386837316
 30
0.0
 10
60.49798368846203
 20
216.1418159818705
 30
0.0
 10
60.49798368846203
 20
216.9700174828845
 30
0.0
 10
60.49798368846203
 20
216.9700174828845
 30
0.0
 10
60.49798368846203
 20
216.9700174828845
 30
0.0
 10
60.49798368846203
 20
216.9700174828845
 30
0.0
  0
SPLINE
  5
523
330
1F
100
AcDbEntity
  8
0
 62
    29
100
AcDbSpline
210
0.0
220
0.0
230
1.0
 70
     8
 71
     3
 72
    11
 73
     7
 74
     0
 42
0.0000000001
 43
0.0000000001
 40
0.0
 40
0.0
 40
0.0
 40
0.0
 40
1.0
 40
1.0
 40
1.0
 40
2.0
 40
2.0
 40
2.0
 40
2.0
 10
55.00046894119466
 20
216.9700174828845
 30
0.0
 10
55.00046894119466
 20
216.1418159818705
 30
0.0
 10
55.67174623933349
 20
215.4705386837316
 30
0.0
 10
56.49977548545959
 20
215.4705386837316
 30
0.0
 10
56.49977548545959
 20
215.4705386837316
 30
0.0
 10
56.49977548545959
 20
215.4705386837316
 30
0.0
 10
56.49977548545959
 20
215.4705386837316
 30
0.0
  0
POLYLINE
  5
524
330
1F
100
AcDbEntity
  8
0
 62
    29
100
AcDb2dPolyline
 66
     1
 10
0.0
 20
0.0
 30
0.0
  0
VERTEX
  5
525
330
524
100
AcDbEntity
  8
0
 62
    29
100
AcDbVertex
100
AcDb2dVertex
 10
60.49798368846203
 20
217.7196707550169
 30
0.0
  0
VERTEX
  5
526
330
524
100
AcDbEntity
  8
0
 62
    29
100
AcDbVertex
100
AcDb2dVertex
 10
60.49798368846203
 20
216.9700174828845
 30
0.0
  0
SEQEND
  5
527
330
524
100
AcDbEntity
  8
0
  0
POLYLINE
  5
528
330
1F
100
AcDbEntity
  8
0
 62
    29
100
AcDb2dPolyline
 66
     1
 10
0.0
 20
0.0
 30
0.0
  0
VERTEX
  5
529
330
528
100
AcDbEntity
  8
0
 62
    29
100
AcDbVertex
100
AcDb2dVertex
 10
55.00046894119466
 20
217.7196707550169
 30
0.0
  0
VERTEX
  5
52A
330
528
100
AcDbEntity
  8
0
 62
    29
100
AcDbVertex
100
AcDb2dVertex
 10
55.00046894119466
 20
216.9700174828845
 30
0.0
  0
SEQEND
  5
52B
330
528
100
AcDbEntity
  8
0
  0
POLYLINE
  5
52C
330
1F
100
AcDbEntity
  8
0
 62
    29
100
AcDb2dPolyline
 66
     1
 10
0.0
 20
0.0
 30
0.0
  0
VERTEX
  5
52D
330
52C
100
AcDbEntity
  8
0
 62
    29
100
AcDbVertex
100
AcDb2dVertex
 10
57.7491401873844
 20
215.4705386837316
 30
0.0
  0
VERTEX
  5
52E
330
52C
100
AcDbEntity
  8
0
 62
    29
100
AcDbVertex
100
AcDb2dVertex
 10
59.06378949182258
 20
216.2294937198106
 30
0.0
  0
SEQEND
  5
52F
330
52C
100
AcDbEntity
  8
0
  0
POLYLINE
  5
530
330
1F
100
AcDbEntity
  8
0
 62
    29
100
AcDb2dPolyline
 66
     1
 10
0.0
 20
0.0
 30
0.0
  0
VERTEX
  5
531
330
530
100
AcDbEntity
  8
0
 62
    29
100
AcDbVertex
100
AcDb2dVertex
 10
57.7491401873844
 20
215.4705386837316
 30
0.0
  0
VERTEX
  5
532
330
530
100
AcDbEntity
  8
0
 62
    29
100
AcDbVertex
100
AcDb2dVertex
 10
56.43466313783411
 20
216.2294937198106
 30
0.0
  0
SEQEND
  5
533
330
530
100
AcDbEntity
  8
0
  0
POLYLINE
  5
534
330
1F
100
AcDbEntity
  8
0
 62
    29
100
AcDb2dPolyline
 66
     1
 10
0.0
 20
0.0
 30
0.0
  0
VERTEX
  5
535
330
534
100
AcDbEntity
  8
0
 62
    29
100
AcDbVertex
100
AcDb2dVertex
 10
47.00388028030189
 20
217.4697289126768
 30
0.0
  0
VERTEX
  5
536
330
534
100
AcDbEntity
  8
0
 62
    29
100
AcDbVertex
100
AcDb2dVertex
 10
52.50156728245715
 20
217.4697289126768
 30
0.0
  0
SEQEND
  5
537
330
534
100
AcDbEntity
  8
0
  0
POLYLINE
  5
538
330
1F
100
AcDbEntity
  8
0
 62
    29
100
AcDb2dPolyline
 66
     1
 10
0.0
 20
0.0
 30
0.0
  0
VERTEX
  5
539
330
538
100
AcDbEntity
  8
0
 62
    29
100
AcDbVertex
100
AcDb2dVertex
 10
48.50318682456682
 20
215.4705386837316
 30
0.0
  0
VERTEX
  5
53A
330
538
100
AcDbEntity
  8
0
 62
    29
100
AcDbVertex
100
AcDb2dVertex
 10
51.00208848330433
 20
215.4705386837316
 30
0.0
  0
SEQEND
  5
53B
330
538
100
AcDbEntity
  8
0
  0
SPLINE
  5
53C
330
1F
100
AcDbEntity
  8
0
 62
    29
100
AcDbSpline
210
0.0
220
0.0
230
1.0
 70
     8
 71
     3
 72
    11
 73
     7
 74
     0
 42
0.0000000001
 43
0.0000000001
 40
0.0
 40
0.0
 40
0.0
 40
0.0
 40
1.0
 40
1.0
 40
1.0
 40
2.0
 40
2.0
 40
2.0
 40
2.0
 10
47.00388028030189
 20
216.9700174828845
 30
0.0
 10
47.00388028030189
 20
216.1418159818705
 30
0.0
 10
47.67515757844073
 20
215.4705386837316
 30
0.0
 10
48.50318682456682
 20
215.4705386837316
 30
0.0
 10
48.50318682456682
 20
215.4705386837316
 30
0.0
 10
48.50318682456682
 20
215.4705386837316
 30
0.0
 10
48.50318682456682
 20
215.4705386837316
 30
0.0
  0
SPLINE
  5
53D
330
1F
100
AcDbEntity
  8
0
 62
    29
100
AcDbSpline
210
0.0
220
0.0
230
1.0
 70
     8
 71
     3
 72
    11
 73
     7
 74
     0
 42
0.0000000001
 43
0.0000000001
 40
0.0
 40
0.0
 40
0.0
 40
0.0
 40
1.0
 40
1.0
 40
1.0
 40
2.0
 40
2.0
 40
2.0
 40
2.0
 10
51.00208848330433
 20
215.4705386837316
 30
0.0
 10
51.83028998431832
 20
215.4705386837316
 30
0.0
 10
52.50156728245715
 20
216.1418159818705
 30
0.0
 10
52.50156728245715
 20
216.9700174828845
 30
0.0
 10
52.50156728245715
 20
216.9700174828845
 30
0.0
 10
52.50156728245715
 20
216.9700174828845
 30
0.0
 10
52.50156728245715
 20
216.9700174828845
 30
0.0
  0
POLYLINE
  5
53E
330
1F
100
AcDbEntity
  8
0
 62
    29
100
AcDb2dPolyline
 66
     1
 10
0.0
 20
0.0
 30
0.0
  0
VERTEX
  5
53F
330
53E
100
AcDbEntity
  8
0
 62
    29
100
AcDbVertex
100
AcDb2dVertex
 10
47.00388028030189
 20
217.7196707550169
 30
0.0
  0
VERTEX
  5
540
330
53E
100
AcDbEntity
  8
0
 62
    29
100
AcDbVertex
100
AcDb2dVertex
 10
47.00388028030189
 20
216.9700174828845
 30
0.0
  0
SEQEND
  5
541
330
53E
100
AcDbEntity
  8
0
  0
POLYLINE
  5
542
330
1F
100
AcDbEntity
  8
0
 62
    29
100
AcDb2dPolyline
 66
     1
 10
0.0
 20
0.0
 30
0.0
  0
VERTEX
  5
543
330
542
100
AcDbEntity
  8
0
 62
    29
100
AcDbVertex
100
AcDb2dVertex
 10
52.50156728245715
 20
217.7196707550169
 30
0.0
  0
VERTEX
  5
544
330
542
100
AcDbEntity
  8
0
 62
    29
100
AcDbVertex
100
AcDb2dVertex
 10
52.50156728245715
 20
216.9700174828845
 30
0.0
  0
SEQEND
  5
545
330
542
100
AcDbEntity
  8
0
  0
POLYLINE
  5
546
330
1F
100
AcDbEntity
  8
0
 62
    29
100
AcDb2dPolyline
 66
     1
 10
0.0
 20
0.0
 30
0.0
  0
VERTEX
  5
547
330
546
100
AcDbEntity
  8
0
 62
    29
100
AcDbVertex
100
AcDb2dVertex
 10
49.75272378137952
 20
215.4705386837316
 30
0.0
  0
VERTEX
  5
548
330
546
100
AcDbEntity
  8
0
 62
    29
100
AcDbVertex
100
AcDb2dVertex
 10
48.43824673182924
 20
216.2294937198106
 30
0.0
  0
SEQEND
  5
549
330
546
100
AcDbEntity
  8
0
  0
POLYLINE
  5
54A
330
1F
100
AcDbEntity
  8
0
 62
    29
100
AcDb2dPolyline
 66
     1
 10
0.0
 20
0.0
 30
0.0
  0
VERTEX
  5
54B
330
54A
100
AcDbEntity
  8
0
 62
    29
100
AcDbVertex
100
AcDb2dVertex
 10
49.75272378137952
 20
215.4705386837316
 30
0.0
  0
VERTEX
  5
54C
330
54A
100
AcDbEntity
  8
0
 62
    29
100
AcDbVertex
100
AcDb2dVertex
 10
51.0672008309298
 20
216.2294937198106
 30
0.0
  0
SEQEND
  5
54D
330
54A
100
AcDbEntity
  8
0
  0
POLYLINE
  5
54E
330
1F
100
AcDbEntity
  8
0
 62
    29
100
AcDb2dPolyline
 66
     1
 10
0.0
 20
0.0
 30
0.0
  0
VERTEX
  5
54F
330
54E
100
AcDbEntity
  8
0
 62
    29
100
AcDbVertex
100
AcDb2dVertex
 10
29.51156866913932
 20
217.4697289126768
 30
0.0
  0
VERTEX
  5
550
330
54E
100
AcDbEntity
  8
0
 62
    29
100
AcDbVertex
100
AcDb2dVertex
 10
24.01388166698405
 20
217.4697289126768
 30
0.0
  0
SEQEND
  5
551
330
54E
100
AcDbEntity
  8
0
  0
POLYLINE
  5
552
330
1F
100
AcDbEntity
  8
0
 62
    29
100
AcDb2dPolyline
 66
     1
 10
0.0
 20
0.0
 30
0.0
  0
VERTEX
  5
553
330
552
100
AcDbEntity
  8
0
 62
    29
100
AcDbVertex
100
AcDb2dVertex
 10
28.01226212487439
 20
215.4705386837316
 30
0.0
  0
VERTEX
  5
554
330
552
100
AcDbEntity
  8
0
 62
    29
100
AcDbVertex
100
AcDb2dVertex
 10
25.51336046613688
 20
215.4705386837316
 30
0.0
  0
SEQEND
  5
555
330
552
100
AcDbEntity
  8
0
  0
SPLINE
  5
556
330
1F
100
AcDbEntity
  8
0
 62
    29
100
AcDbSpline
210
0.0
220
0.0
230
1.0
 70
     8
 71
     3
 72
    11
 73
     7
 74
     0
 42
0.0000000001
 43
0.0000000001
 40
0.0
 40
0.0
 40
0.0
 40
0.0
 40
1.0
 40
1.0
 40
1.0
 40
2.0
 40
2.0
 40
2.0
 40
2.0
 10
28.01226212487439
 20
215.4705386837316
 30
0.0
 10
28.84029137100048
 20
215.4705386837316
 30
0.0
 10
29.51156866913932
 20
216.1418159818705
 30
0.0
 10
29.51156866913932
 20
216.9700174828845
 30
0.0
 10
29.51156866913932
 20
216.9700174828845
 30
0.0
 10
29.51156866913932
 20
216.9700174828845
 30
0.0
 10
29.51156866913932
 20
216.9700174828845
 30
0.0
  0
SPLINE
  5
557
330
1F
100
AcDbEntity
  8
0
 62
    29
100
AcDbSpline
210
0.0
220
0.0
230
1.0
 70
     8
 71
     3
 72
    11
 73
     7
 74
     0
 42
0.0000000001
 43
0.0000000001
 40
0.0
 40
0.0
 40
0.0
 40
0.0
 40
1.0
 40
1.0
 40
1.0
 40
2.0
 40
2.0
 40
2.0
 40
2.0
 10
24.01388166698405
 20
216.9700174828845
 30
0.0
 10
24.01388166698405
 20
216.1418159818705
 30
0.0
 10
24.68515896512289
 20
215.4705386837316
 30
0.0
 10
25.51336046613688
 20
215.4705386837316
 30
0.0
 10
25.51336046613688
 20
215.4705386837316
 30
0.0
 10
25.51336046613688
 20
215.4705386837316
 30
0.0
 10
25.51336046613688
 20
215.4705386837316
 30
0.0
  0
POLYLINE
  5
558
330
1F
100
AcDbEntity
  8
0
 62
    29
100
AcDb2dPolyline
 66
     1
 10
0.0
 20
0.0
 30
0.0
  0
VERTEX
  5
559
330
558
100
AcDbEntity
  8
0
 62
    29
100
AcDbVertex
100
AcDb2dVertex
 10
29.51156866913932
 20
217.7196707550169
 30
0.0
  0
VERTEX
  5
55A
330
558
100
AcDbEntity
  8
0
 62
    29
100
AcDbVertex
100
AcDb2dVertex
 10
29.51156866913932
 20
216.9700174828845
 30
0.0
  0
SEQEND
  5
55B
330
558
100
AcDbEntity
  8
0
  0
POLYLINE
  5
55C
330
1F
100
AcDbEntity
  8
0
 62
    29
100
AcDb2dPolyline
 66
     1
 10
0.0
 20
0.0
 30
0.0
  0
VERTEX
  5
55D
330
55C
100
AcDbEntity
  8
0
 62
    29
100
AcDbVertex
100
AcDb2dVertex
 10
24.01388166698405
 20
217.7196707550169
 30
0.0
  0
VERTEX
  5
55E
330
55C
100
AcDbEntity
  8
0
 62
    29
100
AcDbVertex
100
AcDb2dVertex
 10
24.01388166698405
 20
216.9700174828845
 30
0.0
  0
SEQEND
  5
55F
330
55C
100
AcDbEntity
  8
0
  0
POLYLINE
  5
560
330
1F
100
AcDbEntity
  8
0
 62
    29
100
AcDb2dPolyline
 66
     1
 10
0.0
 20
0.0
 30
0.0
  0
VERTEX
  5
561
330
560
100
AcDbEntity
  8
0
 62
    29
100
AcDbVertex
100
AcDb2dVertex
 10
26.76272516806168
 20
215.4705386837316
 30
0.0
  0
VERTEX
  5
562
330
560
100
AcDbEntity
  8
0
 62
    29
100
AcDbVertex
100
AcDb2dVertex
 10
28.07720221761197
 20
216.2294937198106
 30
0.0
  0
SEQEND
  5
563
330
560
100
AcDbEntity
  8
0
  0
POLYLINE
  5
564
330
1F
100
AcDbEntity
  8
0
 62
    29
100
AcDb2dPolyline
 66
     1
 10
0.0
 20
0.0
 30
0.0
  0
VERTEX
  5
565
330
564
100
AcDbEntity
  8
0
 62
    29
100
AcDbVertex
100
AcDb2dVertex
 10
26.76272516806168
 20
215.4705386837316
 30
0.0
  0
VERTEX
  5
566
330
564
100
AcDbEntity
  8
0
 62
    29
100
AcDbVertex
100
AcDb2dVertex
 10
25.4482481185114
 20
216.2294937198106
 30
0.0
  0
SEQEND
  5
567
330
564
100
AcDbEntity
  8
0
  0
POLYLINE
  5
568
330
1F
100
AcDbEntity
  8
0
  6
AI-LINETYPE-2
 62
    29
100
AcDb2dPolyline
 66
     1
 10
0.0
 20
0.0
 30
0.0
  0
VERTEX
  5
569
330
568
100
AcDbEntity
  8
0
  6
AI-LINETYPE-2
 62
    29
100
AcDbVertex
100
AcDb2dVertex
 10
80.73913880070224
 20
123.7468779366565
 30
0.0
  0
VERTEX
  5
56A
330
568
100
AcDbEntity
  8
0
  6
AI-LINETYPE-2
 62
    29
100
AcDbVertex
100
AcDb2dVertex
 10
80.73913880070224
 20
100.9516996015514
 30
0.0
  0
SEQEND
  5
56B
330
568
100
AcDbEntity
  8
0
  6
AI-LINETYPE-2
  0
POLYLINE
  5
56D
330
1F
100
AcDbEntity
  8
0
 62
    29
100
AcDb2dPolyline
 66
     1
 10
0.0
 20
0.0
 30
0.0
  0
VERTEX
  5
56E
330
56D
100
AcDbEntity
  8
0
 62
    29
100
AcDbVertex
100
AcDb2dVertex
 10
81.23902248538248
 20
132.580453097846
 30
0.0
  0
VERTEX
  5
56F
330
56D
100
AcDbEntity
  8
0
 62
    29
100
AcDbVertex
100
AcDb2dVertex
 10
81.23902248538248
 20
127.1940427532729
 30
0.0
  0
SEQEND
  5
570
330
56D
100
AcDbEntity
  8
0
  0
POLYLINE
  5
571
330
1F
100
AcDbEntity
  8
0
 62
    29
100
AcDb2dPolyline
 66
     1
 10
0.0
 20
0.0
 30
0.0
  0
VERTEX
  5
572
330
571
100
AcDbEntity
  8
0
 62
    29
100
AcDbVertex
100
AcDb2dVertex
 10
80.23942737090989
 20
132.580453097846
 30
0.0
  0
VERTEX
  5
573
330
571
100
AcDbEntity
  8
0
 62
    29
100
AcDbVertex
100
AcDb2dVertex
 10
80.23942737090989
 20
127.1940427532729
 30
0.0
  0
SEQEND
  5
574
330
571
100
AcDbEntity
  8
0
  0
SPLINE
  5
575
330
1F
100
AcDbEntity
  8
0
 62
    29
100
AcDbSpline
210
0.0
220
0.0
230
1.0
 70
     8
 71
     3
 72
    11
 73
     7
 74
     0
 42
0.0000000001
 43
0.0000000001
 40
0.0
 40
0.0
 40
0.0
 40
0.0
 40
1.0
 40
1.0
 40
1.0
 40
2.0
 40
2.0
 40
2.0
 40
2.0
 10
80.23942737090989
 20
127.1940427532729
 30
0.0
 10
80.34295255853664
 20
127.0558943331787
 30
0.0
 10
80.53863411118886
 20
127.0279890413392
 30
0.0
 10
80.67661027639522
 20
127.1316864838538
 30
0.0
 10
80.69590282383982
 20
127.1447778553341
 30
0.0
 10
80.72587517433408
 20
127.1747502058283
 30
0.0
 10
80.73913880070224
 20
127.1940427532729
 30
0.0
  0
SPLINE
  5
576
330
1F
100
AcDbEntity
  8
0
 62
    29
100
AcDbSpline
210
0.0
220
0.0
230
1.0
 70
     8
 71
     3
 72
    11
 73
     7
 74
     0
 42
0.0000000001
 43
0.0000000001
 40
0.0
 40
0.0
 40
0.0
 40
0.0
 40
1.0
 40
1.0
 40
1.0
 40
2.0
 40
2.0
 40
2.0
 40
2.0
 10
80.73913880070224
 20
127.1940427532729
 30
0.0
 10
80.84266398832898
 20
127.0558943331787
 30
0.0
 10
81.0385177958691
 20
127.0279890413392
 30
0.0
 10
81.17649396107547
 20
127.1316864838538
 30
0.0
 10
81.19578650852006
 20
127.1447778553341
 30
0.0
 10
81.22558660412642
 20
127.1747502058283
 30
0.0
 10
81.23902248538248
 20
127.1940427532729
 30
0.0
  0
SPLINE
  5
577
330
1F
100
AcDbEntity
  8
0
 62
    29
100
AcDbSpline
210
0.0
220
0.0
230
1.0
 70
     8
 71
     3
 72
    11
 73
     7
 74
     0
 42
0.0000000001
 43
0.0000000001
 40
0.0
 40
0.0
 40
0.0
 40
0.0
 40
1.0
 40
1.0
 40
1.0
 40
2.0
 40
2.0
 40
2.0
 40
2.0
 10
81.23902248538248
 20
127.1940427532729
 30
0.0
 10
81.13549729775572
 20
127.3318466635914
 30
0.0
 10
80.9396434902156
 20
127.3600964652067
 30
0.0
 10
80.80166732500923
 20
127.256399022692
 30
0.0
 10
80.78237477756466
 20
127.2433076512118
 30
0.0
 10
80.75240242707038
 20
127.2133353007175
 30
0.0
 10
80.73913880070224
 20
127.1940427532729
 30
0.0
  0
POLYLINE
  5
578
330
1F
100
AcDbEntity
  8
0
 62
    29
100
AcDb2dPolyline
 66
     1
 10
0.0
 20
0.0
 30
0.0
  0
VERTEX
  5
579
330
578
100
AcDbEntity
  8
0
 62
    29
100
AcDbVertex
100
AcDb2dVertex
 10
37.25821548769196
 20
230.7138904784968
 30
0.0
  0
VERTEX
  5
57A
330
578
100
AcDbEntity
  8
0
 62
    29
100
AcDbVertex
100
AcDb2dVertex
 10
101.2302357552826
 20
230.7138904784968
 30
0.0
  0
SEQEND
  5
57B
330
578
100
AcDbEntity
  8
0
  0
POLYLINE
  5
57C
330
1F
100
AcDbEntity
  8
0
 62
    29
100
AcDb2dPolyline
 66
     1
 10
0.0
 20
0.0
 30
0.0
  0
VERTEX
  5
57D
330
57C
100
AcDbEntity
  8
0
 62
    29
100
AcDbVertex
100
AcDb2dVertex
 10
101.7299471850749
 20
231.2137741631771
 30
0.0
  0
VERTEX
  5
57E
330
57C
100
AcDbEntity
  8
0
 62
    29
100
AcDbVertex
100
AcDb2dVertex
 10
101.7299471850749
 20
240.2097856836545
 30
0.0
  0
SEQEND
  5
57F
330
57C
100
AcDbEntity
  8
0
  0
POLYLINE
  5
580
330
1F
100
AcDbEntity
  8
0
 62
    29
100
AcDb2dPolyline
 66
     1
 10
0.0
 20
0.0
 30
0.0
  0
VERTEX
  5
581
330
580
100
AcDbEntity
  8
0
 62
    29
100
AcDbVertex
100
AcDb2dVertex
 10
101.2302357552826
 20
240.7096693683348
 30
0.0
  0
VERTEX
  5
582
330
580
100
AcDbEntity
  8
0
 62
    29
100
AcDbVertex
100
AcDb2dVertex
 10
37.25821548769196
 20
240.7096693683348
 30
0.0
  0
SEQEND
  5
583
330
580
100
AcDbEntity
  8
0
  0
SPLINE
  5
584
330
1F
100
AcDbEntity
  8
0
 62
    29
100
AcDbSpline
210
0.0
220
0.0
230
1.0
 70
     8
 71
     3
 72
    11
 73
     7
 74
     0
 42
0.0000000001
 43
0.0000000001
 40
0.0
 40
0.0
 40
0.0
 40
0.0
 40
1.0
 40
1.0
 40
1.0
 40
2.0
 40
2.0
 40
2.0
 40
2.0
 10
101.2302357552826
 20
230.7138904784968
 30
0.0
 10
101.5061880856953
 20
230.7138904784968
 30
0.0
 10
101.7299471850749
 20
230.9376495778764
 30
0.0
 10
101.7299471850749
 20
231.2137741631771
 30
0.0
 10
101.7299471850749
 20
231.2137741631771
 30
0.0
 10
101.7299471850749
 20
231.2137741631771
 30
0.0
 10
101.7299471850749
 20
231.2137741631771
 30
0.0
  0
SPLINE
  5
585
330
1F
100
AcDbEntity
  8
0
 62
    29
100
AcDbSpline
210
0.0
220
0.0
230
1.0
 70
     8
 71
     3
 72
    11
 73
     7
 74
     0
 42
0.0000000001
 43
0.0000000001
 40
0.0
 40
0.0
 40
0.0
 40
0.0
 40
1.0
 40
1.0
 40
1.0
 40
2.0
 40
2.0
 40
2.0
 40
2.0
 10
101.7299471850749
 20
240.2097856836545
 30
0.0
 10
101.7299471850749
 20
240.4857380140673
 30
0.0
 10
101.5061880856953
 20
240.7096693683348
 30
0.0
 10
101.2302357552826
 20
240.7096693683348
 30
0.0
 10
101.2302357552826
 20
240.7096693683348
 30
0.0
 10
101.2302357552826
 20
240.7096693683348
 30
0.0
 10
101.2302357552826
 20
240.7096693683348
 30
0.0
  0
MTEXT
  5
586
330
1F
100
AcDbEntity
  8
0
 62
    29
100
AcDbMText
 10
38.09726904664353
 20
237.8068299974763
 30
0.0
 40
1.74923577028025
 41
0.0
 71
     7
 72
     1
  1
\fKozuka Gothic Pro R|b0|i0|c0|p34;\W0.749506;MODEL
  0
MTEXT
  5
587
330
1F
100
AcDbEntity
  8
0
 62
    29
100
AcDbMText
 10
78.24023714196473
 20
237.0847375074075
 30
0.0
 40
1.74923577028025
 41
0.0
 71
     7
 72
     1
  1
\fKozuka Gothic Pro R|b0|i0|c0|p34;\W0.714286;DATE
  0
POLYLINE
  5
588
330
1F
100
AcDbEntity
  8
0
 62
    29
100
AcDb2dPolyline
 66
     1
 10
0.0
 20
0.0
 30
0.0
  0
VERTEX
  5
589
330
588
100
AcDbEntity
  8
0
 62
    29
100
AcDbVertex
100
AcDb2dVertex
 10
100.23064064081
 20
239.4601324115221
 30
0.0
  0
VERTEX
  5
58A
330
588
100
AcDbEntity
  8
0
 62
    29
100
AcDbVertex
100
AcDb2dVertex
 10
100.23064064081
 20
236.4615193229922
 30
0.0
  0
SEQEND
  5
58B
330
588
100
AcDbEntity
  8
0
  0
POLYLINE
  5
58C
330
1F
100
AcDbEntity
  8
0
 62
    29
100
AcDb2dPolyline
 66
     1
 10
0.0
 20
0.0
 30
0.0
  0
VERTEX
  5
58D
330
58C
100
AcDbEntity
  8
0
 62
    29
100
AcDbVertex
100
AcDb2dVertex
 10
100.23064064081
 20
236.4615193229922
 30
0.0
  0
VERTEX
  5
58E
330
58C
100
AcDbEntity
  8
0
 62
    29
100
AcDbVertex
100
AcDb2dVertex
 10
83.73792414411999
 20
236.4615193229922
 30
0.0
  0
SEQEND
  5
58F
330
58C
100
AcDbEntity
  8
0
  0
POLYLINE
  5
590
330
1F
100
AcDbEntity
  8
0
 62
    29
100
AcDb2dPolyline
 66
     1
 10
0.0
 20
0.0
 30
0.0
  0
VERTEX
  5
591
330
590
100
AcDbEntity
  8
0
 62
    29
100
AcDbVertex
100
AcDb2dVertex
 10
100.23064064081
 20
239.4601324115221
 30
0.0
  0
VERTEX
  5
592
330
590
100
AcDbEntity
  8
0
 62
    29
100
AcDbVertex
100
AcDb2dVertex
 10
83.73792414411999
 20
239.4601324115221
 30
0.0
  0
SEQEND
  5
593
330
590
100
AcDbEntity
  8
0
  0
POLYLINE
  5
594
330
1F
100
AcDbEntity
  8
0
 62
    29
100
AcDb2dPolyline
 66
     1
 10
0.0
 20
0.0
 30
0.0
  0
VERTEX
  5
595
330
594
100
AcDbEntity
  8
0
 62
    29
100
AcDbVertex
100
AcDb2dVertex
 10
83.73792414411999
 20
239.4601324115221
 30
0.0
  0
VERTEX
  5
596
330
594
100
AcDbEntity
  8
0
 62
    29
100
AcDbVertex
100
AcDb2dVertex
 10
83.73792414411999
 20
236.4615193229922
 30
0.0
  0
SEQEND
  5
597
330
594
100
AcDbEntity
  8
0
  0
MTEXT
  5
598
330
1F
100
AcDbEntity
  8
0
 62
    29
100
AcDbMText
 10
41.24126526055937
 20
233.7126758219146
 30
0.0
 40
1.599301341049378
 41
0.0
 71
     7
 72
     1
  1
\fKozuka Gothic Pro R|b0|i0|c0|p34;\W0.5625;MITSUBISHI ELECTRIC ENGINEERING CO.,LTD.
  0
POLYLINE
  5
599
330
1F
100
AcDbEntity
  8
0
 62
    29
100
AcDb2dPolyline
 66
     1
 10
0.0
 20
0.0
 30
0.0
  0
VERTEX
  5
59A
330
599
100
AcDbEntity
  8
0
 62
    29
100
AcDbVertex
100
AcDb2dVertex
 10
38.69912762495944
 20
234.4773152692942
 30
0.0
  0
VERTEX
  5
59B
330
599
100
AcDbEntity
  8
0
 62
    29
100
AcDbVertex
100
AcDb2dVertex
 10
40.43115052277468
 20
234.4773152692942
 30
0.0
  0
SEQEND
  5
59C
330
599
100
AcDbEntity
  8
0
  0
POLYLINE
  5
59D
330
1F
100
AcDbEntity
  8
0
 62
    29
100
AcDb2dPolyline
 66
     1
 10
0.0
 20
0.0
 30
0.0
  0
VERTEX
  5
59E
330
59D
100
AcDbEntity
  8
0
 62
    29
100
AcDbVertex
100
AcDb2dVertex
 10
39.14526778461548
 20
233.7126758219146
 30
0.0
  0
VERTEX
  5
59F
330
59D
100
AcDbEntity
  8
0
 62
    29
100
AcDbVertex
100
AcDb2dVertex
 10
39.58675706229827
 20
234.4773152692942
 30
0.0
  0
SEQEND
  5
5A0
330
59D
100
AcDbEntity
  8
0
  0
POLYLINE
  5
5A1
330
1F
100
AcDbEntity
  8
0
 62
    29
100
AcDb2dPolyline
 66
     1
 10
0.0
 20
0.0
 30
0.0
  0
VERTEX
  5
5A2
330
5A1
100
AcDbEntity
  8
0
 62
    29
100
AcDbVertex
100
AcDb2dVertex
 10
38.25763834727665
 20
233.7126758219146
 30
0.0
  0
VERTEX
  5
5A3
330
5A1
100
AcDbEntity
  8
0
 62
    29
100
AcDbVertex
100
AcDb2dVertex
 10
38.69912762495944
 20
234.4773152692942
 30
0.0
  0
SEQEND
  5
5A4
330
5A1
100
AcDbEntity
  8
0
  0
POLYLINE
  5
5A5
330
1F
100
AcDbEntity
  8
0
 62
    29
100
AcDb2dPolyline
 66
     1
 10
0.0
 20
0.0
 30
0.0
  0
VERTEX
  5
5A6
330
5A5
100
AcDbEntity
  8
0
 62
    29
100
AcDbVertex
100
AcDb2dVertex
 10
39.56522520131101
 20
235.961635638312
 30
0.0
  0
VERTEX
  5
5A7
330
5A5
100
AcDbEntity
  8
0
 62
    29
100
AcDbVertex
100
AcDb2dVertex
 10
39.14750709815816
 20
235.23816510914
 30
0.0
  0
SEQEND
  5
5A8
330
5A5
100
AcDbEntity
  8
0
  0
POLYLINE
  5
5A9
330
1F
100
AcDbEntity
  8
0
 62
    29
100
AcDb2dPolyline
 66
     1
 10
0.0
 20
0.0
 30
0.0
  0
VERTEX
  5
5AA
330
5A9
100
AcDbEntity
  8
0
 62
    29
100
AcDbVertex
100
AcDb2dVertex
 10
39.58675706229827
 20
234.4773152692942
 30
0.0
  0
VERTEX
  5
5AB
330
5A9
100
AcDbEntity
  8
0
 62
    29
100
AcDbVertex
100
AcDb2dVertex
 10
39.14750709815816
 20
235.23816510914
 30
0.0
  0
SEQEND
  5
5AC
330
5A9
100
AcDbEntity
  8
0
  0
POLYLINE
  5
5AD
330
1F
100
AcDbEntity
  8
0
 62
    29
100
AcDb2dPolyline
 66
     1
 10
0.0
 20
0.0
 30
0.0
  0
VERTEX
  5
5AE
330
5AD
100
AcDbEntity
  8
0
 62
    29
100
AcDbVertex
100
AcDb2dVertex
 10
39.98501036311864
 20
233.7126758219146
 30
0.0
  0
VERTEX
  5
5AF
330
5AD
100
AcDbEntity
  8
0
 62
    29
100
AcDbVertex
100
AcDb2dVertex
 10
39.54352108543586
 20
234.4773152692942
 30
0.0
  0
SEQEND
  5
5B0
330
5AD
100
AcDbEntity
  8
0
  0
POLYLINE
  5
5B1
330
1F
100
AcDbEntity
  8
0
 62
    29
100
AcDb2dPolyline
 66
     1
 10
0.0
 20
0.0
 30
0.0
  0
VERTEX
  5
5B2
330
5B1
100
AcDbEntity
  8
0
 62
    29
100
AcDbVertex
100
AcDb2dVertex
 10
40.87263980045747
 20
233.7126758219146
 30
0.0
  0
VERTEX
  5
5B3
330
5B1
100
AcDbEntity
  8
0
 62
    29
100
AcDbVertex
100
AcDb2dVertex
 10
40.43115052277468
 20
234.4773152692942
 30
0.0
  0
SEQEND
  5
5B4
330
5B1
100
AcDbEntity
  8
0
  0
POLYLINE
  5
5B5
330
1F
100
AcDbEntity
  8
0
 62
    29
100
AcDb2dPolyline
 66
     1
 10
0.0
 20
0.0
 30
0.0
  0
VERTEX
  5
5B6
330
5B5
100
AcDbEntity
  8
0
 62
    29
100
AcDbVertex
100
AcDb2dVertex
 10
38.25763834727665
 20
233.7126758219146
 30
0.0
  0
VERTEX
  5
5B7
330
5B5
100
AcDbEntity
  8
0
 62
    29
100
AcDbVertex
100
AcDb2dVertex
 10
39.14526778461548
 20
233.7126758219146
 30
0.0
  0
SEQEND
  5
5B8
330
5B5
100
AcDbEntity
  8
0
  0
POLYLINE
  5
5B9
330
1F
100
AcDbEntity
  8
0
 62
    29
100
AcDb2dPolyline
 66
     1
 10
0.0
 20
0.0
 30
0.0
  0
VERTEX
  5
5BA
330
5B9
100
AcDbEntity
  8
0
 62
    29
100
AcDbVertex
100
AcDb2dVertex
 10
39.98501036311864
 20
233.7126758219146
 30
0.0
  0
VERTEX
  5
5BB
330
5B9
100
AcDbEntity
  8
0
 62
    29
100
AcDbVertex
100
AcDb2dVertex
 10
40.87263980045747
 20
233.7126758219146
 30
0.0
  0
SEQEND
  5
5BC
330
5B9
100
AcDbEntity
  8
0
  0
POLYLINE
  5
5BD
330
1F
100
AcDbEntity
  8
0
 62
    29
100
AcDb2dPolyline
 66
     1
 10
0.0
 20
0.0
 30
0.0
  0
VERTEX
  5
5BE
330
5BD
100
AcDbEntity
  8
0
 62
    29
100
AcDbVertex
100
AcDb2dVertex
 10
39.56522520131101
 20
235.961635638312
 30
0.0
  0
VERTEX
  5
5BF
330
5BD
100
AcDbEntity
  8
0
 62
    29
100
AcDbVertex
100
AcDb2dVertex
 10
39.98277104957597
 20
235.23816510914
 30
0.0
  0
SEQEND
  5
5C0
330
5BD
100
AcDbEntity
  8
0
  0
POLYLINE
  5
5C1
330
1F
100
AcDbEntity
  8
0
 62
    29
100
AcDb2dPolyline
 66
     1
 10
0.0
 20
0.0
 30
0.0
  0
VERTEX
  5
5C2
330
5C1
100
AcDbEntity
  8
0
 62
    29
100
AcDbVertex
100
AcDb2dVertex
 10
39.54352108543586
 20
234.4773152692942
 30
0.0
  0
VERTEX
  5
5C3
330
5C1
100
AcDbEntity
  8
0
 62
    29
100
AcDbVertex
100
AcDb2dVertex
 10
39.98277104957597
 20
235.23816510914
 30
0.0
  0
SEQEND
  5
5C4
330
5C1
100
AcDbEntity
  8
0
  0
POLYLINE
  5
5C5
330
1F
100
AcDbEntity
  8
0
 62
    29
100
AcDb2dPolyline
 66
     1
 10
0.0
 20
0.0
 30
0.0
  0
VERTEX
  5
5C6
330
5C5
100
AcDbEntity
  8
0
 62
    29
100
AcDbVertex
100
AcDb2dVertex
 10
40.87263980045747
 20
233.7126758219146
 30
0.0
  0
VERTEX
  5
5C7
330
5C5
100
AcDbEntity
  8
0
 62
    29
100
AcDbVertex
100
AcDb2dVertex
 10
40.10782809818998
 20
234.4773152692942
 30
0.0
  0
SEQEND
  5
5C8
330
5C5
100
AcDbEntity
  8
0
  0
POLYLINE
  5
5C9
330
1F
100
AcDbEntity
  8
0
 62
    29
100
AcDb2dPolyline
 66
     1
 10
0.0
 20
0.0
 30
0.0
  0
VERTEX
  5
5CA
330
5C9
100
AcDbEntity
  8
0
 62
    29
100
AcDbVertex
100
AcDb2dVertex
 10
39.75005469602566
 20
234.8350886714585
 30
0.0
  0
VERTEX
  5
5CB
330
5C9
100
AcDbEntity
  8
0
 62
    29
100
AcDbVertex
100
AcDb2dVertex
 10
39.22054317062695
 20
235.3647724517451
 30
0.0
  0
SEQEND
  5
5CC
330
5C9
100
AcDbEntity
  8
0
  0
POLYLINE
  5
5CD
330
1F
100
AcDbEntity
  8
0
 62
    29
100
AcDb2dPolyline
 66
     1
 10
0.0
 20
0.0
 30
0.0
  0
VERTEX
  5
5CE
330
5CD
100
AcDbEntity
  8
0
 62
    29
100
AcDbVertex
100
AcDb2dVertex
 10
40.70296873587786
 20
233.7126758219146
 30
0.0
  0
VERTEX
  5
5CF
330
5CD
100
AcDbEntity
  8
0
 62
    29
100
AcDbVertex
100
AcDb2dVertex
 10
39.93832928849826
 20
234.4773152692942
 30
0.0
  0
SEQEND
  5
5D0
330
5CD
100
AcDbEntity
  8
0
  0
POLYLINE
  5
5D1
330
1F
100
AcDbEntity
  8
0
 62
    29
100
AcDb2dPolyline
 66
     1
 10
0.0
 20
0.0
 30
0.0
  0
VERTEX
  5
5D2
330
5D1
100
AcDbEntity
  8
0
 62
    29
100
AcDbVertex
100
AcDb2dVertex
 10
39.68804293638235
 20
234.7276016214101
 30
0.0
  0
VERTEX
  5
5D3
330
5D1
100
AcDbEntity
  8
0
 62
    29
100
AcDbVertex
100
AcDb2dVertex
 10
39.15835915609573
 20
235.2571131468088
 30
0.0
  0
SEQEND
  5
5D4
330
5D1
100
AcDbEntity
  8
0
  0
POLYLINE
  5
5D5
330
1F
100
AcDbEntity
  8
0
 62
    29
100
AcDb2dPolyline
 66
     1
 10
0.0
 20
0.0
 30
0.0
  0
VERTEX
  5
5D6
330
5D5
100
AcDbEntity
  8
0
 62
    29
100
AcDbVertex
100
AcDb2dVertex
 10
40.53329767129824
 20
233.7126758219146
 30
0.0
  0
VERTEX
  5
5D7
330
5D5
100
AcDbEntity
  8
0
 62
    29
100
AcDbVertex
100
AcDb2dVertex
 10
39.76865822391865
 20
234.4773152692942
 30
0.0
  0
SEQEND
  5
5D8
330
5D5
100
AcDbEntity
  8
0
  0
POLYLINE
  5
5D9
330
1F
100
AcDbEntity
  8
0
 62
    29
100
AcDb2dPolyline
 66
     1
 10
0.0
 20
0.0
 30
0.0
  0
VERTEX
  5
5DA
330
5D9
100
AcDbEntity
  8
0
 62
    29
100
AcDbVertex
100
AcDb2dVertex
 10
39.62585892185114
 20
234.6201145713617
 30
0.0
  0
VERTEX
  5
5DB
330
5D9
100
AcDbEntity
  8
0
 62
    29
100
AcDbVertex
100
AcDb2dVertex
 10
39.33836551394923
 20
234.9074357243757
 30
0.0
  0
SEQEND
  5
5DC
330
5D9
100
AcDbEntity
  8
0
  0
POLYLINE
  5
5DD
330
1F
100
AcDbEntity
  8
0
 62
    29
100
AcDb2dPolyline
 66
     1
 10
0.0
 20
0.0
 30
0.0
  0
VERTEX
  5
5DE
330
5DD
100
AcDbEntity
  8
0
 62
    29
100
AcDbVertex
100
AcDb2dVertex
 10
40.36362660671863
 20
233.7126758219146
 30
0.0
  0
VERTEX
  5
5DF
330
5DD
100
AcDbEntity
  8
0
 62
    29
100
AcDbVertex
100
AcDb2dVertex
 10
39.59898715933904
 20
234.4773152692942
 30
0.0
  0
SEQEND
  5
5E0
330
5DD
100
AcDbEntity
  8
0
  0
POLYLINE
  5
5E1
330
1F
100
AcDbEntity
  8
0
 62
    29
100
AcDb2dPolyline
 66
     1
 10
0.0
 20
0.0
 30
0.0
  0
VERTEX
  5
5E2
330
5E1
100
AcDbEntity
  8
0
 62
    29
100
AcDbVertex
100
AcDb2dVertex
 10
40.19412779702692
 20
233.7126758219146
 30
0.0
  0
VERTEX
  5
5E3
330
5E1
100
AcDbEntity
  8
0
 62
    29
100
AcDbVertex
100
AcDb2dVertex
 10
39.69941175898362
 20
234.2073918599579
 30
0.0
  0
SEQEND
  5
5E4
330
5E1
100
AcDbEntity
  8
0
  0
POLYLINE
  5
5E5
330
1F
100
AcDbEntity
  8
0
 62
    29
100
AcDb2dPolyline
 66
     1
 10
0.0
 20
0.0
 30
0.0
  0
VERTEX
  5
5E6
330
5E5
100
AcDbEntity
  8
0
 62
    29
100
AcDbVertex
100
AcDb2dVertex
 10
39.52922392974031
 20
234.3775796892012
 30
0.0
  0
VERTEX
  5
5E7
330
5E5
100
AcDbEntity
  8
0
 62
    29
100
AcDbVertex
100
AcDb2dVertex
 10
39.42931609475942
 20
234.4773152692942
 30
0.0
  0
SEQEND
  5
5E8
330
5E5
100
AcDbEntity
  8
0
  0
POLYLINE
  5
5E9
330
1F
100
AcDbEntity
  8
0
 62
    29
100
AcDb2dPolyline
 66
     1
 10
0.0
 20
0.0
 30
0.0
  0
VERTEX
  5
5EA
330
5E9
100
AcDbEntity
  8
0
 62
    29
100
AcDbVertex
100
AcDb2dVertex
 10
40.02445673244731
 20
233.7126758219146
 30
0.0
  0
VERTEX
  5
5EB
330
5E9
100
AcDbEntity
  8
0
 62
    29
100
AcDbVertex
100
AcDb2dVertex
 10
39.93109458320654
 20
233.8060379711553
 30
0.0
  0
SEQEND
  5
5EC
330
5E9
100
AcDbEntity
  8
0
  0
POLYLINE
  5
5ED
330
1F
100
AcDbEntity
  8
0
 62
    29
100
AcDb2dPolyline
 66
     1
 10
0.0
 20
0.0
 30
0.0
  0
VERTEX
  5
5EE
330
5ED
100
AcDbEntity
  8
0
 62
    29
100
AcDbVertex
100
AcDb2dVertex
 10
39.46703991520911
 20
234.2699203842649
 30
0.0
  0
VERTEX
  5
5EF
330
5ED
100
AcDbEntity
  8
0
 62
    29
100
AcDbVertex
100
AcDb2dVertex
 10
39.2598172850677
 20
234.4773152692942
 30
0.0
  0
SEQEND
  5
5F0
330
5ED
100
AcDbEntity
  8
0
  0
POLYLINE
  5
5F1
330
1F
100
AcDbEntity
  8
0
 62
    29
100
AcDb2dPolyline
 66
     1
 10
0.0
 20
0.0
 30
0.0
  0
VERTEX
  5
5F2
330
5F1
100
AcDbEntity
  8
0
 62
    29
100
AcDbVertex
100
AcDb2dVertex
 10
39.40502815556579
 20
234.1624333342165
 30
0.0
  0
VERTEX
  5
5F3
330
5F1
100
AcDbEntity
  8
0
 62
    29
100
AcDbVertex
100
AcDb2dVertex
 10
39.09014622048809
 20
234.4773152692942
 30
0.0
  0
SEQEND
  5
5F4
330
5F1
100
AcDbEntity
  8
0
  0
POLYLINE
  5
5F5
330
1F
100
AcDbEntity
  8
0
 62
    29
100
AcDb2dPolyline
 66
     1
 10
0.0
 20
0.0
 30
0.0
  0
VERTEX
  5
5F6
330
5F5
100
AcDbEntity
  8
0
 62
    29
100
AcDbVertex
100
AcDb2dVertex
 10
39.34284414103458
 20
234.0547740292802
 30
0.0
  0
VERTEX
  5
5F7
330
5F5
100
AcDbEntity
  8
0
 62
    29
100
AcDbVertex
100
AcDb2dVertex
 10
38.92047515590848
 20
234.4773152692942
 30
0.0
  0
SEQEND
  5
5F8
330
5F5
100
AcDbEntity
  8
0
  0
POLYLINE
  5
5F9
330
1F
100
AcDbEntity
  8
0
 62
    29
100
AcDb2dPolyline
 66
     1
 10
0.0
 20
0.0
 30
0.0
  0
VERTEX
  5
5FA
330
5F9
100
AcDbEntity
  8
0
 62
    29
100
AcDbVertex
100
AcDb2dVertex
 10
39.28083238139127
 20
233.9472869792318
 30
0.0
  0
VERTEX
  5
5FB
330
5F9
100
AcDbEntity
  8
0
 62
    29
100
AcDbVertex
100
AcDb2dVertex
 10
38.75080409132887
 20
234.4773152692942
 30
0.0
  0
SEQEND
  5
5FC
330
5F9
100
AcDbEntity
  8
0
  0
POLYLINE
  5
5FD
330
1F
100
AcDbEntity
  8
0
 62
    29
100
AcDb2dPolyline
 66
     1
 10
0.0
 20
0.0
 30
0.0
  0
VERTEX
  5
5FE
330
5FD
100
AcDbEntity
  8
0
 62
    29
100
AcDbVertex
100
AcDb2dVertex
 10
39.21882062174797
 20
233.8397999291834
 30
0.0
  0
VERTEX
  5
5FF
330
5FD
100
AcDbEntity
  8
0
 62
    29
100
AcDbVertex
100
AcDb2dVertex
 10
38.65606390298492
 20
234.4025566479464
 30
0.0
  0
SEQEND
  5
600
330
5FD
100
AcDbEntity
  8
0
  0
POLYLINE
  5
601
330
1F
100
AcDbEntity
  8
0
 62
    29
100
AcDb2dPolyline
 66
     1
 10
0.0
 20
0.0
 30
0.0
  0
VERTEX
  5
602
330
601
100
AcDbEntity
  8
0
 62
    29
100
AcDbVertex
100
AcDb2dVertex
 10
39.15663660721675
 20
233.732312879135
 30
0.0
  0
VERTEX
  5
603
330
601
100
AcDbEntity
  8
0
 62
    29
100
AcDbVertex
100
AcDb2dVertex
 10
38.59387988845371
 20
234.2948973430101
 30
0.0
  0
SEQEND
  5
604
330
601
100
AcDbEntity
  8
0
  0
POLYLINE
  5
605
330
1F
100
AcDbEntity
  8
0
 62
    29
100
AcDb2dPolyline
 66
     1
 10
0.0
 20
0.0
 30
0.0
  0
VERTEX
  5
606
330
605
100
AcDbEntity
  8
0
 62
    29
100
AcDbVertex
100
AcDb2dVertex
 10
39.00660259985752
 20
233.7126758219146
 30
0.0
  0
VERTEX
  5
607
330
605
100
AcDbEntity
  8
0
 62
    29
100
AcDbVertex
100
AcDb2dVertex
 10
38.5318681288104
 20
234.1874102929617
 30
0.0
  0
SEQEND
  5
608
330
605
100
AcDbEntity
  8
0
  0
POLYLINE
  5
609
330
1F
100
AcDbEntity
  8
0
 62
    29
100
AcDb2dPolyline
 66
     1
 10
0.0
 20
0.0
 30
0.0
  0
VERTEX
  5
60A
330
609
100
AcDbEntity
  8
0
 62
    29
100
AcDbVertex
100
AcDb2dVertex
 10
38.83693153527791
 20
233.7126758219146
 30
0.0
  0
VERTEX
  5
60B
330
609
100
AcDbEntity
  8
0
 62
    29
100
AcDbVertex
100
AcDb2dVertex
 10
38.4696841142792
 20
234.0799232429133
 30
0.0
  0
SEQEND
  5
60C
330
609
100
AcDbEntity
  8
0
  0
POLYLINE
  5
60D
330
1F
100
AcDbEntity
  8
0
 62
    29
100
AcDb2dPolyline
 66
     1
 10
0.0
 20
0.0
 30
0.0
  0
VERTEX
  5
60E
330
60D
100
AcDbEntity
  8
0
 62
    29
100
AcDbVertex
100
AcDb2dVertex
 10
38.6674327255862
 20
233.7126758219146
 30
0.0
  0
VERTEX
  5
60F
330
60D
100
AcDbEntity
  8
0
 62
    29
100
AcDbVertex
100
AcDb2dVertex
 10
38.40767235463588
 20
233.972263937977
 30
0.0
  0
SEQEND
  5
610
330
60D
100
AcDbEntity
  8
0
  0
POLYLINE
  5
611
330
1F
100
AcDbEntity
  8
0
 62
    29
100
AcDb2dPolyline
 66
     1
 10
0.0
 20
0.0
 30
0.0
  0
VERTEX
  5
612
330
611
100
AcDbEntity
  8
0
 62
    29
100
AcDbVertex
100
AcDb2dVertex
 10
38.49776166100659
 20
233.7126758219146
 30
0.0
  0
VERTEX
  5
613
330
611
100
AcDbEntity
  8
0
 62
    29
100
AcDbVertex
100
AcDb2dVertex
 10
38.34548834010467
 20
233.8647768879286
 30
0.0
  0
SEQEND
  5
614
330
611
100
AcDbEntity
  8
0
  0
POLYLINE
  5
615
330
1F
100
AcDbEntity
  8
0
 62
    29
100
AcDb2dPolyline
 66
     1
 10
0.0
 20
0.0
 30
0.0
  0
VERTEX
  5
616
330
615
100
AcDbEntity
  8
0
 62
    29
100
AcDbVertex
100
AcDb2dVertex
 10
38.32809059642697
 20
233.7126758219146
 30
0.0
  0
VERTEX
  5
617
330
615
100
AcDbEntity
  8
0
 62
    29
100
AcDbVertex
100
AcDb2dVertex
 10
38.28347658046137
 20
233.7572898378802
 30
0.0
  0
SEQEND
  5
618
330
615
100
AcDbEntity
  8
0
  0
POLYLINE
  5
619
330
1F
100
AcDbEntity
  8
0
 62
    29
100
AcDb2dPolyline
 66
     1
 10
0.0
 20
0.0
 30
0.0
  0
VERTEX
  5
61A
330
619
100
AcDbEntity
  8
0
 62
    29
100
AcDbVertex
100
AcDb2dVertex
 10
40.64078472134665
 20
234.1140297107171
 30
0.0
  0
VERTEX
  5
61B
330
619
100
AcDbEntity
  8
0
 62
    29
100
AcDbVertex
100
AcDb2dVertex
 10
40.27749916276959
 20
234.4773152692942
 30
0.0
  0
SEQEND
  5
61C
330
619
100
AcDbEntity
  8
0
  0
POLYLINE
  5
61D
330
1F
100
AcDbEntity
  8
0
 62
    29
100
AcDb2dPolyline
 66
     1
 10
0.0
 20
0.0
 30
0.0
  0
VERTEX
  5
61E
330
61D
100
AcDbEntity
  8
0
 62
    29
100
AcDbVertex
100
AcDb2dVertex
 10
39.81223871055686
 20
234.9425757215069
 30
0.0
  0
VERTEX
  5
61F
330
61D
100
AcDbEntity
  8
0
 62
    29
100
AcDbVertex
100
AcDb2dVertex
 10
39.28255493027025
 20
235.4722595017935
 30
0.0
  0
SEQEND
  5
620
330
61D
100
AcDbEntity
  8
0
  0
POLYLINE
  5
621
330
1F
100
AcDbEntity
  8
0
 62
    29
100
AcDb2dPolyline
 66
     1
 10
0.0
 20
0.0
 30
0.0
  0
VERTEX
  5
622
330
621
100
AcDbEntity
  8
0
 62
    29
100
AcDbVertex
100
AcDb2dVertex
 10
39.87425047020017
 20
235.0502350264432
 30
0.0
  0
VERTEX
  5
623
330
621
100
AcDbEntity
  8
0
 62
    29
100
AcDbVertex
100
AcDb2dVertex
 10
39.34473894480146
 20
235.5797465518419
 30
0.0
  0
SEQEND
  5
624
330
621
100
AcDbEntity
  8
0
  0
POLYLINE
  5
625
330
1F
100
AcDbEntity
  8
0
 62
    29
100
AcDb2dPolyline
 66
     1
 10
0.0
 20
0.0
 30
0.0
  0
VERTEX
  5
626
330
625
100
AcDbEntity
  8
0
 62
    29
100
AcDbVertex
100
AcDb2dVertex
 10
39.93643448473139
 20
235.1577220764916
 30
0.0
  0
VERTEX
  5
627
330
625
100
AcDbEntity
  8
0
 62
    29
100
AcDbVertex
100
AcDb2dVertex
 10
39.40675070444478
 20
235.6874058567782
 30
0.0
  0
SEQEND
  5
628
330
625
100
AcDbEntity
  8
0
  0
POLYLINE
  5
629
330
1F
100
AcDbEntity
  8
0
 62
    29
100
AcDb2dPolyline
 66
     1
 10
0.0
 20
0.0
 30
0.0
  0
VERTEX
  5
62A
330
629
100
AcDbEntity
  8
0
 62
    29
100
AcDbVertex
100
AcDb2dVertex
 10
39.92454889746642
 20
235.3392787283362
 30
0.0
  0
VERTEX
  5
62B
330
629
100
AcDbEntity
  8
0
 62
    29
100
AcDbVertex
100
AcDb2dVertex
 10
39.46893471897598
 20
235.7948929068266
 30
0.0
  0
SEQEND
  5
62C
330
629
100
AcDbEntity
  8
0
  0
POLYLINE
  5
62D
330
1F
100
AcDbEntity
  8
0
 62
    29
100
AcDb2dPolyline
 66
     1
 10
0.0
 20
0.0
 30
0.0
  0
VERTEX
  5
62E
330
62D
100
AcDbEntity
  8
0
 62
    29
100
AcDbVertex
100
AcDb2dVertex
 10
39.69286607324349
 20
235.7406326171387
 30
0.0
  0
VERTEX
  5
62F
330
62D
100
AcDbEntity
  8
0
 62
    29
100
AcDbVertex
100
AcDb2dVertex
 10
39.53094647861929
 20
235.902379956875
 30
0.0
  0
SEQEND
  5
630
330
62D
100
AcDbEntity
  8
0
  0
MTEXT
  5
631
330
1F
100
AcDbEntity
  8
0
 62
    29
100
AcDbMText
 10
63.70674774022754
 20
231.7134855929694
 30
0.0
 40
1.499344978636789
 41
0.0
 71
     7
 72
     1
  1
\fKozuka Gothic Pro R|b0|i0|c0|p34;\W0.666667;MADE IN JAPAN
  0
POLYLINE
  5
632
330
1F
100
AcDbEntity
  8
0
 62
    29
100
AcDb2dPolyline
 66
     1
 10
0.0
 20
0.0
 30
0.0
  0
VERTEX
  5
633
330
632
100
AcDbEntity
  8
0
 62
    29
100
AcDbVertex
100
AcDb2dVertex
 10
36.75833180301173
 20
240.2097856836545
 30
0.0
  0
VERTEX
  5
634
330
632
100
AcDbEntity
  8
0
 62
    29
100
AcDbVertex
100
AcDb2dVertex
 10
36.75833180301173
 20
231.2137741631771
 30
0.0
  0
SEQEND
  5
635
330
632
100
AcDbEntity
  8
0
  0
SPLINE
  5
636
330
1F
100
AcDbEntity
  8
0
 62
    29
100
AcDbSpline
210
0.0
220
0.0
230
1.0
 70
     8
 71
     3
 72
    11
 73
     7
 74
     0
 42
0.0000000001
 43
0.0000000001
 40
0.0
 40
0.0
 40
0.0
 40
0.0
 40
1.0
 40
1.0
 40
1.0
 40
2.0
 40
2.0
 40
2.0
 40
2.0
 10
37.25821548769196
 20
240.7096693683348
 30
0.0
 10
36.98209090239133
 20
240.7096693683348
 30
0.0
 10
36.75833180301173
 20
240.4857380140673
 30
0.0
 10
36.75833180301173
 20
240.2097856836545
 30
0.0
 10
36.75833180301173
 20
240.2097856836545
 30
0.0
 10
36.75833180301173
 20
240.2097856836545
 30
0.0
 10
36.75833180301173
 20
240.2097856836545
 30
0.0
  0
SPLINE
  5
637
330
1F
100
AcDbEntity
  8
0
 62
    29
100
AcDbSpline
210
0.0
220
0.0
230
1.0
 70
     8
 71
     3
 72
    11
 73
     7
 74
     0
 42
0.0000000001
 43
0.0000000001
 40
0.0
 40
0.0
 40
0.0
 40
0.0
 40
1.0
 40
1.0
 40
1.0
 40
2.0
 40
2.0
 40
2.0
 40
2.0
 10
36.75833180301173
 20
231.2137741631771
 30
0.0
 10
36.75833180301173
 20
230.9376495778764
 30
0.0
 10
36.98209090239133
 20
230.7138904784968
 30
0.0
 10
37.25821548769196
 20
230.7138904784968
 30
0.0
 10
37.25821548769196
 20
230.7138904784968
 30
0.0
 10
37.25821548769196
 20
230.7138904784968
 30
0.0
 10
37.25821548769196
 20
230.7138904784968
 30
0.0
  0
MTEXT
  5
638
330
1F
100
AcDbEntity
  8
0
 62
    29
100
AcDbMText
 10
78.74012082664497
 20
233.0377811711299
 30
0.0
 40
1.499344978636789
 41
0.0
 71
     7
 72
     1
  1
\fKozuka Gothic Pro R|b0|i0|c0|p34;\W0.666667;PASSED
  0
SPLINE
  5
639
330
1F
100
AcDbEntity
  8
0
 62
    29
100
AcDbSpline
210
0.0
220
0.0
230
1.0
 70
    11
 71
     3
 72
    20
 73
    16
 74
     0
 42
0.0000000001
 43
0.0000000001
 40
0.0
 40
0.0
 40
0.0
 40
0.0
 40
1.0
 40
1.0
 40
1.0
 40
2.0
 40
2.0
 40
2.0
 40
3.0
 40
3.0
 40
3.0
 40
4.0
 40
4.0
 40
4.0
 40
5.0
 40
5.0
 40
5.0
 40
5.0
 10
78.24023714196473
 20
233.7126758219146
 30
0.0
 10
78.24023714196473
 20
233.0226227409948
 30
0.0
 10
79.806550837622
 20
232.4631388651019
 30
0.0
 10
81.73873391517482
 20
232.4631388651019
 30
0.0
 10
83.67091699272763
 20
232.4631388651019
 30
0.0
 10
85.23723068838491
 20
233.0226227409948
 30
0.0
 10
85.23723068838491
 20
233.7126758219146
 30
0.0
 10
85.23723068838491
 20
234.4027289028343
 30
0.0
 10
83.67091699272763
 20
234.9620405238394
 30
0.0
 10
81.73873391517482
 20
234.9620405238394
 30
0.0
 10
79.806550837622
 20
234.9620405238394
 30
0.0
 10
78.24023714196473
 20
234.4027289028343
 30
0.0
 10
78.24023714196473
 20
233.7126758219146
 30
0.0
 10
78.24023714196473
 20
233.7126758219146
 30
0.0
 10
78.24023714196473
 20
233.7126758219146
 30
0.0
 10
78.24023714196473
 20
233.7126758219146
 30
0.0
  0
MTEXT
  5
63A
330
1F
100
AcDbEntity
  8
0
 62
    29
100
AcDbMText
 10
87.23642091733008
 20
236.7894926295502
 30
0.0
 40
2.249017467955184
 41
0.0
 71
     7
 72
     1
  1
\fKozuka Gothic Pro R|b0|i0|c0|p34;\W0.844444;*****
  0
MTEXT
  5
63B
330
1F
100
AcDbEntity
  8
0
 62
    29
100
AcDbMText
 10
89.73515032117969
 20
231.967733807507
 30
0.0
 40
1.499344978636789
 41
0.0
 71
     7
 72
     1
  1
\fKozuka Gothic Pro R|b0|i0|c0|p34;\W0.666667;********
  0
MTEXT
  5
63C
330
1F
100
AcDbEntity
  8
0
 62
    29
100
AcDbMText
 10
47.84534540768403
 20
236.8029285108062
 30
0.0
 40
2.249017467955184
 41
0.0
 71
     7
 72
     1
  1
\fKozuka Gothic Pro R|b0|i0|c0|p34;\W0.844444;FA-TW**
  0
ENDSEC
  0
SECTION
  2
OBJECTS
  0
DICTIONARY
  5
C
330
0
100
AcDbDictionary
  3
ACAD_GROUP
350
D
  3
ACAD_LAYOUT
350
1A
  3
ACAD_MLINESTYLE
350
17
  3
ACAD_PLOTSETTINGS
350
19
  3
ACAD_TABLESTYLE
350
63D
  3
ACAD_VISUALSTYLE
350
2A
  3
ACDBHEADERROUNDTRIPXREC
350
63E
  0
DICTIONARY
  5
65E
330
29
100
AcDbDictionary
280
     1
  3
ACAD_XREC_ROUNDTRIP
360
65F
  0
DICTIONARY
  5
D
102
{ACAD_REACTORS
330
C
102
}
330
C
100
AcDbDictionary
  0
DICTIONARY
  5
1A
102
{ACAD_REACTORS
330
C
102
}
330
C
100
AcDbDictionary
  0
DICTIONARY
  5
17
102
{ACAD_REACTORS
330
C
102
}
330
C
100
AcDbDictionary
  3
STANDARD
350
18
  0
DICTIONARY
  5
19
102
{ACAD_REACTORS
330
C
102
}
330
C
100
AcDbDictionary
  0
DICTIONARY
  5
63D
102
{ACAD_REACTORS
330
C
102
}
330
C
100
AcDbDictionary
  0
DICTIONARY
  5
2A
102
{ACAD_REACTORS
330
C
102
}
330
C
100
AcDbDictionary
  3
2DWIREFRAME
350
2F
  3
3D_HIDDEN
350
31
  3
3DWIREFRAME
350
30
  3
BASIC
350
32
  3
BRIGHTEN
350
36
  3
COLORCHANGE
350
3A
  3
CONCEPTUAL
350
34
  3
DIM
350
35
  3
FACEPATTERN
350
39
  3
FLAT
350
2B
  3
FLATWITHEDGES
350
2C
  3
GOURAUD
350
2D
  3
GOURAUDWITHEDGES
350
2E
  3
LINEPATTERN
350
38
  3
REALISTIC
350
33
  3
THICKEN
350
37
  0
DICTIONARY
  5
63E
102
{ACAD_REACTORS
330
C
102
}
330
C
100
AcDbDictionary
  3
CEPSNTYPE
350
647
  3
DIMSTYLEDATA
350
65D
  3
FINGERPRINTGUID
350
648
  3
HYPERLINKBASE
350
641
  3
INSUNITS
350
646
  3
LAYOUTDICT
350
643
  3
LWETCUNION
350
645
  3
PLOTSETDICT
350
644
  3
PSVPSCALE
350
64A
  3
PUCSBASE
350
64D
  3
PUCSORGBACK
350
653
  3
PUCSORGBOTTOM
350
64F
  3
PUCSORGFRONT
350
652
  3
PUCSORGLEFT
350
650
  3
PUCSORGRIGHT
350
651
  3
PUCSORGTOP
350
64E
  3
PUCSORTHOREF
350
64B
  3
PUCSORTHOVIEW
350
64C
  3
STYLESHEET
350
642
  3
TSTACKALIGN
350
63F
  3
TSTACKSIZE
350
640
  3
UCSBASE
350
656
  3
UCSORGBACK
350
65C
  3
UCSORGBOTTOM
350
658
  3
UCSORGFRONT
350
65B
  3
UCSORGLEFT
350
659
  3
UCSORGRIGHT
350
65A
  3
UCSORGTOP
350
657
  3
UCSORTHOREF
350
654
  3
UCSORTHOVIEW
350
655
  3
VERSIONGUID
350
649
  0
XRECORD
  5
65F
102
{ACAD_REACTORS
330
65E
102
}
330
65E
100
AcDbXrecord
102
UCS
 74
     0
 71
     1
 10
0.0
 20
0.0
 30
0.0
 10
1.0
 20
0.0
 30
0.0
 10
0.0
 20
1.0
 30
0.0
146
0.0
 79
     0
102
VIEW
281
     0
  0
MLINESTYLE
  5
18
102
{ACAD_REACTORS
330
17
102
}
330
17
100
AcDbMlineStyle
  2
Standard
 70
     0
  3

 62
   256
 51
90.0
 52
90.0
 71
     2
 49
0.5
 62
   256
  6
BYLAYER
 49
-0.5
 62
   256
  6
BYLAYER
  0
ACAD_PROXY_OBJECT_WRAPPER
  5
2F
102
{ACAD_REACTORS
330
2A
102
}
330
2A
100
AcDbVisualStyle
  2
2dWireframe
 70
     4
 71
     0
 72
     2
 73
     0
 90
        0
 40
-0.6
 41
-30.0
 62
     5
 63
     7
421
 16777215
 74
     1
 91
        4
 64
     7
 65
   257
 75
     1
175
     1
 42
1.0
 92
        0
 66
   257
 43
1.0
 76
     1
 77
     6
 78
     2
 67
     7
 79
     5
170
     0
171
     0
290
     0
174
     0
 93
        1
 44
0.0
173
     0
291
     0
 45
0.0
1001
ACAD
1000
AcDbSavedByObjectVersion
1070
     0
1000
AcadProxyRoundTripData
1071
      501
1071
       25
1070
     1
  0
ACAD_PROXY_OBJECT_WRAPPER
  5
31
102
{ACAD_REACTORS
330
2A
102
}
330
2A
100
AcDbVisualStyle
  2
3D Hidden
 70
     6
 71
     1
 72
     2
 73
     2
 90
        0
 40
-0.6
 41
-30.0
 62
     5
 63
     7
421
 16777215
 74
     2
 91
        2
 64
     7
 65
   257
 75
     2
175
     1
 42
40.0
 92
        0
 66
   257
 43
1.0
 76
     1
 77
     6
 78
     2
 67
     7
 79
     3
170
     0
171
     0
290
     0
174
     0
 93
        1
 44
0.0
173
     0
291
     0
 45
0.0
1001
ACAD
1000
AcDbSavedByObjectVersion
1070
     0
1000
AcadProxyRoundTripData
1071
      501
1071
       25
1070
     1
  0
ACAD_PROXY_OBJECT_WRAPPER
  5
30
102
{ACAD_REACTORS
330
2A
102
}
330
2A
100
AcDbVisualStyle
  2
3dWireframe
 70
     5
 71
     0
 72
     2
 73
     0
 90
        0
 40
-0.6
 41
-30.0
 62
     5
 63
     7
421
 16777215
 74
     1
 91
        4
 64
     7
 65
   257
 75
     1
175
     1
 42
1.0
 92
        0
 66
   257
 43
1.0
 76
     1
 77
     6
 78
     2
 67
     7
 79
     5
170
     0
171
     0
290
     0
174
     0
 93
        1
 44
0.0
173
     0
291
     0
 45
0.0
1001
ACAD
1000
AcDbSavedByObjectVersion
1070
     0
1000
AcadProxyRoundTripData
1071
      501
1071
       25
1070
     1
  0
ACAD_PROXY_OBJECT_WRAPPER
  5
32
102
{ACAD_REACTORS
330
2A
102
}
330
2A
100
AcDbVisualStyle
  2
Basic
 70
     7
 71
     1
 72
     0
 73
     1
 90
        0
 40
-0.6
 41
-30.0
 62
     5
 63
     7
421
 16777215
 74
     0
 91
        4
 64
     7
 65
   257
 75
     1
175
     1
 42
1.0
 92
        8
 66
     7
 43
1.0
 76
     1
 77
     6
 78
     2
 67
     7
 79
     5
170
     0
171
     0
290
     0
174
     0
 93
        1
 44
0.0
173
     0
291
     1
 45
0.0
1001
ACAD
1000
AcDbSavedByObjectVersion
1070
     0
1000
AcadProxyRoundTripData
1071
      501
1071
       25
1070
     1
  0
ACAD_PROXY_OBJECT_WRAPPER
  5
36
102
{ACAD_REACTORS
330
2A
102
}
330
2A
100
AcDbVisualStyle
  2
Brighten
 70
    12
 71
     2
 72
     2
 73
     0
 90
        0
 40
-0.6
 41
-30.0
 62
     5
 63
     7
421
 16777215
 74
     1
 91
        4
 64
     7
 65
   257
 75
     1
175
     1
 42
1.0
 92
        8
 66
     7
 43
1.0
 76
     1
 77
     6
 78
     2
 67
     7
 79
     5
170
     0
171
     0
290
     0
174
     0
 93
        1
 44
50.0
173
     0
291
     1
 45
0.0
1001
ACAD
1000
AcDbSavedByObjectVersion
1070
     0
1000
AcadProxyRoundTripData
1071
      501
1071
       25
1070
     1
  0
ACAD_PROXY_OBJECT_WRAPPER
  5
3A
102
{ACAD_REACTORS
330
2A
102
}
330
2A
100
AcDbVisualStyle
  2
ColorChange
 70
    16
 71
     2
 72
     2
 73
     3
 90
        0
 40
-0.6
 41
-30.0
 62
     5
 63
     8
421
  8421504
 74
     1
 91
        4
 64
     7
 65
   257
 75
     1
175
     1
 42
1.0
 92
        8
 66
     8
424
  8421504
 43
1.0
 76
     1
 77
     6
 78
     2
 67
     7
 79
     5
170
     0
171
     0
290
     0
174
     0
 93
        1
 44
0.0
173
     0
291
     1
 45
0.0
1001
ACAD
1000
AcDbSavedByObjectVersion
1070
     0
1000
AcadProxyRoundTripData
1071
      501
1071
       25
1070
     1
  0
ACAD_PROXY_OBJECT_WRAPPER
  5
34
102
{ACAD_REACTORS
330
2A
102
}
330
2A
100
AcDbVisualStyle
  2
Conceptual
 70
     9
 71
     3
 72
     2
 73
     0
 90
        0
 40
-0.6
 41
-30.0
 62
     5
 63
     7
421
 16777215
 74
     2
 91
        2
 64
     7
 65
   257
 75
     1
175
     1
 42
40.0
 92
        8
 66
     7
 43
1.0
 76
     1
 77
     6
 78
     2
 67
     7
 79
     3
170
     0
171
     0
290
     0
174
     0
 93
        1
 44
0.0
173
     0
291
     0
 45
0.0
1001
ACAD
1000
AcDbSavedByObjectVersion
1070
     0
1000
AcadProxyRoundTripData
1071
      501
1071
       25
1070
     1
  0
ACAD_PROXY_OBJECT_WRAPPER
  5
35
102
{ACAD_REACTORS
330
2A
102
}
330
2A
100
AcDbVisualStyle
  2
Dim
 70
    11
 71
     2
 72
     2
 73
     0
 90
        0
 40
-0.6
 41
-30.0
 62
     5
 63
     7
421
 16777215
 74
     1
 91
        4
 64
     7
 65
   257
 75
     1
175
     1
 42
1.0
 92
        8
 66
     7
 43
1.0
 76
     1
 77
     6
 78
     2
 67
     7
 79
     5
170
     0
171
     0
290
     0
174
     0
 93
        1
 44
-50.0
173
     0
291
     1
 45
0.0
1001
ACAD
1000
AcDbSavedByObjectVersion
1070
     0
1000
AcadProxyRoundTripData
1071
      501
1071
       25
1070
     1
  0
ACAD_PROXY_OBJECT_WRAPPER
  5
39
102
{ACAD_REACTORS
330
2A
102
}
330
2A
100
AcDbVisualStyle
  2
Facepattern
 70
    15
 71
     2
 72
     2
 73
     0
 90
        0
 40
-0.6
 41
-30.0
 62
     5
 63
     7
421
 16777215
 74
     1
 91
        4
 64
     7
 65
   257
 75
     1
175
     1
 42
1.0
 92
        8
 66
     7
 43
1.0
 76
     1
 77
     6
 78
     2
 67
     7
 79
     5
170
     0
171
     0
290
     0
174
     0
 93
        1
 44
0.0
173
     0
291
     1
 45
0.0
1001
ACAD
1000
AcDbSavedByObjectVersion
1070
     0
1000
AcadProxyRoundTripData
1071
      501
1071
       25
1070
     1
  0
ACAD_PROXY_OBJECT_WRAPPER
  5
2B
102
{ACAD_REACTORS
330
2A
102
}
330
2A
100
AcDbVisualStyle
  2
Flat
 70
     0
 71
     2
 72
     1
 73
     1
 90
        2
 40
-0.6
 41
30.0
 62
     5
 63
     7
421
 16777215
 74
     0
 91
        4
 64
     7
 65
   257
 75
     1
175
     1
 42
1.0
 92
        8
 66
     7
 43
1.0
 76
     1
 77
     6
 78
     2
 67
     7
 79
     5
170
     0
171
     0
290
     0
174
     0
 93
       13
 44
0.0
173
     0
291
     1
 45
0.0
1001
ACAD
1000
AcDbSavedByObjectVersion
1070
     0
1000
AcadProxyRoundTripData
1071
      501
1071
       25
1070
     1
  0
ACAD_PROXY_OBJECT_WRAPPER
  5
2C
102
{ACAD_REACTORS
330
2A
102
}
330
2A
100
AcDbVisualStyle
  2
FlatWithEdges
 70
     1
 71
     2
 72
     1
 73
     1
 90
        2
 40
-0.6
 41
30.0
 62
     5
 63
     7
421
 16777215
 74
     1
 91
        4
 64
     7
 65
   257
 75
     1
175
     1
 42
1.0
 92
        0
 66
   257
 43
1.0
 76
     1
 77
     6
 78
     2
 67
     7
 79
     5
170
     0
171
     0
290
     0
174
     0
 93
       13
 44
0.0
173
     0
291
     1
 45
0.0
1001
ACAD
1000
AcDbSavedByObjectVersion
1070
     0
1000
AcadProxyRoundTripData
1071
      501
1071
       25
1070
     1
  0
ACAD_PROXY_OBJECT_WRAPPER
  5
2D
102
{ACAD_REACTORS
330
2A
102
}
330
2A
100
AcDbVisualStyle
  2
Gouraud
 70
     2
 71
     2
 72
     2
 73
     1
 90
        2
 40
-0.6
 41
30.0
 62
     5
 63
     7
421
 16777215
 74
     0
 91
        4
 64
     7
 65
   257
 75
     1
175
     1
 42
1.0
 92
        0
 66
     7
 43
1.0
 76
     1
 77
     6
 78
     2
 67
     7
 79
     5
170
     0
171
     0
290
     0
174
     0
 93
       13
 44
0.0
173
     0
291
     1
 45
0.0
1001
ACAD
1000
AcDbSavedByObjectVersion
1070
     0
1000
AcadProxyRoundTripData
1071
      501
1071
       25
1070
     1
  0
ACAD_PROXY_OBJECT_WRAPPER
  5
2E
102
{ACAD_REACTORS
330
2A
102
}
330
2A
100
AcDbVisualStyle
  2
GouraudWithEdges
 70
     3
 71
     2
 72
     2
 73
     1
 90
        2
 40
-0.6
 41
30.0
 62
     5
 63
     7
421
 16777215
 74
     1
 91
        4
 64
     7
 65
   257
 75
     1
175
     1
 42
1.0
 92
        0
 66
   257
 43
1.0
 76
     1
 77
     6
 78
     2
 67
     7
 79
     5
170
     0
171
     0
290
     0
174
     0
 93
       13
 44
0.0
173
     0
291
     1
 45
0.0
1001
ACAD
1000
AcDbSavedByObjectVersion
1070
     0
1000
AcadProxyRoundTripData
1071
      501
1071
       25
1070
     1
  0
ACAD_PROXY_OBJECT_WRAPPER
  5
38
102
{ACAD_REACTORS
330
2A
102
}
330
2A
100
AcDbVisualStyle
  2
Linepattern
 70
    14
 71
     2
 72
     2
 73
     0
 90
        0
 40
-0.6
 41
-30.0
 62
     5
 63
     7
421
 16777215
 74
     1
 91
        4
 64
     7
 65
   257
 75
     7
175
     7
 42
1.0
 92
        8
 66
     7
 43
1.0
 76
     1
 77
     6
 78
     2
 67
     7
 79
     5
170
     0
171
     0
290
     0
174
     0
 93
        1
 44
0.0
173
     0
291
     1
 45
0.0
1001
ACAD
1000
AcDbSavedByObjectVersion
1070
     0
1000
AcadProxyRoundTripData
1071
      501
1071
       25
1070
     1
  0
ACAD_PROXY_OBJECT_WRAPPER
  5
33
102
{ACAD_REACTORS
330
2A
102
}
330
2A
100
AcDbVisualStyle
  2
Realistic
 70
     8
 71
     2
 72
     2
 73
     0
 90
        0
 40
-0.6
 41
-30.0
 62
     5
 63
     7
421
 16777215
 74
     1
 91
        0
 64
     7
 65
   257
 75
     1
175
     1
 42
1.0
 92
        8
 66
     8
424
  7895160
 43
1.0
 76
     1
 77
     6
 78
     2
 67
     7
 79
     5
170
     0
171
     0
290
     0
174
     0
 93
       13
 44
0.0
173
     0
291
     0
 45
0.0
1001
ACAD
1000
AcDbSavedByObjectVersion
1070
     0
1000
AcadProxyRoundTripData
1071
      501
1071
       25
1070
     1
  0
ACAD_PROXY_OBJECT_WRAPPER
  5
37
102
{ACAD_REACTORS
330
2A
102
}
330
2A
100
AcDbVisualStyle
  2
Thicken
 70
    13
 71
     2
 72
     2
 73
     0
 90
        0
 40
-0.6
 41
-30.0
 62
     5
 63
     7
421
 16777215
 74
     1
 91
        4
 64
     7
 65
   257
 75
     1
175
     1
 42
1.0
 92
       12
 66
     7
 43
1.0
 76
     1
 77
     6
 78
     2
 67
     7
 79
     5
170
     0
171
     0
290
     0
174
     0
 93
        1
 44
0.0
173
     0
291
     1
 45
0.0
1001
ACAD
1000
AcDbSavedByObjectVersion
1070
     0
1000
AcadProxyRoundTripData
1071
      501
1071
       25
1070
     1
  0
XRECORD
  5
647
102
{ACAD_REACTORS
330
63E
102
}
330
63E
100
AcDbXrecord
 90
        0
  0
XRECORD
  5
65D
102
{ACAD_REACTORS
330
63E
102
}
330
63E
100
AcDbXrecord
1000
DSTYLE
1002
{
1070
   340
340
11
1002
}
  0
XRECORD
  5
648
102
{ACAD_REACTORS
330
63E
102
}
330
63E
100
AcDbXrecord
  1
{C073E26C-17FA-4CED-B45E-35DEB4B8DEBD}
  0
XRECORD
  5
641
102
{ACAD_REACTORS
330
63E
102
}
330
63E
100
AcDbXrecord
  1

  0
XRECORD
  5
646
102
{ACAD_REACTORS
330
63E
102
}
330
63E
100
AcDbXrecord
 90
        1
  0
XRECORD
  5
643
102
{ACAD_REACTORS
330
63E
102
}
330
63E
100
AcDbXrecord
340
1A
  0
XRECORD
  5
645
102
{ACAD_REACTORS
330
63E
102
}
330
63E
100
AcDbXrecord
 90
    10269
  0
XRECORD
  5
644
102
{ACAD_REACTORS
330
63E
102
}
330
63E
100
AcDbXrecord
340
19
  0
XRECORD
  5
64A
102
{ACAD_REACTORS
330
63E
102
}
330
63E
100
AcDbXrecord
 40
0.0
  0
XRECORD
  5
64D
102
{ACAD_REACTORS
330
63E
102
}
330
63E
100
AcDbXrecord
340
0
  0
XRECORD
  5
653
102
{ACAD_REACTORS
330
63E
102
}
330
63E
100
AcDbXrecord
 10
0.0
 20
0.0
 30
0.0
  0
XRECORD
  5
64F
102
{ACAD_REACTORS
330
63E
102
}
330
63E
100
AcDbXrecord
 10
0.0
 20
0.0
 30
0.0
  0
XRECORD
  5
652
102
{ACAD_REACTORS
330
63E
102
}
330
63E
100
AcDbXrecord
 10
0.0
 20
0.0
 30
0.0
  0
XRECORD
  5
650
102
{ACAD_REACTORS
330
63E
102
}
330
63E
100
AcDbXrecord
 10
0.0
 20
0.0
 30
0.0
  0
XRECORD
  5
651
102
{ACAD_REACTORS
330
63E
102
}
330
63E
100
AcDbXrecord
 10
0.0
 20
0.0
 30
0.0
  0
XRECORD
  5
64E
102
{ACAD_REACTORS
330
63E
102
}
330
63E
100
AcDbXrecord
 10
0.0
 20
0.0
 30
0.0
  0
XRECORD
  5
64B
102
{ACAD_REACTORS
330
63E
102
}
330
63E
100
AcDbXrecord
340
0
  0
XRECORD
  5
64C
102
{ACAD_REACTORS
330
63E
102
}
330
63E
100
AcDbXrecord
 70
     0
  0
XRECORD
  5
642
102
{ACAD_REACTORS
330
63E
102
}
330
63E
100
AcDbXrecord
  1

  0
XRECORD
  5
63F
102
{ACAD_REACTORS
330
63E
102
}
330
63E
100
AcDbXrecord
 90
        1
  0
XRECORD
  5
640
102
{ACAD_REACTORS
330
63E
102
}
330
63E
100
AcDbXrecord
 90
       70
  0
XRECORD
  5
656
102
{ACAD_REACTORS
330
63E
102
}
330
63E
100
AcDbXrecord
340
0
  0
XRECORD
  5
65C
102
{ACAD_REACTORS
330
63E
102
}
330
63E
100
AcDbXrecord
 10
0.0
 20
0.0
 30
0.0
  0
XRECORD
  5
658
102
{ACAD_REACTORS
330
63E
102
}
330
63E
100
AcDbXrecord
 10
0.0
 20
0.0
 30
0.0
  0
XRECORD
  5
65B
102
{ACAD_REACTORS
330
63E
102
}
330
63E
100
AcDbXrecord
 10
0.0
 20
0.0
 30
0.0
  0
XRECORD
  5
659
102
{ACAD_REACTORS
330
63E
102
}
330
63E
100
AcDbXrecord
 10
0.0
 20
0.0
 30
0.0
  0
XRECORD
  5
65A
102
{ACAD_REACTORS
330
63E
102
}
330
63E
100
AcDbXrecord
 10
0.0
 20
0.0
 30
0.0
  0
XRECORD
  5
657
102
{ACAD_REACTORS
330
63E
102
}
330
63E
100
AcDbXrecord
 10
0.0
 20
0.0
 30
0.0
  0
XRECORD
  5
654
102
{ACAD_REACTORS
330
63E
102
}
330
63E
100
AcDbXrecord
340
0
  0
XRECORD
  5
655
102
{ACAD_REACTORS
330
63E
102
}
330
63E
100
AcDbXrecord
 70
     0
  0
XRECORD
  5
649
102
{ACAD_REACTORS
330
63E
102
}
330
63E
100
AcDbXrecord
  1
{FAEB1C32-E019-11D5-929B-00C0DF256EC4}
  0
ENDSEC
  0
EOF
