  0
SECTION
  2
HEADER
  9
$ACADVER
  1
AC1014
  9
$ACADMAINTVER
 70
     9
  9
$DWGCODEPAGE
  3
ANSI_932
  9
$INSBASE
 10
0.0
 20
0.0
 30
0.0
  9
$EXTMIN
 10
0.0
 20
0.0
 30
0.0
  9
$EXTMAX
 10
210.0
 20
297.0
 30
0.0
  9
$LIMMIN
 10
0.0
 20
0.0
  9
$LIMMAX
 10
210.0
 20
297.0
  9
$ORTHOMODE
 70
     0
  9
$REGENMODE
 70
     1
  9
$FILLMODE
 70
     1
  9
$QTEXTMODE
 70
     0
  9
$MIRRTEXT
 70
     1
  9
$DRAGMODE
 70
     2
  9
$LTSCALE
 40
1.0
  9
$OSMODE
 70
    37
  9
$ATTMODE
 70
     1
  9
$TEXTSIZE
 40
2.5
  9
$TRACEWID
 40
1.0
  9
$TEXTSTYLE
  7
ＭＳ_ゴシック
  9
$CLAYER
  8
0
  9
$CELTYPE
  6
BYLAYER
  9
$CECOLOR
 62
   256
  9
$CELTSCALE
 40
1.0
  9
$DELOBJ
 70
     1
  9
$DISPSILH
 70
     0
  9
$DIMSCALE
 40
1.0
  9
$DIMASZ
 40
2.5
  9
$DIMEXO
 40
1.0
  9
$DIMDLI
 40
6.0
  9
$DIMRND
 40
0.0
  9
$DIMDLE
 40
4.0
  9
$DIMEXE
 40
1.0
  9
$DIMTP
 40
0.0
  9
$DIMTM
 40
0.0
  9
$DIMTXT
 40
3.0
  9
$DIMCEN
 40
2.5
  9
$DIMTSZ
 40
0.0
  9
$DIMTOL
 70
     0
  9
$DIMLIM
 70
     0
  9
$DIMTIH
 70
     0
  9
$DIMTOH
 70
     0
  9
$DIMSE1
 70
     0
  9
$DIMSE2
 70
     0
  9
$DIMTAD
 70
     1
  9
$DIMZIN
 70
     8
  9
$DIMBLK
  1

  9
$DIMASO
 70
     1
  9
$DIMSHO
 70
     1
  9
$DIMPOST
  1

  9
$DIMAPOST
  1

  9
$DIMALT
 70
     0
  9
$DIMALTD
 70
     3
  9
$DIMALTF
 40
0.03937
  9
$DIMLFAC
 40
1.0
  9
$DIMTOFL
 70
     1
  9
$DIMTVP
 40
0.0
  9
$DIMTIX
 70
     0
  9
$DIMSOXD
 70
     0
  9
$DIMSAH
 70
     1
  9
$DIMBLK1
  1
FXTIP_ARROW_S
  9
$DIMBLK2
  1
FXTIP_ARROW_E
  9
$DIMSTYLE
  2
FX_DIMINFO
  9
$DIMCLRD
 70
     0
  9
$DIMCLRE
 70
     0
  9
$DIMCLRT
 70
     0
  9
$DIMTFAC
 40
1.0
  9
$DIMGAP
 40
1.0
  9
$DIMJUST
 70
     0
  9
$DIMSD1
 70
     0
  9
$DIMSD2
 70
     0
  9
$DIMTOLJ
 70
     1
  9
$DIMTZIN
 70
     8
  9
$DIMALTZ
 70
     0
  9
$DIMALTTZ
 70
     0
  9
$DIMFIT
 70
     3
  9
$DIMUPT
 70
     0
  9
$DIMUNIT
 70
     2
  9
$DIMDEC
 70
     2
  9
$DIMTDEC
 70
     2
  9
$DIMALTU
 70
     2
  9
$DIMALTTD
 70
     3
  9
$DIMTXSTY
  7
ＭＳ_ゴシック
  9
$DIMAUNIT
 70
     0
  9
$LUNITS
 70
     2
  9
$LUPREC
 70
     4
  9
$SKETCHINC
 40
1.0
  9
$FILLETRAD
 40
10.0
  9
$AUNITS
 70
     0
  9
$AUPREC
 70
     0
  9
$MENU
  1
.
  9
$ELEVATION
 40
0.0
  9
$PELEVATION
 40
0.0
  9
$THICKNESS
 40
0.0
  9
$LIMCHECK
 70
     0
  9
$CHAMFERA
 40
0.0
  9
$CHAMFERB
 40
0.0
  9
$CHAMFERC
 40
0.0
  9
$CHAMFERD
 40
0.0
  9
$SKPOLY
 70
     0
  9
$TDCREATE
 40
2457744.447252974
  9
$TDUPDATE
 40
2457744.447254016
  9
$TDINDWG
 40
0.0000000116
  9
$TDUSRTIMER
 40
0.0000000116
  9
$USRTIMER
 70
     1
  9
$ANGBASE
 50
0.0
  9
$ANGDIR
 70
     0
  9
$PDMODE
 70
     0
  9
$PDSIZE
 40
0.0
  9
$PLINEWID
 40
0.0
  9
$COORDS
 70
     1
  9
$SPLFRAME
 70
     0
  9
$SPLINETYPE
 70
     6
  9
$SPLINESEGS
 70
     8
  9
$ATTDIA
 70
     0
  9
$ATTREQ
 70
     1
  9
$HANDLING
 70
     1
  9
$HANDSEED
  5
24D
  9
$SURFTAB1
 70
     6
  9
$SURFTAB2
 70
     6
  9
$SURFTYPE
 70
     6
  9
$SURFU
 70
     6
  9
$SURFV
 70
     6
  9
$UCSNAME
  2

  9
$UCSORG
 10
0.0
 20
0.0
 30
0.0
  9
$UCSXDIR
 10
1.0
 20
0.0
 30
0.0
  9
$UCSYDIR
 10
0.0
 20
1.0
 30
0.0
  9
$PUCSNAME
  2

  9
$PUCSORG
 10
0.0
 20
0.0
 30
0.0
  9
$PUCSXDIR
 10
1.0
 20
0.0
 30
0.0
  9
$PUCSYDIR
 10
0.0
 20
1.0
 30
0.0
  9
$USERI1
 70
     0
  9
$USERI2
 70
     0
  9
$USERI3
 70
     0
  9
$USERI4
 70
     0
  9
$USERI5
 70
     0
  9
$USERR1
 40
0.0
  9
$USERR2
 40
0.0
  9
$USERR3
 40
0.0
  9
$USERR4
 40
0.0
  9
$USERR5
 40
0.0
  9
$WORLDVIEW
 70
     1
  9
$SHADEDGE
 70
     3
  9
$SHADEDIF
 70
    70
  9
$TILEMODE
 70
     1
  9
$MAXACTVP
 70
    64
  9
$PINSBASE
 10
0.0
 20
0.0
 30
0.0
  9
$PLIMCHECK
 70
     0
  9
$PEXTMIN
 10
1.000000000000000E+20
 20
1.000000000000000E+20
 30
1.000000000000000E+20
  9
$PEXTMAX
 10
-1.000000000000000E+20
 20
-1.000000000000000E+20
 30
-1.000000000000000E+20
  9
$PLIMMIN
 10
0.0
 20
0.0
  9
$PLIMMAX
 10
420.0
 20
297.0
  9
$UNITMODE
 70
     0
  9
$VISRETAIN
 70
     1
  9
$PLINEGEN
 70
     0
  9
$PSLTSCALE
 70
     1
  9
$TREEDEPTH
 70
  3020
  9
$PICKSTYLE
 70
     1
  9
$CMLSTYLE
  2
STANDARD
  9
$CMLJUST
 70
     0
  9
$CMLSCALE
 40
20.0
  9
$PROXYGRAPHICS
 70
     1
  9
$MEASUREMENT
 70
     1
  0
ENDSEC
  0
SECTION
  2
CLASSES
  0
CLASS
  1
ACDBDICTIONARYWDFLT
  2
AcDbDictionaryWithDefault
  3
ObjectDBX Classes
 90
        0
280
     0
281
     0
  0
CLASS
  1
VISUALSTYLE
  2
AcDbVisualStyle
  3
ObjectDBX Classes
 90
     4095
280
     0
281
     0
  0
CLASS
  1
MATERIAL
  2
AcDbMaterial
  3
ObjectDBX Classes
 90
     1153
280
     0
281
     0
  0
CLASS
  1
SCALE
  2
AcDbScale
  3
ObjectDBX Classes
 90
     1153
280
     0
281
     0
  0
CLASS
  1
TABLESTYLE
  2
AcDbTableStyle
  3
ObjectDBX Classes
 90
     4095
280
     0
281
     0
  0
CLASS
  1
MLEADERSTYLE
  2
AcDbMLeaderStyle
  3
ACDB_MLEADERSTYLE_CLASS
 90
     4095
280
     0
281
     0
  0
CLASS
  1
SUN
  2
AcDbSun
  3
SCENEOE
 90
     1153
280
     0
281
     0
  0
CLASS
  1
DICTIONARYVAR
  2
AcDbDictionaryVar
  3
ObjectDBX Classes
 90
        0
280
     0
281
     0
  0
CLASS
  1
XRECORD
  2
AcDbXrecord
  3
ObjectDBX Classes
 90
        0
280
     0
281
     0
  0
CLASS
  1
LWPOLYLINE
  2
AcDbPolyline
  3
ObjectDBX Classes
 90
        0
280
     0
281
     1
  0
CLASS
  1
HATCH
  2
AcDbHatch
  3
ObjectDBX Classes
 90
        0
280
     0
281
     1
  0
CLASS
  1
ACDBPLACEHOLDER
  2
AcDbPlaceHolder
  3
ObjectDBX Classes
 90
        0
280
     0
281
     0
  0
CLASS
  1
LAYOUT
  2
AcDbLayout
  3
ObjectDBX Classes
 90
        0
280
     0
281
     0
  0
ENDSEC
  0
SECTION
  2
TABLES
  0
TABLE
  2
VPORT
  5
8
102
{ACAD_XDICTIONARY
360
242
102
}
330
0
100
AcDbSymbolTable
 70
     1
  0
VPORT
  5
29
330
8
100
AcDbSymbolTableRecord
100
AcDbViewportTableRecord
  2
*ACTIVE
 70
     0
 10
0.0
 20
0.0
 11
1.0
 21
1.0
 12
105.0
 22
148.5
 13
0.0
 23
0.0
 14
10.0
 24
10.0
 15
10.0
 25
10.0
 16
0.0
 26
0.0
 36
1.0
 17
0.0
 27
0.0
 37
0.0
 40
297.0
 41
0.7070707070707071
 42
50.0
 43
0.0
 44
0.0
 50
0.0
 51
0.0
 71
     0
 72
   100
 73
     1
 74
     3
 75
     0
 76
     0
 77
     0
 78
     0
  0
ENDTAB
  0
TABLE
  2
LTYPE
  5
5
330
0
100
AcDbSymbolTable
 70
     3
  0
LTYPE
  5
14
330
5
100
AcDbSymbolTableRecord
100
AcDbLinetypeTableRecord
  2
BYBLOCK
 70
     0
  3

 72
    65
 73
     0
 40
0.0
  0
LTYPE
  5
15
330
5
100
AcDbSymbolTableRecord
100
AcDbLinetypeTableRecord
  2
BYLAYER
 70
     0
  3

 72
    65
 73
     0
 40
0.0
  0
LTYPE
  5
16
330
5
100
AcDbSymbolTableRecord
100
AcDbLinetypeTableRecord
  2
CONTINUOUS
 70
     0
  3
Solid line
 72
    65
 73
     0
 40
0.0
  0
LTYPE
  5
DC
330
5
100
AcDbSymbolTableRecord
100
AcDbLinetypeTableRecord
  2
0_5実線
 70
     0
  3

 72
    65
 73
     0
 40
0.0
  0
LTYPE
  5
E4
330
5
100
AcDbSymbolTableRecord
100
AcDbLinetypeTableRecord
  2
0_35点線
 70
     0
  3

 72
    65
 73
     2
 40
2.0
 49
1.0
 74
     0
 49
-1.0
 74
     0
  0
ENDTAB
  0
TABLE
  2
LAYER
  5
2
330
0
100
AcDbSymbolTable
 70
     3
  0
LAYER
  5
10
330
2
100
AcDbSymbolTableRecord
100
AcDbLayerTableRecord
  2
0
 70
     0
 62
     7
  6
CONTINUOUS
  0
LAYER
  5
DB
330
2
100
AcDbSymbolTableRecord
100
AcDbLayerTableRecord
  2
GR1_16
 70
     0
 62
     1
  6
0_5実線
  0
LAYER
  5
E1
330
2
100
AcDbSymbolTableRecord
100
AcDbLayerTableRecord
  2
GR2_01
 70
     0
 62
     1
  6
0_5実線
  0
ENDTAB
  0
TABLE
  2
STYLE
  5
3
330
0
100
AcDbSymbolTable
 70
     4
  0
STYLE
  5
11
330
3
100
AcDbSymbolTableRecord
100
AcDbTextStyleTableRecord
  2
STANDARD
 70
     0
 40
0.0
 41
1.0
 50
0.0
 71
     0
 42
2.5
  3
txt
  4

  0
STYLE
  5
6E
330
3
100
AcDbSymbolTableRecord
100
AcDbTextStyleTableRecord
  2
FX_VECTOR
 70
     0
 40
0.0
 41
1.0
 50
0.0
 71
     0
 42
2.5
  3
MONOTXT.SHX
  4
BigFont.shx
  0
STYLE
  5
D9
330
3
100
AcDbSymbolTableRecord
100
AcDbTextStyleTableRecord
  2
ＭＳ_ゴシック
 70
     0
 40
0.0
 41
1.0
 50
0.0
 71
     0
 42
2.5
  3

  4

1001
ACAD
1000
ＭＳ ゴシック
1071
    32817
  0
STYLE
  5
DA
330
3
100
AcDbSymbolTableRecord
100
AcDbTextStyleTableRecord
  2
DEFAULT
 70
     0
 40
0.0
 41
1.0
 50
0.0
 71
     0
 42
2.5
  3

  4

1001
ACAD
1000
ＭＳ ゴシック
1071
    32817
  0
ENDTAB
  0
TABLE
  2
VIEW
  5
6
330
0
100
AcDbSymbolTable
 70
     0
  0
ENDTAB
  0
TABLE
  2
UCS
  5
7
330
0
100
AcDbSymbolTable
 70
     0
  0
ENDTAB
  0
TABLE
  2
APPID
  5
9
330
0
100
AcDbSymbolTable
 70
     2
  0
APPID
  5
12
330
9
100
AcDbSymbolTableRecord
100
AcDbRegAppTableRecord
  2
ACAD
 70
     0
  0
APPID
  5
24C
330
9
100
AcDbSymbolTableRecord
100
AcDbRegAppTableRecord
  2
ACAD_MLEADERVER
 70
     0
  0
ENDTAB
  0
TABLE
  2
DIMSTYLE
  5
A
330
0
100
AcDbSymbolTable
 70
     2
  0
DIMSTYLE
105
27
330
A
100
AcDbSymbolTableRecord
100
AcDbDimStyleTableRecord
  2
ISO-25
 70
     0
  3

  4

  5

  6

  7

 40
1.0
 41
2.5
 42
0.625
 43
3.75
 44
1.25
 45
0.0
 46
0.0
 47
0.0
 48
0.0
140
2.5
141
2.5
142
0.0
143
0.03937007874016
144
1.0
145
0.0
146
1.0
147
0.625
 71
     0
 72
     0
 73
     0
 74
     0
 75
     0
 76
     0
 77
     1
 78
     8
170
     0
171
     3
172
     1
173
     0
174
     0
175
     0
176
     0
177
     0
178
     0
270
     2
271
     2
272
     2
273
     2
274
     3
340
11
275
     0
280
     0
281
     0
282
     0
283
     0
284
     8
285
     0
286
     0
287
     3
288
     0
  0
DIMSTYLE
105
D8
330
A
100
AcDbSymbolTableRecord
100
AcDbDimStyleTableRecord
  2
FX_DIMINFO
 70
     0
  3

  4

  5

  6
FXTIP_ARROW_S
  7
FXTIP_ARROW_E
 40
1.0
 41
2.5
 42
1.0
 43
6.0
 44
1.0
 45
0.0
 46
4.0
 47
0.0
 48
0.0
140
3.0
141
2.5
142
0.0
143
0.03937
144
1.0
145
0.0
146
1.0
147
1.0
 71
     0
 72
     0
 73
     0
 74
     0
 75
     0
 76
     0
 77
     1
 78
     8
170
     0
171
     3
172
     1
173
     1
174
     0
175
     0
176
     0
177
     0
178
     0
179
     2
270
     2
271
     2
272
     2
273
     2
274
     3
340
D9
275
     0
280
     0
281
     0
282
     0
283
     1
284
     8
285
     0
286
     0
287
     3
288
     0
  0
ENDTAB
  0
TABLE
  2
BLOCK_RECORD
  5
1
330
0
100
AcDbSymbolTable
 70
    20
  0
BLOCK_RECORD
  5
1F
330
1
100
AcDbSymbolTableRecord
100
AcDbBlockTableRecord
  2
*MODEL_SPACE
  0
BLOCK_RECORD
  5
1B
330
1
100
AcDbSymbolTableRecord
100
AcDbBlockTableRecord
  2
*PAPER_SPACE
  0
BLOCK_RECORD
  5
6F
330
1
100
AcDbSymbolTableRecord
100
AcDbBlockTableRecord
  2
FXTIP_NONE
  0
BLOCK_RECORD
  5
72
330
1
100
AcDbSymbolTableRecord
100
AcDbBlockTableRecord
  2
FXTIP_ARROW_S
  0
BLOCK_RECORD
  5
78
330
1
100
AcDbSymbolTableRecord
100
AcDbBlockTableRecord
  2
FXTIP_ARROW_E
  0
BLOCK_RECORD
  5
7E
330
1
100
AcDbSymbolTableRecord
100
AcDbBlockTableRecord
  2
FXTIP_BLACKDOT_S
  0
BLOCK_RECORD
  5
84
330
1
100
AcDbSymbolTableRecord
100
AcDbBlockTableRecord
  2
FXTIP_BLACKDOT_E
  0
BLOCK_RECORD
  5
8A
330
1
100
AcDbSymbolTableRecord
100
AcDbBlockTableRecord
  2
FXTIP_TRIANGLE_S
  0
BLOCK_RECORD
  5
91
330
1
100
AcDbSymbolTableRecord
100
AcDbBlockTableRecord
  2
FXTIP_TRIANGLE_E
  0
BLOCK_RECORD
  5
98
330
1
100
AcDbSymbolTableRecord
100
AcDbBlockTableRecord
  2
FXTIP_ARCHITECT_S
  0
BLOCK_RECORD
  5
9E
330
1
100
AcDbSymbolTableRecord
100
AcDbBlockTableRecord
  2
FXTIP_ARCHITECT_E
  0
BLOCK_RECORD
  5
A4
330
1
100
AcDbSymbolTableRecord
100
AcDbBlockTableRecord
  2
FXTIP_CIVIL_S
  0
BLOCK_RECORD
  5
AA
330
1
100
AcDbSymbolTableRecord
100
AcDbBlockTableRecord
  2
FXTIP_CIVIL_E
  0
BLOCK_RECORD
  5
B0
330
1
100
AcDbSymbolTableRecord
100
AcDbBlockTableRecord
  2
FXTIP_WHITEDOT_S
  0
BLOCK_RECORD
  5
B5
330
1
100
AcDbSymbolTableRecord
100
AcDbBlockTableRecord
  2
FXTIP_WHITEDOT_E
  0
BLOCK_RECORD
  5
BA
330
1
100
AcDbSymbolTableRecord
100
AcDbBlockTableRecord
  2
FXTIP_UPARROW_S
  0
BLOCK_RECORD
  5
BF
330
1
100
AcDbSymbolTableRecord
100
AcDbBlockTableRecord
  2
FXTIP_UPARROW_E
  0
BLOCK_RECORD
  5
C4
330
1
100
AcDbSymbolTableRecord
100
AcDbBlockTableRecord
  2
FXTIP_DOWNARROW_S
  0
BLOCK_RECORD
  5
C9
330
1
100
AcDbSymbolTableRecord
100
AcDbBlockTableRecord
  2
FXTIP_DOWNARROW_E
  0
BLOCK_RECORD
  5
CE
330
1
100
AcDbSymbolTableRecord
100
AcDbBlockTableRecord
  2
FXTIP_BLACKTRIANGLE_S
  0
BLOCK_RECORD
  5
D3
330
1
100
AcDbSymbolTableRecord
100
AcDbBlockTableRecord
  2
FXTIP_BLACKTRIANGLE_E
  0
ENDTAB
  0
ENDSEC
  0
SECTION
  2
BLOCKS
  0
BLOCK
  5
20
330
1F
100
AcDbEntity
  8
0
100
AcDbBlockBegin
  2
*MODEL_SPACE
 70
     0
 10
0.0
 20
0.0
 30
0.0
  3
*MODEL_SPACE
  1

  0
ENDBLK
  5
21
330
1F
100
AcDbEntity
  8
0
100
AcDbBlockEnd
  0
BLOCK
  5
1C
330
1B
100
AcDbEntity
 67
     1
  8
0
100
AcDbBlockBegin
  2
*PAPER_SPACE
 70
     0
 10
0.0
 20
0.0
 30
0.0
  3
*PAPER_SPACE
  1

  0
ENDBLK
  5
1D
330
1B
100
AcDbEntity
 67
     1
  8
0
100
AcDbBlockEnd
  0
BLOCK
  5
70
330
6F
100
AcDbEntity
  8
0
100
AcDbBlockBegin
  2
FXTIP_NONE
 70
     0
 10
0.0
 20
0.0
 30
0.0
  3
FXTIP_NONE
  1
FXTIP_NONE
  0
ENDBLK
  5
71
330
6F
100
AcDbEntity
  8
0
100
AcDbBlockEnd
  0
BLOCK
  5
73
330
72
100
AcDbEntity
  8
0
100
AcDbBlockBegin
  2
FXTIP_ARROW_S
 70
     0
 10
0.0
 20
0.0
 30
0.0
  3
FXTIP_ARROW_S
  1
FXTIP_ARROW_S
  0
LINE
  5
75
330
72
100
AcDbEntity
  8
0
  6
CONTINUOUS
 62
     0
100
AcDbLine
 10
0.0
 20
0.0
 30
0.0
 11
-1.0
 21
0.0000000000000001
 31
0.0
  0
LINE
  5
76
330
72
100
AcDbEntity
  8
0
  6
CONTINUOUS
 62
     0
100
AcDbLine
 10
0.0
 20
0.0
 30
0.0
 11
-0.9659258262890683
 21
-0.2588190451025206
 31
0.0
  0
LINE
  5
77
330
72
100
AcDbEntity
  8
0
  6
CONTINUOUS
 62
     0
100
AcDbLine
 10
0.0
 20
0.0
 30
0.0
 11
-0.9659258262890683
 21
0.2588190451025209
 31
0.0
  0
ENDBLK
  5
74
330
72
100
AcDbEntity
  8
0
100
AcDbBlockEnd
  0
BLOCK
  5
79
330
78
100
AcDbEntity
  8
0
100
AcDbBlockBegin
  2
FXTIP_ARROW_E
 70
     0
 10
0.0
 20
0.0
 30
0.0
  3
FXTIP_ARROW_E
  1
FXTIP_ARROW_E
  0
LINE
  5
7B
330
78
100
AcDbEntity
  8
0
  6
CONTINUOUS
 62
     0
100
AcDbLine
 10
0.0
 20
0.0
 30
0.0
 11
-1.0
 21
0.0
 31
0.0
  0
LINE
  5
7C
330
78
100
AcDbEntity
  8
0
  6
CONTINUOUS
 62
     0
100
AcDbLine
 10
0.0
 20
0.0
 30
0.0
 11
-0.9659258262890683
 21
0.2588190451025207
 31
0.0
  0
LINE
  5
7D
330
78
100
AcDbEntity
  8
0
  6
CONTINUOUS
 62
     0
100
AcDbLine
 10
0.0
 20
0.0
 30
0.0
 11
-0.9659258262890683
 21
-0.2588190451025207
 31
0.0
  0
ENDBLK
  5
7A
330
78
100
AcDbEntity
  8
0
100
AcDbBlockEnd
  0
BLOCK
  5
7F
330
7E
100
AcDbEntity
  8
0
100
AcDbBlockBegin
  2
FXTIP_BLACKDOT_S
 70
     0
 10
0.0
 20
0.0
 30
0.0
  3
FXTIP_BLACKDOT_S
  1
FXTIP_BLACKDOT_S
  0
LINE
  5
81
330
7E
100
AcDbEntity
  8
0
  6
CONTINUOUS
 62
     0
100
AcDbLine
 10
0.0
 20
0.0
 30
0.0
 11
-1.0
 21
0.0000000000000001
 31
0.0
  0
LWPOLYLINE
  5
82
330
7E
100
AcDbEntity
  8
0
  6
CONTINUOUS
 62
     0
100
AcDbPolyline
 90
        2
 70
     1
 43
0.2
 10
-0.1
 20
0.0
 42
1.0
 10
0.1
 20
0.0
 42
1.0
  0
CIRCLE
  5
83
330
7E
100
AcDbEntity
  8
0
  6
CONTINUOUS
 62
     0
100
AcDbCircle
 10
0.0
 20
0.0
 30
0.0
 40
0.2
  0
ENDBLK
  5
80
330
7E
100
AcDbEntity
  8
0
100
AcDbBlockEnd
  0
BLOCK
  5
85
330
84
100
AcDbEntity
  8
0
100
AcDbBlockBegin
  2
FXTIP_BLACKDOT_E
 70
     0
 10
0.0
 20
0.0
 30
0.0
  3
FXTIP_BLACKDOT_E
  1
FXTIP_BLACKDOT_E
  0
LINE
  5
87
330
84
100
AcDbEntity
  8
0
  6
CONTINUOUS
 62
     0
100
AcDbLine
 10
0.0
 20
0.0
 30
0.0
 11
-1.0
 21
0.0
 31
0.0
  0
LWPOLYLINE
  5
88
330
84
100
AcDbEntity
  8
0
  6
CONTINUOUS
 62
     0
100
AcDbPolyline
 90
        2
 70
     1
 43
0.2
 10
-0.1
 20
0.0
 42
1.0
 10
0.1
 20
0.0
 42
1.0
  0
CIRCLE
  5
89
330
84
100
AcDbEntity
  8
0
  6
CONTINUOUS
 62
     0
100
AcDbCircle
 10
0.0
 20
0.0
 30
0.0
 40
0.2
  0
ENDBLK
  5
86
330
84
100
AcDbEntity
  8
0
100
AcDbBlockEnd
  0
BLOCK
  5
8B
330
8A
100
AcDbEntity
  8
0
100
AcDbBlockBegin
  2
FXTIP_TRIANGLE_S
 70
     0
 10
0.0
 20
0.0
 30
0.0
  3
FXTIP_TRIANGLE_S
  1
FXTIP_TRIANGLE_S
  0
LINE
  5
8D
330
8A
100
AcDbEntity
  8
0
  6
CONTINUOUS
 62
     0
100
AcDbLine
 10
0.0
 20
0.0
 30
0.0
 11
-1.0
 21
0.0000000000000001
 31
0.0
  0
LINE
  5
8E
330
8A
100
AcDbEntity
  8
0
  6
CONTINUOUS
 62
     0
100
AcDbLine
 10
0.0
 20
0.0
 30
0.0
 11
-0.9659258262890683
 21
-0.2588190451025206
 31
0.0
  0
LINE
  5
8F
330
8A
100
AcDbEntity
  8
0
  6
CONTINUOUS
 62
     0
100
AcDbLine
 10
0.0
 20
0.0
 30
0.0
 11
-0.9659258262890683
 21
0.2588190451025209
 31
0.0
  0
LINE
  5
90
330
8A
100
AcDbEntity
  8
0
  6
CONTINUOUS
 62
     0
100
AcDbLine
 10
-0.9659258262890683
 20
-0.2588190451025206
 30
0.0
 11
-0.9659258262890683
 21
0.2588190451025209
 31
0.0
  0
ENDBLK
  5
8C
330
8A
100
AcDbEntity
  8
0
100
AcDbBlockEnd
  0
BLOCK
  5
92
330
91
100
AcDbEntity
  8
0
100
AcDbBlockBegin
  2
FXTIP_TRIANGLE_E
 70
     0
 10
0.0
 20
0.0
 30
0.0
  3
FXTIP_TRIANGLE_E
  1
FXTIP_TRIANGLE_E
  0
LINE
  5
94
330
91
100
AcDbEntity
  8
0
  6
CONTINUOUS
 62
     0
100
AcDbLine
 10
0.0
 20
0.0
 30
0.0
 11
-1.0
 21
0.0
 31
0.0
  0
LINE
  5
95
330
91
100
AcDbEntity
  8
0
  6
CONTINUOUS
 62
     0
100
AcDbLine
 10
0.0
 20
0.0
 30
0.0
 11
-0.9659258262890683
 21
0.2588190451025207
 31
0.0
  0
LINE
  5
96
330
91
100
AcDbEntity
  8
0
  6
CONTINUOUS
 62
     0
100
AcDbLine
 10
0.0
 20
0.0
 30
0.0
 11
-0.9659258262890683
 21
-0.2588190451025207
 31
0.0
  0
LINE
  5
97
330
91
100
AcDbEntity
  8
0
  6
CONTINUOUS
 62
     0
100
AcDbLine
 10
-0.9659258262890683
 20
0.2588190451025207
 30
0.0
 11
-0.9659258262890683
 21
-0.2588190451025207
 31
0.0
  0
ENDBLK
  5
93
330
91
100
AcDbEntity
  8
0
100
AcDbBlockEnd
  0
BLOCK
  5
99
330
98
100
AcDbEntity
  8
0
100
AcDbBlockBegin
  2
FXTIP_ARCHITECT_S
 70
     0
 10
0.0
 20
0.0
 30
0.0
  3
FXTIP_ARCHITECT_S
  1
FXTIP_ARCHITECT_S
  0
LINE
  5
9B
330
98
100
AcDbEntity
  8
0
  6
CONTINUOUS
 62
     0
100
AcDbLine
 10
0.0
 20
0.0
 30
0.0
 11
-1.0
 21
0.0000000000000001
 31
0.0
  0
LINE
  5
9C
330
98
100
AcDbEntity
  8
0
  6
CONTINUOUS
 62
     0
100
AcDbLine
 10
0.0
 20
0.0
 30
0.0
 11
-0.7071067811865476
 21
-0.7071067811865474
 31
0.0
  0
LINE
  5
9D
330
98
100
AcDbEntity
  8
0
  6
CONTINUOUS
 62
     0
100
AcDbLine
 10
0.0
 20
0.0
 30
0.0
 11
0.7071067811865476
 21
0.7071067811865474
 31
0.0
  0
ENDBLK
  5
9A
330
98
100
AcDbEntity
  8
0
100
AcDbBlockEnd
  0
BLOCK
  5
9F
330
9E
100
AcDbEntity
  8
0
100
AcDbBlockBegin
  2
FXTIP_ARCHITECT_E
 70
     0
 10
0.0
 20
0.0
 30
0.0
  3
FXTIP_ARCHITECT_E
  1
FXTIP_ARCHITECT_E
  0
LINE
  5
A1
330
9E
100
AcDbEntity
  8
0
  6
CONTINUOUS
 62
     0
100
AcDbLine
 10
0.0
 20
0.0
 30
0.0
 11
-1.0
 21
0.0
 31
0.0
  0
LINE
  5
A2
330
9E
100
AcDbEntity
  8
0
  6
CONTINUOUS
 62
     0
100
AcDbLine
 10
0.0
 20
0.0
 30
0.0
 11
0.7071067811865475
 21
0.7071067811865475
 31
0.0
  0
LINE
  5
A3
330
9E
100
AcDbEntity
  8
0
  6
CONTINUOUS
 62
     0
100
AcDbLine
 10
0.0
 20
0.0
 30
0.0
 11
-0.7071067811865475
 21
-0.7071067811865475
 31
0.0
  0
ENDBLK
  5
A0
330
9E
100
AcDbEntity
  8
0
100
AcDbBlockEnd
  0
BLOCK
  5
A5
330
A4
100
AcDbEntity
  8
0
100
AcDbBlockBegin
  2
FXTIP_CIVIL_S
 70
     0
 10
0.0
 20
0.0
 30
0.0
  3
FXTIP_CIVIL_S
  1
FXTIP_CIVIL_S
  0
LINE
  5
A7
330
A4
100
AcDbEntity
  8
0
  6
CONTINUOUS
 62
     0
100
AcDbLine
 10
0.0
 20
0.0
 30
0.0
 11
-1.0
 21
0.0000000000000001
 31
0.0
  0
LINE
  5
A8
330
A4
100
AcDbEntity
  8
0
  6
CONTINUOUS
 62
     0
100
AcDbLine
 10
0.0
 20
-0.1
 30
0.0
 11
-1.0
 21
-0.0999999999999999
 31
0.0
  0
LINE
  5
A9
330
A4
100
AcDbEntity
  8
0
  6
CONTINUOUS
 62
     0
100
AcDbLine
 10
0.0
 20
-0.2
 30
0.0
 11
-1.0
 21
-0.1999999999999999
 31
0.0
  0
ENDBLK
  5
A6
330
A4
100
AcDbEntity
  8
0
100
AcDbBlockEnd
  0
BLOCK
  5
AB
330
AA
100
AcDbEntity
  8
0
100
AcDbBlockBegin
  2
FXTIP_CIVIL_E
 70
     0
 10
0.0
 20
0.0
 30
0.0
  3
FXTIP_CIVIL_E
  1
FXTIP_CIVIL_E
  0
LINE
  5
AD
330
AA
100
AcDbEntity
  8
0
  6
CONTINUOUS
 62
     0
100
AcDbLine
 10
0.0
 20
0.0
 30
0.0
 11
-1.0
 21
0.0
 31
0.0
  0
LINE
  5
AE
330
AA
100
AcDbEntity
  8
0
  6
CONTINUOUS
 62
     0
100
AcDbLine
 10
0.0
 20
0.1
 30
0.0
 11
-1.0
 21
0.1
 31
0.0
  0
LINE
  5
AF
330
AA
100
AcDbEntity
  8
0
  6
CONTINUOUS
 62
     0
100
AcDbLine
 10
0.0
 20
0.2
 30
0.0
 11
-1.0
 21
0.2
 31
0.0
  0
ENDBLK
  5
AC
330
AA
100
AcDbEntity
  8
0
100
AcDbBlockEnd
  0
BLOCK
  5
B1
330
B0
100
AcDbEntity
  8
0
100
AcDbBlockBegin
  2
FXTIP_WHITEDOT_S
 70
     0
 10
0.0
 20
0.0
 30
0.0
  3
FXTIP_WHITEDOT_S
  1
FXTIP_WHITEDOT_S
  0
LINE
  5
B3
330
B0
100
AcDbEntity
  8
0
  6
CONTINUOUS
 62
     0
100
AcDbLine
 10
0.0
 20
0.0
 30
0.0
 11
-1.0
 21
0.0000000000000001
 31
0.0
  0
CIRCLE
  5
B4
330
B0
100
AcDbEntity
  8
0
  6
CONTINUOUS
 62
     0
100
AcDbCircle
 10
0.0
 20
0.0
 30
0.0
 40
0.2
  0
ENDBLK
  5
B2
330
B0
100
AcDbEntity
  8
0
100
AcDbBlockEnd
  0
BLOCK
  5
B6
330
B5
100
AcDbEntity
  8
0
100
AcDbBlockBegin
  2
FXTIP_WHITEDOT_E
 70
     0
 10
0.0
 20
0.0
 30
0.0
  3
FXTIP_WHITEDOT_E
  1
FXTIP_WHITEDOT_E
  0
LINE
  5
B8
330
B5
100
AcDbEntity
  8
0
  6
CONTINUOUS
 62
     0
100
AcDbLine
 10
0.0
 20
0.0
 30
0.0
 11
-1.0
 21
0.0
 31
0.0
  0
CIRCLE
  5
B9
330
B5
100
AcDbEntity
  8
0
  6
CONTINUOUS
 62
     0
100
AcDbCircle
 10
0.0
 20
0.0
 30
0.0
 40
0.2
  0
ENDBLK
  5
B7
330
B5
100
AcDbEntity
  8
0
100
AcDbBlockEnd
  0
BLOCK
  5
BB
330
BA
100
AcDbEntity
  8
0
100
AcDbBlockBegin
  2
FXTIP_UPARROW_S
 70
     0
 10
0.0
 20
0.0
 30
0.0
  3
FXTIP_UPARROW_S
  1
FXTIP_UPARROW_S
  0
LINE
  5
BD
330
BA
100
AcDbEntity
  8
0
  6
CONTINUOUS
 62
     0
100
AcDbLine
 10
0.0
 20
0.0
 30
0.0
 11
-1.0
 21
0.0000000000000001
 31
0.0
  0
LINE
  5
BE
330
BA
100
AcDbEntity
  8
0
  6
CONTINUOUS
 62
     0
100
AcDbLine
 10
0.0
 20
0.0
 30
0.0
 11
-0.9659258262890683
 21
-0.2588190451025206
 31
0.0
  0
ENDBLK
  5
BC
330
BA
100
AcDbEntity
  8
0
100
AcDbBlockEnd
  0
BLOCK
  5
C0
330
BF
100
AcDbEntity
  8
0
100
AcDbBlockBegin
  2
FXTIP_UPARROW_E
 70
     0
 10
0.0
 20
0.0
 30
0.0
  3
FXTIP_UPARROW_E
  1
FXTIP_UPARROW_E
  0
LINE
  5
C2
330
BF
100
AcDbEntity
  8
0
  6
CONTINUOUS
 62
     0
100
AcDbLine
 10
0.0
 20
0.0
 30
0.0
 11
-1.0
 21
0.0
 31
0.0
  0
LINE
  5
C3
330
BF
100
AcDbEntity
  8
0
  6
CONTINUOUS
 62
     0
100
AcDbLine
 10
0.0
 20
0.0
 30
0.0
 11
-0.9659258262890683
 21
0.2588190451025207
 31
0.0
  0
ENDBLK
  5
C1
330
BF
100
AcDbEntity
  8
0
100
AcDbBlockEnd
  0
BLOCK
  5
C5
330
C4
100
AcDbEntity
  8
0
100
AcDbBlockBegin
  2
FXTIP_DOWNARROW_S
 70
     0
 10
0.0
 20
0.0
 30
0.0
  3
FXTIP_DOWNARROW_S
  1
FXTIP_DOWNARROW_S
  0
LINE
  5
C7
330
C4
100
AcDbEntity
  8
0
  6
CONTINUOUS
 62
     0
100
AcDbLine
 10
0.0
 20
0.0
 30
0.0
 11
-1.0
 21
0.0000000000000001
 31
0.0
  0
LINE
  5
C8
330
C4
100
AcDbEntity
  8
0
  6
CONTINUOUS
 62
     0
100
AcDbLine
 10
0.0
 20
0.0
 30
0.0
 11
-0.9659258262890683
 21
0.2588190451025209
 31
0.0
  0
ENDBLK
  5
C6
330
C4
100
AcDbEntity
  8
0
100
AcDbBlockEnd
  0
BLOCK
  5
CA
330
C9
100
AcDbEntity
  8
0
100
AcDbBlockBegin
  2
FXTIP_DOWNARROW_E
 70
     0
 10
0.0
 20
0.0
 30
0.0
  3
FXTIP_DOWNARROW_E
  1
FXTIP_DOWNARROW_E
  0
LINE
  5
CC
330
C9
100
AcDbEntity
  8
0
  6
CONTINUOUS
 62
     0
100
AcDbLine
 10
0.0
 20
0.0
 30
0.0
 11
-1.0
 21
0.0
 31
0.0
  0
LINE
  5
CD
330
C9
100
AcDbEntity
  8
0
  6
CONTINUOUS
 62
     0
100
AcDbLine
 10
0.0
 20
0.0
 30
0.0
 11
-0.9659258262890683
 21
-0.2588190451025207
 31
0.0
  0
ENDBLK
  5
CB
330
C9
100
AcDbEntity
  8
0
100
AcDbBlockEnd
  0
BLOCK
  5
CF
330
CE
100
AcDbEntity
  8
0
100
AcDbBlockBegin
  2
FXTIP_BLACKTRIANGLE_S
 70
     0
 10
0.0
 20
0.0
 30
0.0
  3
FXTIP_BLACKTRIANGLE_S
  1
FXTIP_BLACKTRIANGLE_S
  0
LINE
  5
D1
330
CE
100
AcDbEntity
  8
0
  6
CONTINUOUS
 62
     0
100
AcDbLine
 10
0.0
 20
0.0
 30
0.0
 11
-1.0
 21
0.0000000000000001
 31
0.0
  0
SOLID
  5
D2
330
CE
100
AcDbEntity
  8
0
  6
CONTINUOUS
 62
     0
100
AcDbTrace
 10
0.0
 20
0.0
 30
0.0
 11
-0.9659258262890683
 21
-0.2588190451025206
 31
0.0
 12
-0.9659258262890683
 22
0.2588190451025209
 32
0.0
 13
-0.9659258262890683
 23
0.2588190451025209
 33
0.0
  0
ENDBLK
  5
D0
330
CE
100
AcDbEntity
  8
0
100
AcDbBlockEnd
  0
BLOCK
  5
D4
330
D3
100
AcDbEntity
  8
0
100
AcDbBlockBegin
  2
FXTIP_BLACKTRIANGLE_E
 70
     0
 10
0.0
 20
0.0
 30
0.0
  3
FXTIP_BLACKTRIANGLE_E
  1
FXTIP_BLACKTRIANGLE_E
  0
LINE
  5
D6
330
D3
100
AcDbEntity
  8
0
  6
CONTINUOUS
 62
     0
100
AcDbLine
 10
0.0
 20
0.0
 30
0.0
 11
-1.0
 21
0.0
 31
0.0
  0
SOLID
  5
D7
330
D3
100
AcDbEntity
  8
0
  6
CONTINUOUS
 62
     0
100
AcDbTrace
 10
0.0
 20
0.0
 30
0.0
 11
-0.9659258262890683
 21
0.2588190451025207
 31
0.0
 12
-0.9659258262890683
 22
-0.2588190451025207
 32
0.0
 13
-0.9659258262890683
 23
-0.2588190451025207
 33
0.0
  0
ENDBLK
  5
D5
330
D3
100
AcDbEntity
  8
0
100
AcDbBlockEnd
  0
ENDSEC
  0
SECTION
  2
ENTITIES
  0
LINE
  5
DD
330
1F
100
AcDbEntity
  8
GR1_16
 62
     7
100
AcDbLine
 10
25.0
 20
12.0
 30
0.0
 11
25.0
 21
285.0
 31
0.0
  0
LINE
  5
DE
330
1F
100
AcDbEntity
  8
GR1_16
 62
     7
100
AcDbLine
 10
198.0
 20
285.0
 30
0.0
 11
25.0
 21
285.0
 31
0.0
  0
LINE
  5
DF
330
1F
100
AcDbEntity
  8
GR1_16
 62
     7
100
AcDbLine
 10
198.0
 20
285.0
 30
0.0
 11
198.0
 21
12.0
 31
0.0
  0
LINE
  5
E0
330
1F
100
AcDbEntity
  8
GR1_16
 62
     7
100
AcDbLine
 10
198.0
 20
12.0
 30
0.0
 11
25.0
 21
12.0
 31
0.0
  0
LINE
  5
E2
330
1F
100
AcDbEntity
  8
GR2_01
 62
     7
100
AcDbLine
 10
44.15522636782842
 20
250.0
 30
0.0
 11
61.65522636782842
 21
250.0
 31
0.0
  0
TEXT
  5
E3
330
1F
100
AcDbEntity
  8
GR2_01
 62
     7
100
AcDbText
 10
48.58107757568359
 20
251.0535816539418
 30
0.0
 40
3.03030303030303
  1
表面
 41
1.269230769230769
  7
ＭＳ_ゴシック
 72
     1
 11
53.58107757568359
 21
250.5000305175781
 31
0.0
100
AcDbText
 73
     1
  0
LINE
  5
E5
330
1F
100
AcDbEntity
  8
GR2_01
  6
0_35点線
 62
     7
100
AcDbLine
 10
45.0
 20
104.0
 30
0.0
 11
25.0
 21
104.0
 31
0.0
  0
LINE
  5
E6
330
1F
100
AcDbEntity
  8
GR2_01
  6
0_35点線
 62
     7
100
AcDbLine
 10
178.9999999999999
 20
104.0
 30
0.0
 11
198.0
 21
104.0
 31
0.0
  0
TEXT
  5
E7
330
1F
100
AcDbEntity
  8
GR2_01
 62
     7
100
AcDbText
 10
154.9427032470703
 20
13.55355113636364
 30
0.0
 40
3.03030303030303
  1
ＦＡ－ＴＢ１６ＸＹ１
 41
0.8884615384615386
  7
ＭＳ_ゴシック
 72
     1
 11
172.4427032470703
 21
13.0
 31
0.0
100
AcDbText
 73
     1
  0
LINE
  5
E8
330
1F
100
AcDbEntity
  8
GR2_01
 62
     7
100
AcDbLine
 10
44.15522636782842
 20
190.0
 30
0.0
 11
61.65522636782842
 21
190.0
 31
0.0
  0
TEXT
  5
E9
330
1F
100
AcDbEntity
  8
GR2_01
 62
     7
100
AcDbText
 10
48.58107757568359
 20
191.0535816539418
 30
0.0
 40
3.03030303030303
  1
裏面
 41
1.269230769230769
  7
ＭＳ_ゴシック
 72
     1
 11
53.58107757568359
 21
190.5000305175781
 31
0.0
100
AcDbText
 73
     1
  0
LINE
  5
EA
330
1F
100
AcDbEntity
  8
GR2_01
 62
     7
100
AcDbLine
 10
45.0
 20
164.0000000000001
 30
0.0
 11
179.0000000000001
 21
163.9999999999999
 31
0.0
  0
LINE
  5
EB
330
1F
100
AcDbEntity
  8
GR2_01
 62
     7
100
AcDbLine
 10
179.0000000000003
 20
245.0
 30
0.0
 11
45.0
 21
245.0
 31
0.0
  0
LINE
  5
EC
330
1F
100
AcDbEntity
  8
GR2_01
 62
     7
100
AcDbLine
 10
176.7700000000004
 20
245.0000000000001
 30
0.0
 11
176.7700000000006
 21
224.0
 31
0.0
  0
LINE
  5
ED
330
1F
100
AcDbEntity
  8
GR2_01
 62
     7
100
AcDbLine
 10
169.1500000000005
 20
245.0
 30
0.0
 11
169.1500000000002
 21
224.0
 31
0.0
  0
LINE
  5
EE
330
1F
100
AcDbEntity
  8
GR2_01
 62
     7
100
AcDbLine
 10
161.5300000000003
 20
245.0
 30
0.0
 11
161.5300000000006
 21
224.0
 31
0.0
  0
LINE
  5
EF
330
1F
100
AcDbEntity
  8
GR2_01
 62
     7
100
AcDbLine
 10
153.9100000000003
 20
245.0
 30
0.0
 11
153.9100000000003
 21
224.0
 31
0.0
  0
LINE
  5
F0
330
1F
100
AcDbEntity
  8
GR2_01
 62
     7
100
AcDbLine
 10
146.2900000000003
 20
245.0000000000001
 30
0.0
 11
146.2900000000003
 21
224.0
 31
0.0
  0
LINE
  5
F1
330
1F
100
AcDbEntity
  8
GR2_01
 62
     7
100
AcDbLine
 10
138.6700000000003
 20
244.9999999999999
 30
0.0
 11
138.6700000000005
 21
224.0
 31
0.0
  0
LINE
  5
F2
330
1F
100
AcDbEntity
  8
GR2_01
 62
     7
100
AcDbLine
 10
131.0500000000003
 20
245.0
 30
0.0
 11
131.0500000000003
 21
224.0
 31
0.0
  0
LINE
  5
F3
330
1F
100
AcDbEntity
  8
GR2_01
 62
     7
100
AcDbLine
 10
123.4300000000003
 20
245.0
 30
0.0
 11
123.4300000000003
 21
224.0
 31
0.0
  0
LINE
  5
F4
330
1F
100
AcDbEntity
  8
GR2_01
 62
     7
100
AcDbLine
 10
115.8100000000003
 20
245.0
 30
0.0
 11
115.8100000000003
 21
224.0
 31
0.0
  0
LINE
  5
F5
330
1F
100
AcDbEntity
  8
GR2_01
 62
     7
100
AcDbLine
 10
108.1900000000004
 20
245.0000000000001
 30
0.0
 11
108.1900000000003
 21
224.0
 31
0.0
  0
LINE
  5
F6
330
1F
100
AcDbEntity
  8
GR2_01
 62
     7
100
AcDbLine
 10
100.5700000000003
 20
245.0000000000002
 30
0.0
 11
100.5700000000002
 21
224.0
 31
0.0
  0
LINE
  5
F7
330
1F
100
AcDbEntity
  8
GR2_01
 62
     7
100
AcDbLine
 10
92.95000000000019
 20
244.9999999999998
 30
0.0
 11
92.95000000000027
 21
224.0000000000001
 31
0.0
  0
LINE
  5
F8
330
1F
100
AcDbEntity
  8
GR2_01
 62
     7
100
AcDbLine
 10
85.33000000000018
 20
245.0000000000003
 30
0.0
 11
85.3300000000001
 21
224.0000000000001
 31
0.0
  0
LINE
  5
F9
330
1F
100
AcDbEntity
  8
GR2_01
 62
     7
100
AcDbLine
 10
77.71000000000015
 20
245.0
 30
0.0
 11
77.7100000000002
 21
224.0000000000001
 31
0.0
  0
LINE
  5
FA
330
1F
100
AcDbEntity
  8
GR2_01
 62
     7
100
AcDbLine
 10
70.09000000000009
 20
245.0
 30
0.0
 11
70.09000000000009
 21
224.0000000000001
 31
0.0
  0
LINE
  5
FB
330
1F
100
AcDbEntity
  8
GR2_01
 62
     7
100
AcDbLine
 10
62.47000000000008
 20
244.9999999999999
 30
0.0
 11
62.47000000000008
 21
224.0000000000001
 31
0.0
  0
LINE
  5
FC
330
1F
100
AcDbEntity
  8
GR2_01
 62
     7
100
AcDbLine
 10
54.85000000000005
 20
245.0000000000001
 30
0.0
 11
54.84999999999999
 21
224.0000000000001
 31
0.0
  0
LINE
  5
FD
330
1F
100
AcDbEntity
  8
GR2_01
 62
     7
100
AcDbLine
 10
51.04000000000033
 20
245.0000000000005
 30
0.0
 11
51.04000000000022
 21
224.0000000000001
 31
0.0
  0
LINE
  5
FE
330
1F
100
AcDbEntity
  8
GR2_01
 62
     7
100
AcDbLine
 10
58.66000000000031
 20
245.0
 30
0.0
 11
58.66000000000034
 21
224.0000000000001
 31
0.0
  0
LINE
  5
FF
330
1F
100
AcDbEntity
  8
GR2_01
 62
     7
100
AcDbLine
 10
66.28000000000009
 20
244.9999999999989
 30
0.0
 11
66.28000000000031
 21
224.0000000000001
 31
0.0
  0
LINE
  5
100
330
1F
100
AcDbEntity
  8
GR2_01
 62
     7
100
AcDbLine
 10
73.90000000000026
 20
244.9999999999997
 30
0.0
 11
73.9000000000004
 21
224.0000000000001
 31
0.0
  0
LINE
  5
101
330
1F
100
AcDbEntity
  8
GR2_01
 62
     7
100
AcDbLine
 10
81.52000000000032
 20
245.0
 30
0.0
 11
81.52000000000035
 21
224.0000000000001
 31
0.0
  0
LINE
  5
102
330
1F
100
AcDbEntity
  8
GR2_01
 62
     7
100
AcDbLine
 10
89.14000000000036
 20
245.0
 30
0.0
 11
89.14000000000036
 21
224.0000000000001
 31
0.0
  0
LINE
  5
103
330
1F
100
AcDbEntity
  8
GR2_01
 62
     7
100
AcDbLine
 10
96.76000000000036
 20
245.0
 30
0.0
 11
96.76000000000036
 21
224.0000000000001
 31
0.0
  0
LINE
  5
104
330
1F
100
AcDbEntity
  8
GR2_01
 62
     7
100
AcDbLine
 10
104.3800000000004
 20
245.0
 30
0.0
 11
104.3800000000004
 21
224.0
 31
0.0
  0
LINE
  5
105
330
1F
100
AcDbEntity
  8
GR2_01
 62
     7
100
AcDbLine
 10
112.0000000000003
 20
244.9999999999999
 30
0.0
 11
112.0000000000004
 21
224.0
 31
0.0
  0
LINE
  5
106
330
1F
100
AcDbEntity
  8
GR2_01
 62
     7
100
AcDbLine
 10
119.6200000000003
 20
245.0
 30
0.0
 11
119.6200000000003
 21
224.0
 31
0.0
  0
LINE
  5
107
330
1F
100
AcDbEntity
  8
GR2_01
 62
     7
100
AcDbLine
 10
127.2400000000002
 20
244.9999999999997
 30
0.0
 11
127.2400000000004
 21
224.0
 31
0.0
  0
LINE
  5
108
330
1F
100
AcDbEntity
  8
GR2_01
 62
     7
100
AcDbLine
 10
134.8600000000003
 20
244.9999999999999
 30
0.0
 11
134.8600000000004
 21
224.0
 31
0.0
  0
LINE
  5
109
330
1F
100
AcDbEntity
  8
GR2_01
 62
     7
100
AcDbLine
 10
142.4800000000003
 20
245.0
 30
0.0
 11
142.4800000000003
 21
224.0
 31
0.0
  0
LINE
  5
10A
330
1F
100
AcDbEntity
  8
GR2_01
 62
     7
100
AcDbLine
 10
150.1000000000003
 20
244.9999999999999
 30
0.0
 11
150.1000000000004
 21
224.0
 31
0.0
  0
LINE
  5
10B
330
1F
100
AcDbEntity
  8
GR2_01
 62
     7
100
AcDbLine
 10
157.7200000000003
 20
245.0
 30
0.0
 11
157.7200000000004
 21
224.0
 31
0.0
  0
LINE
  5
10C
330
1F
100
AcDbEntity
  8
GR2_01
 62
     7
100
AcDbLine
 10
165.3400000000004
 20
245.0
 30
0.0
 11
165.3400000000004
 21
224.0
 31
0.0
  0
LINE
  5
10D
330
1F
100
AcDbEntity
  8
GR2_01
 62
     7
100
AcDbLine
 10
172.9600000000002
 20
245.0
 30
0.0
 11
172.9600000000004
 21
224.0
 31
0.0
  0
TEXT
  5
10E
330
1F
100
AcDbEntity
  8
GR2_01
 62
     7
100
AcDbText
 10
48.47999572753906
 20
242.1768152410334
 30
0.0
 40
1.515151515151515
  1
０
 41
0.7615384615384615
  7
ＭＳ_ゴシック
 72
     1
 11
49.22999572753906
 21
241.9000396728516
 31
0.0
100
AcDbText
 73
     1
  0
TEXT
  5
10F
330
1F
100
AcDbEntity
  8
GR2_01
 62
     7
100
AcDbText
 10
56.10000610351562
 20
242.1768152410334
 30
0.0
 40
1.515151515151515
  1
１
 41
0.7615384615384615
  7
ＭＳ_ゴシック
 72
     1
 11
56.85000610351562
 21
241.9000396728516
 31
0.0
100
AcDbText
 73
     1
  0
TEXT
  5
110
330
1F
100
AcDbEntity
  8
GR2_01
 62
     7
100
AcDbText
 10
63.71998596191406
 20
242.1768152410334
 30
0.0
 40
1.515151515151515
  1
２
 41
0.7615384615384615
  7
ＭＳ_ゴシック
 72
     1
 11
64.46998596191406
 21
241.9000396728516
 31
0.0
100
AcDbText
 73
     1
  0
TEXT
  5
111
330
1F
100
AcDbEntity
  8
GR2_01
 62
     7
100
AcDbText
 10
71.33998107910156
 20
242.1768152410334
 30
0.0
 40
1.515151515151515
  1
３
 41
0.7615384615384615
  7
ＭＳ_ゴシック
 72
     1
 11
72.08998107910156
 21
241.9000396728516
 31
0.0
100
AcDbText
 73
     1
  0
TEXT
  5
112
330
1F
100
AcDbEntity
  8
GR2_01
 62
     7
100
AcDbText
 10
78.96000671386719
 20
242.1768152410334
 30
0.0
 40
1.515151515151515
  1
４
 41
0.7615384615384615
  7
ＭＳ_ゴシック
 72
     1
 11
79.71000671386719
 21
241.9000396728516
 31
0.0
100
AcDbText
 73
     1
  0
TEXT
  5
113
330
1F
100
AcDbEntity
  8
GR2_01
 62
     7
100
AcDbText
 10
86.57998657226562
 20
242.1768152410334
 30
0.0
 40
1.515151515151515
  1
５
 41
0.7615384615384615
  7
ＭＳ_ゴシック
 72
     1
 11
87.32998657226562
 21
241.9000396728516
 31
0.0
100
AcDbText
 73
     1
  0
TEXT
  5
114
330
1F
100
AcDbEntity
  8
GR2_01
 62
     7
100
AcDbText
 10
94.19999694824219
 20
242.1768152410334
 30
0.0
 40
1.515151515151515
  1
６
 41
0.7615384615384615
  7
ＭＳ_ゴシック
 72
     1
 11
94.94999694824219
 21
241.9000396728516
 31
0.0
100
AcDbText
 73
     1
  0
TEXT
  5
115
330
1F
100
AcDbEntity
  8
GR2_01
 62
     7
100
AcDbText
 10
101.8199768066406
 20
242.1768152410334
 30
0.0
 40
1.515151515151515
  1
７
 41
0.7615384615384615
  7
ＭＳ_ゴシック
 72
     1
 11
102.5699768066406
 21
241.9000396728516
 31
0.0
100
AcDbText
 73
     1
  0
TEXT
  5
116
330
1F
100
AcDbEntity
  8
GR2_01
 62
     7
100
AcDbText
 10
109.4399719238281
 20
242.1768152410334
 30
0.0
 40
1.515151515151515
  1
８
 41
0.7615384615384615
  7
ＭＳ_ゴシック
 72
     1
 11
110.1899719238281
 21
241.9000396728516
 31
0.0
100
AcDbText
 73
     1
  0
TEXT
  5
117
330
1F
100
AcDbEntity
  8
GR2_01
 62
     7
100
AcDbText
 10
117.0599822998047
 20
242.1768152410334
 30
0.0
 40
1.515151515151515
  1
９
 41
0.7615384615384615
  7
ＭＳ_ゴシック
 72
     1
 11
117.8099822998047
 21
241.9000396728516
 31
0.0
100
AcDbText
 73
     1
  0
TEXT
  5
118
330
1F
100
AcDbEntity
  8
GR2_01
 62
     7
100
AcDbText
 10
51.53999328613281
 20
242.1768152410334
 30
0.0
 40
1.515151515151515
  1
０Ｖ
 41
0.7615384615384615
  7
ＭＳ_ゴシック
 72
     1
 11
53.03999328613281
 21
241.9000396728516
 31
0.0
100
AcDbText
 73
     1
  0
TEXT
  5
119
330
1F
100
AcDbEntity
  8
GR2_01
 62
     7
100
AcDbText
 10
124.6799774169922
 20
242.1768152410334
 30
0.0
 40
1.515151515151515
  1
Ａ
 41
0.7615384615384615
  7
ＭＳ_ゴシック
 72
     1
 11
125.4299774169922
 21
241.9000396728516
 31
0.0
100
AcDbText
 73
     1
  0
TEXT
  5
11A
330
1F
100
AcDbEntity
  8
GR2_01
 62
     7
100
AcDbText
 10
132.3000030517578
 20
242.1768152410334
 30
0.0
 40
1.515151515151515
  1
Ｂ
 41
0.7615384615384615
  7
ＭＳ_ゴシック
 72
     1
 11
133.0500030517578
 21
241.9000396728516
 31
0.0
100
AcDbText
 73
     1
  0
TEXT
  5
11B
330
1F
100
AcDbEntity
  8
GR2_01
 62
     7
100
AcDbText
 10
139.9199981689453
 20
242.1768152410334
 30
0.0
 40
1.515151515151515
  1
Ｃ
 41
0.7615384615384615
  7
ＭＳ_ゴシック
 72
     1
 11
140.6699981689453
 21
241.9000396728516
 31
0.0
100
AcDbText
 73
     1
  0
TEXT
  5
11C
330
1F
100
AcDbEntity
  8
GR2_01
 62
     7
100
AcDbText
 10
147.5400085449219
 20
242.1768152410334
 30
0.0
 40
1.515151515151515
  1
Ｄ
 41
0.7615384615384615
  7
ＭＳ_ゴシック
 72
     1
 11
148.2900085449219
 21
241.9000396728516
 31
0.0
100
AcDbText
 73
     1
  0
TEXT
  5
11D
330
1F
100
AcDbEntity
  8
GR2_01
 62
     7
100
AcDbText
 10
155.1599884033203
 20
242.1768152410334
 30
0.0
 40
1.515151515151515
  1
Ｅ
 41
0.7615384615384615
  7
ＭＳ_ゴシック
 72
     1
 11
155.9099884033203
 21
241.9000396728516
 31
0.0
100
AcDbText
 73
     1
  0
TEXT
  5
11E
330
1F
100
AcDbEntity
  8
GR2_01
 62
     7
100
AcDbText
 10
162.7799835205078
 20
242.1768152410334
 30
0.0
 40
1.515151515151515
  1
Ｆ
 41
0.7615384615384615
  7
ＭＳ_ゴシック
 72
     1
 11
163.5299835205078
 21
241.9000396728516
 31
0.0
100
AcDbText
 73
     1
  0
TEXT
  5
11F
330
1F
100
AcDbEntity
  8
GR2_01
 62
     7
100
AcDbText
 10
169.5698672533035
 20
242.1768152410334
 30
0.0
 40
1.515151515151515
  1
２４Ｖ
 41
0.5165658694047194
  7
ＭＳ_ゴシック
 72
     1
 11
171.0960845947266
 21
241.9000396728516
 31
0.0
100
AcDbText
 73
     1
  0
TEXT
  5
120
330
1F
100
AcDbEntity
  8
GR2_01
 62
     7
100
AcDbText
 10
173.4599761962891
 20
242.1768152410334
 30
0.0
 40
1.515151515151515
  1
０Ｖ
 41
0.7615384615384615
  7
ＭＳ_ゴシック
 72
     1
 11
174.9599761962891
 21
241.9000396728516
 31
0.0
100
AcDbText
 73
     1
  0
LINE
  5
121
330
1F
100
AcDbEntity
  8
GR2_01
 62
     7
100
AcDbLine
 10
47.22999999999996
 20
245.0000000000005
 30
0.0
 11
47.22999999999988
 21
224.0000000000001
 31
0.0
  0
LINE
  5
122
330
1F
100
AcDbEntity
  8
GR2_01
 62
     7
100
AcDbLine
 10
176.7700000000004
 20
241.0
 30
0.0
 11
47.22999999999996
 21
241.0
 31
0.0
  0
LINE
  5
123
330
1F
100
AcDbEntity
  8
GR2_01
 62
     7
100
AcDbLine
 10
179.0000000000001
 20
185.0
 30
0.0
 11
45.0
 21
185.0
 31
0.0
  0
LINE
  5
124
330
1F
100
AcDbEntity
  8
GR2_01
 62
     7
100
AcDbLine
 10
44.99999999999997
 20
174.5000000000001
 30
0.0
 11
179.0000000000001
 21
174.4999999999999
 31
0.0
  0
LINE
  5
125
330
1F
100
AcDbEntity
  8
GR2_01
 62
     7
100
AcDbLine
 10
174.8650000000004
 20
185.0000000000001
 30
0.0
 11
174.8650000000005
 21
174.4999999999999
 31
0.0
  0
LINE
  5
126
330
1F
100
AcDbEntity
  8
GR2_01
 62
     7
100
AcDbLine
 10
167.2450000000005
 20
185.0
 30
0.0
 11
167.2450000000004
 21
174.4999999999999
 31
0.0
  0
LINE
  5
127
330
1F
100
AcDbEntity
  8
GR2_01
 62
     7
100
AcDbLine
 10
159.6250000000004
 20
185.0
 30
0.0
 11
159.6250000000005
 21
174.4999999999999
 31
0.0
  0
LINE
  5
128
330
1F
100
AcDbEntity
  8
GR2_01
 62
     7
100
AcDbLine
 10
152.0050000000004
 20
185.0
 30
0.0
 11
152.0050000000004
 21
174.4999999999999
 31
0.0
  0
LINE
  5
129
330
1F
100
AcDbEntity
  8
GR2_01
 62
     7
100
AcDbLine
 10
144.3850000000005
 20
185.0
 30
0.0
 11
144.3850000000004
 21
174.4999999999999
 31
0.0
  0
LINE
  5
12A
330
1F
100
AcDbEntity
  8
GR2_01
 62
     7
100
AcDbLine
 10
136.7650000000005
 20
185.0
 30
0.0
 11
136.7650000000006
 21
174.4999999999999
 31
0.0
  0
LINE
  5
12B
330
1F
100
AcDbEntity
  8
GR2_01
 62
     7
100
AcDbLine
 10
129.1450000000004
 20
185.0
 30
0.0
 11
129.1450000000004
 21
174.4999999999999
 31
0.0
  0
LINE
  5
12C
330
1F
100
AcDbEntity
  8
GR2_01
 62
     7
100
AcDbLine
 10
121.5250000000004
 20
185.0
 30
0.0
 11
121.5250000000005
 21
174.4999999999999
 31
0.0
  0
LINE
  5
12D
330
1F
100
AcDbEntity
  8
GR2_01
 62
     7
100
AcDbLine
 10
113.9050000000005
 20
185.0
 30
0.0
 11
113.9050000000005
 21
174.4999999999999
 31
0.0
  0
LINE
  5
12E
330
1F
100
AcDbEntity
  8
GR2_01
 62
     7
100
AcDbLine
 10
106.2850000000005
 20
185.0
 30
0.0
 11
106.2850000000005
 21
174.5
 31
0.0
  0
LINE
  5
12F
330
1F
100
AcDbEntity
  8
GR2_01
 62
     7
100
AcDbLine
 10
98.66500000000042
 20
185.0
 30
0.0
 11
98.66500000000042
 21
174.5
 31
0.0
  0
LINE
  5
130
330
1F
100
AcDbEntity
  8
GR2_01
 62
     7
100
AcDbLine
 10
91.04500000000027
 20
185.0
 30
0.0
 11
91.04500000000036
 21
174.5
 31
0.0
  0
LINE
  5
131
330
1F
100
AcDbEntity
  8
GR2_01
 62
     7
100
AcDbLine
 10
83.42500000000027
 20
185.0
 30
0.0
 11
83.4250000000003
 21
174.5
 31
0.0
  0
LINE
  5
132
330
1F
100
AcDbEntity
  8
GR2_01
 62
     7
100
AcDbLine
 10
75.80500000000026
 20
185.0
 30
0.0
 11
75.80500000000029
 21
174.5000000000001
 31
0.0
  0
LINE
  5
133
330
1F
100
AcDbEntity
  8
GR2_01
 62
     7
100
AcDbLine
 10
68.18500000000023
 20
185.0
 30
0.0
 11
68.18500000000023
 21
174.5000000000001
 31
0.0
  0
LINE
  5
134
330
1F
100
AcDbEntity
  8
GR2_01
 62
     7
100
AcDbLine
 10
60.5650000000002
 20
185.0
 30
0.0
 11
60.5650000000002
 21
174.5000000000001
 31
0.0
  0
LINE
  5
135
330
1F
100
AcDbEntity
  8
GR2_01
 62
     7
100
AcDbLine
 10
52.94500000000011
 20
185.0
 30
0.0
 11
52.94500000000014
 21
174.5000000000001
 31
0.0
  0
LINE
  5
136
330
1F
100
AcDbEntity
  8
GR2_01
 62
     7
100
AcDbLine
 10
49.13500000000042
 20
174.5000000000001
 30
0.0
 11
49.13500000000036
 21
164.0000000000001
 31
0.0
  0
LINE
  5
137
330
1F
100
AcDbEntity
  8
GR2_01
 62
     7
100
AcDbLine
 10
56.75500000000045
 20
174.5000000000001
 30
0.0
 11
56.75500000000045
 21
164.0000000000001
 31
0.0
  0
LINE
  5
138
330
1F
100
AcDbEntity
  8
GR2_01
 62
     7
100
AcDbLine
 10
64.37500000000034
 20
174.5000000000001
 30
0.0
 11
64.37500000000045
 21
164.0000000000001
 31
0.0
  0
LINE
  5
139
330
1F
100
AcDbEntity
  8
GR2_01
 62
     7
100
AcDbLine
 10
71.9950000000004
 20
174.5000000000001
 30
0.0
 11
71.99500000000046
 21
164.0
 31
0.0
  0
LINE
  5
13A
330
1F
100
AcDbEntity
  8
GR2_01
 62
     7
100
AcDbLine
 10
79.61500000000046
 20
174.5000000000001
 30
0.0
 11
79.61500000000046
 21
164.0
 31
0.0
  0
LINE
  5
13B
330
1F
100
AcDbEntity
  8
GR2_01
 62
     7
100
AcDbLine
 10
87.23500000000047
 20
174.5000000000001
 30
0.0
 11
87.23500000000047
 21
164.0
 31
0.0
  0
LINE
  5
13C
330
1F
100
AcDbEntity
  8
GR2_01
 62
     7
100
AcDbLine
 10
94.85500000000047
 20
174.5000000000001
 30
0.0
 11
94.85500000000047
 21
164.0
 31
0.0
  0
LINE
  5
13D
330
1F
100
AcDbEntity
  8
GR2_01
 62
     7
100
AcDbLine
 10
102.4750000000005
 20
174.5000000000001
 30
0.0
 11
102.4750000000005
 21
164.0
 31
0.0
  0
LINE
  5
13E
330
1F
100
AcDbEntity
  8
GR2_01
 62
     7
100
AcDbLine
 10
110.0950000000004
 20
174.5000000000001
 30
0.0
 11
110.0950000000005
 21
164.0000000000001
 31
0.0
  0
LINE
  5
13F
330
1F
100
AcDbEntity
  8
GR2_01
 62
     7
100
AcDbLine
 10
117.7150000000005
 20
174.5000000000001
 30
0.0
 11
117.7150000000005
 21
164.0
 31
0.0
  0
LINE
  5
140
330
1F
100
AcDbEntity
  8
GR2_01
 62
     7
100
AcDbLine
 10
125.3350000000004
 20
174.5000000000001
 30
0.0
 11
125.3350000000005
 21
163.9999999999999
 31
0.0
  0
LINE
  5
141
330
1F
100
AcDbEntity
  8
GR2_01
 62
     7
100
AcDbLine
 10
132.9550000000005
 20
174.5
 30
0.0
 11
132.9550000000005
 21
163.9999999999999
 31
0.0
  0
LINE
  5
142
330
1F
100
AcDbEntity
  8
GR2_01
 62
     7
100
AcDbLine
 10
140.5750000000004
 20
174.5000000000001
 30
0.0
 11
140.5750000000006
 21
164.0
 31
0.0
  0
LINE
  5
143
330
1F
100
AcDbEntity
  8
GR2_01
 62
     7
100
AcDbLine
 10
148.1950000000004
 20
174.5000000000001
 30
0.0
 11
148.1950000000005
 21
163.9999999999999
 31
0.0
  0
LINE
  5
144
330
1F
100
AcDbEntity
  8
GR2_01
 62
     7
100
AcDbLine
 10
155.8150000000005
 20
174.5
 30
0.0
 11
155.8150000000005
 21
164.0
 31
0.0
  0
LINE
  5
145
330
1F
100
AcDbEntity
  8
GR2_01
 62
     7
100
AcDbLine
 10
163.4350000000005
 20
174.5
 30
0.0
 11
163.4350000000005
 21
163.9999999999999
 31
0.0
  0
LINE
  5
146
330
1F
100
AcDbEntity
  8
GR2_01
 62
     7
100
AcDbLine
 10
171.0550000000004
 20
174.5000000000001
 30
0.0
 11
171.0550000000005
 21
163.9999999999999
 31
0.0
  0
TEXT
  5
147
330
1F
100
AcDbEntity
  8
GR2_01
 62
     7
100
AcDbText
 10
45.99998474121094
 20
182.2768060857599
 30
0.0
 40
1.515151515151515
  1
０
 41
0.7615384615384615
  7
ＭＳ_ゴシック
 72
     1
 11
46.74998474121094
 21
182.0000305175781
 31
0.0
100
AcDbText
 73
     1
  0
TEXT
  5
148
330
1F
100
AcDbEntity
  8
GR2_01
 62
     7
100
AcDbText
 10
168.2449798583984
 20
182.2768060857599
 30
0.0
 40
1.515151515151515
  1
２４Ｖ
 41
0.7615384615384615
  7
ＭＳ_ゴシック
 72
     1
 11
170.4949798583984
 21
182.0000305175781
 31
0.0
100
AcDbText
 73
     1
  0
TEXT
  5
149
330
1F
100
AcDbEntity
  8
GR2_01
 62
     7
100
AcDbText
 10
172.0549774169922
 20
171.7767755681818
 30
0.0
 40
1.515151515151515
  1
０Ｖ
 41
0.7615384615384615
  7
ＭＳ_ゴシック
 72
     1
 11
173.5549774169922
 21
171.5
 31
0.0
100
AcDbText
 73
     1
  0
TEXT
  5
14A
330
1F
100
AcDbEntity
  8
GR2_01
 62
     7
100
AcDbText
 10
178.4578264337118
 20
179.8472838401794
 30
0.0
 40
1.363636327512336
  1
－００１
 50
90.0
 41
0.6769231217539221
  7
ＭＳ_ゴシック
 72
     1
 11
178.7069244384766
 21
182.2472839355469
 31
0.0
100
AcDbText
 73
     1
  0
TEXT
  5
14B
330
1F
100
AcDbEntity
  8
GR2_01
 62
     7
100
AcDbText
 10
176.727418718868
 20
175.0091123580933
 30
0.0
 40
1.363636327512336
  1
８４５３６０７６
 50
90.0
 41
0.6769231217539221
  7
ＭＳ_ゴシック
 72
     1
 11
176.9765167236328
 21
179.8091125488281
 31
0.0
100
AcDbText
 73
     1
  0
LINE
  5
14C
330
1F
100
AcDbEntity
  8
GR2_01
 62
     7
100
AcDbLine
 10
179.0000000000003
 20
245.0000000000001
 30
0.0
 11
179.0000000000005
 21
224.0
 31
0.0
  0
LINE
  5
14D
330
1F
100
AcDbEntity
  8
GR2_01
 62
     7
100
AcDbLine
 10
44.99999999999997
 20
245.0
 30
0.0
 11
44.99999999999997
 21
224.0000000000001
 31
0.0
  0
LINE
  5
14E
330
1F
100
AcDbEntity
  8
GR2_01
 62
     7
100
AcDbLine
 10
44.99999999999997
 20
224.0000000000001
 30
0.0
 11
179.0000000000005
 21
224.0
 31
0.0
  0
LINE
  5
14F
330
1F
100
AcDbEntity
  8
GR2_01
 62
     7
100
AcDbLine
 10
179.0
 20
185.0
 30
0.0
 11
179.0
 21
163.9999999999999
 31
0.0
  0
LINE
  5
150
330
1F
100
AcDbEntity
  8
GR2_01
 62
     7
100
AcDbLine
 10
45.0
 20
185.0
 30
0.0
 11
45.0
 21
164.0000000000001
 31
0.0
  0
TEXT
  5
151
330
1F
100
AcDbEntity
  8
GR2_01
 62
     7
100
AcDbText
 10
59.13377106189728
 20
242.1768152410334
 30
0.0
 40
1.515151515151515
  1
２４Ｖ
 41
0.5165658694047194
  7
ＭＳ_ゴシック
 72
     1
 11
60.65998840332031
 21
241.9000396728516
 31
0.0
100
AcDbText
 73
     1
  0
TEXT
  5
152
330
1F
100
AcDbEntity
  8
GR2_01
 62
     7
100
AcDbText
 10
66.77999877929688
 20
242.1768152410334
 30
0.0
 40
1.515151515151515
  1
０Ｖ
 41
0.7615384615384615
  7
ＭＳ_ゴシック
 72
     1
 11
68.27999877929688
 21
241.9000396728516
 31
0.0
100
AcDbText
 73
     1
  0
TEXT
  5
153
330
1F
100
AcDbEntity
  8
GR2_01
 62
     7
100
AcDbText
 10
74.37376129627228
 20
242.1768152410334
 30
0.0
 40
1.515151515151515
  1
２４Ｖ
 41
0.5165658694047194
  7
ＭＳ_ゴシック
 72
     1
 11
75.89997863769531
 21
241.9000396728516
 31
0.0
100
AcDbText
 73
     1
  0
TEXT
  5
154
330
1F
100
AcDbEntity
  8
GR2_01
 62
     7
100
AcDbText
 10
82.01998901367188
 20
242.1768152410334
 30
0.0
 40
1.515151515151515
  1
０Ｖ
 41
0.7615384615384615
  7
ＭＳ_ゴシック
 72
     1
 11
83.51998901367188
 21
241.9000396728516
 31
0.0
100
AcDbText
 73
     1
  0
TEXT
  5
155
330
1F
100
AcDbEntity
  8
GR2_01
 62
     7
100
AcDbText
 10
89.6137820482254
 20
242.1768152410334
 30
0.0
 40
1.515151515151515
  1
２４Ｖ
 41
0.5165658694047194
  7
ＭＳ_ゴシック
 72
     1
 11
91.13999938964844
 21
241.9000396728516
 31
0.0
100
AcDbText
 73
     1
  0
TEXT
  5
156
330
1F
100
AcDbEntity
  8
GR2_01
 62
     7
100
AcDbText
 10
97.25999450683594
 20
242.1768152410334
 30
0.0
 40
1.515151515151515
  1
０Ｖ
 41
0.7615384615384615
  7
ＭＳ_ゴシック
 72
     1
 11
98.75999450683594
 21
241.9000396728516
 31
0.0
100
AcDbText
 73
     1
  0
TEXT
  5
157
330
1F
100
AcDbEntity
  8
GR2_01
 62
     7
100
AcDbText
 10
104.8537570238113
 20
242.1768152410334
 30
0.0
 40
1.515151515151515
  1
２４Ｖ
 41
0.5165658694047194
  7
ＭＳ_ゴシック
 72
     1
 11
106.3799743652344
 21
241.9000396728516
 31
0.0
100
AcDbText
 73
     1
  0
TEXT
  5
158
330
1F
100
AcDbEntity
  8
GR2_01
 62
     7
100
AcDbText
 10
112.5
 20
242.1768152410334
 30
0.0
 40
1.515151515151515
  1
０Ｖ
 41
0.7615384615384615
  7
ＭＳ_ゴシック
 72
     1
 11
114.0
 21
241.9000396728516
 31
0.0
100
AcDbText
 73
     1
  0
TEXT
  5
159
330
1F
100
AcDbEntity
  8
GR2_01
 62
     7
100
AcDbText
 10
120.0937625169754
 20
242.1768152410334
 30
0.0
 40
1.515151515151515
  1
２４Ｖ
 41
0.5165658694047194
  7
ＭＳ_ゴシック
 72
     1
 11
121.6199798583984
 21
241.9000396728516
 31
0.0
100
AcDbText
 73
     1
  0
TEXT
  5
15A
330
1F
100
AcDbEntity
  8
GR2_01
 62
     7
100
AcDbText
 10
127.739990234375
 20
242.1768152410334
 30
0.0
 40
1.515151515151515
  1
０Ｖ
 41
0.7615384615384615
  7
ＭＳ_ゴシック
 72
     1
 11
129.239990234375
 21
241.9000396728516
 31
0.0
100
AcDbText
 73
     1
  0
TEXT
  5
15B
330
1F
100
AcDbEntity
  8
GR2_01
 62
     7
100
AcDbText
 10
135.3337680101395
 20
242.1768152410334
 30
0.0
 40
1.515151515151515
  1
２４Ｖ
 41
0.5165658694047194
  7
ＭＳ_ゴシック
 72
     1
 11
136.8599853515625
 21
241.9000396728516
 31
0.0
100
AcDbText
 73
     1
  0
TEXT
  5
15C
330
1F
100
AcDbEntity
  8
GR2_01
 62
     7
100
AcDbText
 10
142.9799957275391
 20
242.1768152410334
 30
0.0
 40
1.515151515151515
  1
０Ｖ
 41
0.7615384615384615
  7
ＭＳ_ゴシック
 72
     1
 11
144.4799957275391
 21
241.9000396728516
 31
0.0
100
AcDbText
 73
     1
  0
TEXT
  5
15D
330
1F
100
AcDbEntity
  8
GR2_01
 62
     7
100
AcDbText
 10
150.5737429857254
 20
242.1768152410334
 30
0.0
 40
1.515151515151515
  1
２４Ｖ
 41
0.5165658694047194
  7
ＭＳ_ゴシック
 72
     1
 11
152.0999603271484
 21
241.9000396728516
 31
0.0
100
AcDbText
 73
     1
  0
TEXT
  5
15E
330
1F
100
AcDbEntity
  8
GR2_01
 62
     7
100
AcDbText
 10
158.2199859619141
 20
242.1768152410334
 30
0.0
 40
1.515151515151515
  1
０Ｖ
 41
0.7615384615384615
  7
ＭＳ_ゴシック
 72
     1
 11
159.7199859619141
 21
241.9000396728516
 31
0.0
100
AcDbText
 73
     1
  0
TEXT
  5
15F
330
1F
100
AcDbEntity
  8
GR2_01
 62
     7
100
AcDbText
 10
165.8137637376785
 20
242.1768152410334
 30
0.0
 40
1.515151515151515
  1
２４Ｖ
 41
0.5165658694047194
  7
ＭＳ_ゴシック
 72
     1
 11
167.3399810791016
 21
241.9000396728516
 31
0.0
100
AcDbText
 73
     1
  0
TEXT
  5
160
330
1F
100
AcDbEntity
  8
GR2_01
 62
     7
100
AcDbText
 10
50.13499450683594
 20
171.7767755681818
 30
0.0
 40
1.515151515151515
  1
０Ｖ
 41
0.7615384615384615
  7
ＭＳ_ゴシック
 72
     1
 11
51.63499450683594
 21
171.5
 31
0.0
100
AcDbText
 73
     1
  0
TEXT
  5
161
330
1F
100
AcDbEntity
  8
GR2_01
 62
     7
100
AcDbText
 10
57.75498962402344
 20
171.7768060857599
 30
0.0
 40
1.515151515151515
  1
２４Ｖ
 41
0.7615384615384615
  7
ＭＳ_ゴシック
 72
     1
 11
60.00498962402344
 21
171.5000305175781
 31
0.0
100
AcDbText
 73
     1
  0
TEXT
  5
162
330
1F
100
AcDbEntity
  8
GR2_01
 62
     7
100
AcDbText
 10
65.37498474121094
 20
171.7767755681818
 30
0.0
 40
1.515151515151515
  1
０Ｖ
 41
0.7615384615384615
  7
ＭＳ_ゴシック
 72
     1
 11
66.87498474121094
 21
171.5
 31
0.0
100
AcDbText
 73
     1
  0
TEXT
  5
163
330
1F
100
AcDbEntity
  8
GR2_01
 62
     7
100
AcDbText
 10
72.9949951171875
 20
171.7768060857599
 30
0.0
 40
1.515151515151515
  1
２４Ｖ
 41
0.7615384615384615
  7
ＭＳ_ゴシック
 72
     1
 11
75.2449951171875
 21
171.5000305175781
 31
0.0
100
AcDbText
 73
     1
  0
TEXT
  5
164
330
1F
100
AcDbEntity
  8
GR2_01
 62
     7
100
AcDbText
 10
80.614990234375
 20
171.7767755681818
 30
0.0
 40
1.515151515151515
  1
０Ｖ
 41
0.7615384615384615
  7
ＭＳ_ゴシック
 72
     1
 11
82.114990234375
 21
171.5
 31
0.0
100
AcDbText
 73
     1
  0
TEXT
  5
165
330
1F
100
AcDbEntity
  8
GR2_01
 62
     7
100
AcDbText
 10
88.23500061035156
 20
171.7768060857599
 30
0.0
 40
1.515151515151515
  1
２４Ｖ
 41
0.7615384615384615
  7
ＭＳ_ゴシック
 72
     1
 11
90.48500061035156
 21
171.5000305175781
 31
0.0
100
AcDbText
 73
     1
  0
TEXT
  5
166
330
1F
100
AcDbEntity
  8
GR2_01
 62
     7
100
AcDbText
 10
95.85498046875
 20
171.7767755681818
 30
0.0
 40
1.515151515151515
  1
０Ｖ
 41
0.7615384615384615
  7
ＭＳ_ゴシック
 72
     1
 11
97.35498046875
 21
171.5
 31
0.0
100
AcDbText
 73
     1
  0
TEXT
  5
167
330
1F
100
AcDbEntity
  8
GR2_01
 62
     7
100
AcDbText
 10
103.4749908447266
 20
171.7768060857599
 30
0.0
 40
1.515151515151515
  1
２４Ｖ
 41
0.7615384615384615
  7
ＭＳ_ゴシック
 72
     1
 11
105.7249908447266
 21
171.5000305175781
 31
0.0
100
AcDbText
 73
     1
  0
TEXT
  5
168
330
1F
100
AcDbEntity
  8
GR2_01
 62
     7
100
AcDbText
 10
111.0949859619141
 20
171.7767755681818
 30
0.0
 40
1.515151515151515
  1
０Ｖ
 41
0.7615384615384615
  7
ＭＳ_ゴシック
 72
     1
 11
112.5949859619141
 21
171.5
 31
0.0
100
AcDbText
 73
     1
  0
TEXT
  5
169
330
1F
100
AcDbEntity
  8
GR2_01
 62
     7
100
AcDbText
 10
118.7149963378906
 20
171.7768060857599
 30
0.0
 40
1.515151515151515
  1
２４Ｖ
 41
0.7615384615384615
  7
ＭＳ_ゴシック
 72
     1
 11
120.9649963378906
 21
171.5000305175781
 31
0.0
100
AcDbText
 73
     1
  0
TEXT
  5
16A
330
1F
100
AcDbEntity
  8
GR2_01
 62
     7
100
AcDbText
 10
126.3349914550781
 20
171.7767755681818
 30
0.0
 40
1.515151515151515
  1
０Ｖ
 41
0.7615384615384615
  7
ＭＳ_ゴシック
 72
     1
 11
127.8349914550781
 21
171.5
 31
0.0
100
AcDbText
 73
     1
  0
TEXT
  5
16B
330
1F
100
AcDbEntity
  8
GR2_01
 62
     7
100
AcDbText
 10
133.9549865722656
 20
171.7768060857599
 30
0.0
 40
1.515151515151515
  1
２４Ｖ
 41
0.7615384615384615
  7
ＭＳ_ゴシック
 72
     1
 11
136.2049865722656
 21
171.5000305175781
 31
0.0
100
AcDbText
 73
     1
  0
TEXT
  5
16C
330
1F
100
AcDbEntity
  8
GR2_01
 62
     7
100
AcDbText
 10
141.5749816894531
 20
171.7767755681818
 30
0.0
 40
1.515151515151515
  1
０Ｖ
 41
0.7615384615384615
  7
ＭＳ_ゴシック
 72
     1
 11
143.0749816894531
 21
171.5
 31
0.0
100
AcDbText
 73
     1
  0
TEXT
  5
16D
330
1F
100
AcDbEntity
  8
GR2_01
 62
     7
100
AcDbText
 10
149.1950073242188
 20
171.7768060857599
 30
0.0
 40
1.515151515151515
  1
２４Ｖ
 41
0.7615384615384615
  7
ＭＳ_ゴシック
 72
     1
 11
151.4450073242188
 21
171.5000305175781
 31
0.0
100
AcDbText
 73
     1
  0
TEXT
  5
16E
330
1F
100
AcDbEntity
  8
GR2_01
 62
     7
100
AcDbText
 10
156.8149871826172
 20
171.7767755681818
 30
0.0
 40
1.515151515151515
  1
０Ｖ
 41
0.7615384615384615
  7
ＭＳ_ゴシック
 72
     1
 11
158.3149871826172
 21
171.5
 31
0.0
100
AcDbText
 73
     1
  0
TEXT
  5
16F
330
1F
100
AcDbEntity
  8
GR2_01
 62
     7
100
AcDbText
 10
164.4349822998047
 20
171.7768060857599
 30
0.0
 40
1.515151515151515
  1
２４Ｖ
 41
0.7615384615384615
  7
ＭＳ_ゴシック
 72
     1
 11
166.6849822998047
 21
171.5000305175781
 31
0.0
100
AcDbText
 73
     1
  0
TEXT
  5
170
330
1F
100
AcDbEntity
  8
GR2_01
 62
     7
100
AcDbText
 10
53.94499206542969
 20
182.2768060857599
 30
0.0
 40
1.515151515151515
  1
１
 41
0.7615384615384615
  7
ＭＳ_ゴシック
 72
     1
 11
54.69499206542969
 21
182.0000305175781
 31
0.0
100
AcDbText
 73
     1
  0
TEXT
  5
171
330
1F
100
AcDbEntity
  8
GR2_01
 62
     7
100
AcDbText
 10
61.56498718261719
 20
182.2768060857599
 30
0.0
 40
1.515151515151515
  1
２
 41
0.7615384615384615
  7
ＭＳ_ゴシック
 72
     1
 11
62.31498718261719
 21
182.0000305175781
 31
0.0
100
AcDbText
 73
     1
  0
TEXT
  5
172
330
1F
100
AcDbEntity
  8
GR2_01
 62
     7
100
AcDbText
 10
69.18498229980469
 20
182.2768060857599
 30
0.0
 40
1.515151515151515
  1
３
 41
0.7615384615384615
  7
ＭＳ_ゴシック
 72
     1
 11
69.93498229980469
 21
182.0000305175781
 31
0.0
100
AcDbText
 73
     1
  0
TEXT
  5
173
330
1F
100
AcDbEntity
  8
GR2_01
 62
     7
100
AcDbText
 10
76.80497741699219
 20
182.2768060857599
 30
0.0
 40
1.515151515151515
  1
４
 41
0.7615384615384615
  7
ＭＳ_ゴシック
 72
     1
 11
77.55497741699219
 21
182.0000305175781
 31
0.0
100
AcDbText
 73
     1
  0
TEXT
  5
174
330
1F
100
AcDbEntity
  8
GR2_01
 62
     7
100
AcDbText
 10
84.42498779296875
 20
182.2768060857599
 30
0.0
 40
1.515151515151515
  1
５
 41
0.7615384615384615
  7
ＭＳ_ゴシック
 72
     1
 11
85.17498779296875
 21
182.0000305175781
 31
0.0
100
AcDbText
 73
     1
  0
TEXT
  5
175
330
1F
100
AcDbEntity
  8
GR2_01
 62
     7
100
AcDbText
 10
92.04499816894531
 20
182.2768060857599
 30
0.0
 40
1.515151515151515
  1
６
 41
0.7615384615384615
  7
ＭＳ_ゴシック
 72
     1
 11
92.79499816894531
 21
182.0000305175781
 31
0.0
100
AcDbText
 73
     1
  0
TEXT
  5
176
330
1F
100
AcDbEntity
  8
GR2_01
 62
     7
100
AcDbText
 10
99.66497802734375
 20
182.2768060857599
 30
0.0
 40
1.515151515151515
  1
７
 41
0.7615384615384615
  7
ＭＳ_ゴシック
 72
     1
 11
100.4149780273438
 21
182.0000305175781
 31
0.0
100
AcDbText
 73
     1
  0
TEXT
  5
177
330
1F
100
AcDbEntity
  8
GR2_01
 62
     7
100
AcDbText
 10
107.2849884033203
 20
182.2768060857599
 30
0.0
 40
1.515151515151515
  1
８
 41
0.7615384615384615
  7
ＭＳ_ゴシック
 72
     1
 11
108.0349884033203
 21
182.0000305175781
 31
0.0
100
AcDbText
 73
     1
  0
TEXT
  5
178
330
1F
100
AcDbEntity
  8
GR2_01
 62
     7
100
AcDbText
 10
114.9049835205078
 20
182.2768060857599
 30
0.0
 40
1.515151515151515
  1
９
 41
0.7615384615384615
  7
ＭＳ_ゴシック
 72
     1
 11
115.6549835205078
 21
182.0000305175781
 31
0.0
100
AcDbText
 73
     1
  0
TEXT
  5
179
330
1F
100
AcDbEntity
  8
GR2_01
 62
     7
100
AcDbText
 10
122.5249786376953
 20
182.2768060857599
 30
0.0
 40
1.515151515151515
  1
Ａ
 41
0.7615384615384615
  7
ＭＳ_ゴシック
 72
     1
 11
123.2749786376953
 21
182.0000305175781
 31
0.0
100
AcDbText
 73
     1
  0
TEXT
  5
17A
330
1F
100
AcDbEntity
  8
GR2_01
 62
     7
100
AcDbText
 10
130.1449890136719
 20
182.2768060857599
 30
0.0
 40
1.515151515151515
  1
Ｂ
 41
0.7615384615384615
  7
ＭＳ_ゴシック
 72
     1
 11
130.8949890136719
 21
182.0000305175781
 31
0.0
100
AcDbText
 73
     1
  0
TEXT
  5
17B
330
1F
100
AcDbEntity
  8
GR2_01
 62
     7
100
AcDbText
 10
137.7649841308594
 20
182.2768060857599
 30
0.0
 40
1.515151515151515
  1
Ｃ
 41
0.7615384615384615
  7
ＭＳ_ゴシック
 72
     1
 11
138.5149841308594
 21
182.0000305175781
 31
0.0
100
AcDbText
 73
     1
  0
TEXT
  5
17C
330
1F
100
AcDbEntity
  8
GR2_01
 62
     7
100
AcDbText
 10
145.3849792480469
 20
182.2768060857599
 30
0.0
 40
1.515151515151515
  1
Ｄ
 41
0.7615384615384615
  7
ＭＳ_ゴシック
 72
     1
 11
146.1349792480469
 21
182.0000305175781
 31
0.0
100
AcDbText
 73
     1
  0
TEXT
  5
17D
330
1F
100
AcDbEntity
  8
GR2_01
 62
     7
100
AcDbText
 10
153.0049896240234
 20
182.2768060857599
 30
0.0
 40
1.515151515151515
  1
Ｅ
 41
0.7615384615384615
  7
ＭＳ_ゴシック
 72
     1
 11
153.7549896240234
 21
182.0000305175781
 31
0.0
100
AcDbText
 73
     1
  0
TEXT
  5
17E
330
1F
100
AcDbEntity
  8
GR2_01
 62
     7
100
AcDbText
 10
160.6249847412109
 20
182.2768060857599
 30
0.0
 40
1.515151515151515
  1
Ｆ
 41
0.7615384615384615
  7
ＭＳ_ゴシック
 72
     1
 11
161.3749847412109
 21
182.0000305175781
 31
0.0
100
AcDbText
 73
     1
  0
HATCH
  5
17F
330
1F
100
AcDbEntity
  8
GR2_01
 62
     7
100
AcDbHatch
 10
0.0
 20
0.0
 30
0.0
210
0.0
220
0.0
230
1.0
  2
_USER
 70
     0
 71
     0
 91
        1
 92
        0
 93
        4
 72
     1
 10
49.13500000000042
 20
174.5000000000001
 11
45.0
 21
174.5000000000001
 72
     1
 10
45.0
 20
174.5000000000001
 11
45.0
 21
164.0000000000001
 72
     1
 10
45.0
 20
164.0000000000001
 11
49.13500000000036
 21
164.0000000000001
 72
     1
 10
49.13500000000036
 20
164.0000000000001
 11
49.13500000000042
 21
174.5000000000001
 97
        0
 75
     0
 76
     0
 52
45.0
 41
0.3
 77
     0
 78
     1
 53
45.0
 43
0.0
 44
0.0
 45
-0.2121320343559642
 46
0.2121320343559643
 79
     0
 98
        0
  0
HATCH
  5
180
330
1F
100
AcDbEntity
  8
GR2_01
 62
     7
100
AcDbHatch
 10
0.0
 20
0.0
 30
0.0
210
0.0
220
0.0
230
1.0
  2
_USER
 70
     0
 71
     0
 91
        2
 92
        0
 93
        4
 72
     1
 10
47.22999999999996
 20
245.0
 11
44.99999999999997
 21
245.0
 72
     1
 10
44.99999999999997
 20
245.0
 11
44.99999999999997
 21
224.0000000000001
 72
     1
 10
44.99999999999997
 20
224.0000000000001
 11
47.22999999999988
 21
224.0
 72
     1
 10
47.22999999999988
 20
224.0000000000001
 11
47.22999999999996
 21
245.0
 97
        0
 92
        0
 93
        6
 72
     1
 10
179.0000000000003
 20
245.0000000000001
 11
176.7700000000004
 21
245.0
 72
     1
 10
176.7700000000004
 20
245.0
 11
176.7700000000004
 21
241.0
 72
     1
 10
176.7700000000004
 20
241.0
 11
176.7700000000006
 21
224.0
 72
     1
 10
176.7700000000006
 20
224.0
 11
179.0000000000004
 21
224.0
 72
     1
 10
179.0000000000005
 20
224.0
 11
179.0000000000003
 21
236.6597182265354
 72
     1
 10
179.0000000000003
 20
236.6597182265354
 11
179.0000000000003
 21
245.0000000000001
 97
        0
 75
     0
 76
     0
 52
45.0
 41
0.3
 77
     0
 78
     1
 53
45.0
 43
0.0
 44
0.0
 45
-0.2121320343559642
 46
0.2121320343559643
 79
     0
 98
        0
  0
LINE
  5
181
330
1F
100
AcDbEntity
  8
GR2_01
 62
     7
100
AcDbLine
 10
45.0
 20
83.00000000000007
 30
0.0
 11
179.0000000000001
 21
82.9999999999999
 31
0.0
  0
LINE
  5
182
330
1F
100
AcDbEntity
  8
GR2_01
 62
     7
100
AcDbLine
 10
179.0000000000001
 20
104.0
 30
0.0
 11
45.0
 21
104.0
 31
0.0
  0
LINE
  5
183
330
1F
100
AcDbEntity
  8
GR2_01
 62
     7
100
AcDbLine
 10
44.99999999999997
 20
93.50000000000001
 30
0.0
 11
179.0000000000001
 21
93.4999999999999
 31
0.0
  0
LINE
  5
184
330
1F
100
AcDbEntity
  8
GR2_01
 62
     7
100
AcDbLine
 10
174.8650000000004
 20
104.0
 30
0.0
 11
174.8650000000005
 21
93.4999999999999
 31
0.0
  0
LINE
  5
185
330
1F
100
AcDbEntity
  8
GR2_01
 62
     7
100
AcDbLine
 10
167.2450000000005
 20
104.0
 30
0.0
 11
167.2450000000004
 21
93.4999999999999
 31
0.0
  0
LINE
  5
186
330
1F
100
AcDbEntity
  8
GR2_01
 62
     7
100
AcDbLine
 10
159.6250000000004
 20
104.0
 30
0.0
 11
159.6250000000005
 21
93.4999999999999
 31
0.0
  0
LINE
  5
187
330
1F
100
AcDbEntity
  8
GR2_01
 62
     7
100
AcDbLine
 10
152.0050000000004
 20
104.0
 30
0.0
 11
152.0050000000004
 21
93.4999999999999
 31
0.0
  0
LINE
  5
188
330
1F
100
AcDbEntity
  8
GR2_01
 62
     7
100
AcDbLine
 10
144.3850000000005
 20
104.0
 30
0.0
 11
144.3850000000004
 21
93.4999999999999
 31
0.0
  0
LINE
  5
189
330
1F
100
AcDbEntity
  8
GR2_01
 62
     7
100
AcDbLine
 10
136.7650000000005
 20
104.0
 30
0.0
 11
136.7650000000006
 21
93.4999999999999
 31
0.0
  0
LINE
  5
18A
330
1F
100
AcDbEntity
  8
GR2_01
 62
     7
100
AcDbLine
 10
129.1450000000004
 20
104.0
 30
0.0
 11
129.1450000000004
 21
93.4999999999999
 31
0.0
  0
LINE
  5
18B
330
1F
100
AcDbEntity
  8
GR2_01
 62
     7
100
AcDbLine
 10
121.5250000000004
 20
104.0
 30
0.0
 11
121.5250000000005
 21
93.4999999999999
 31
0.0
  0
LINE
  5
18C
330
1F
100
AcDbEntity
  8
GR2_01
 62
     7
100
AcDbLine
 10
113.9050000000005
 20
104.0
 30
0.0
 11
113.9050000000005
 21
93.4999999999999
 31
0.0
  0
LINE
  5
18D
330
1F
100
AcDbEntity
  8
GR2_01
 62
     7
100
AcDbLine
 10
106.2850000000005
 20
104.0
 30
0.0
 11
106.2850000000005
 21
93.49999999999996
 31
0.0
  0
LINE
  5
18E
330
1F
100
AcDbEntity
  8
GR2_01
 62
     7
100
AcDbLine
 10
98.66500000000042
 20
104.0
 30
0.0
 11
98.66500000000042
 21
93.49999999999996
 31
0.0
  0
LINE
  5
18F
330
1F
100
AcDbEntity
  8
GR2_01
 62
     7
100
AcDbLine
 10
91.04500000000027
 20
104.0
 30
0.0
 11
91.04500000000036
 21
93.49999999999996
 31
0.0
  0
LINE
  5
190
330
1F
100
AcDbEntity
  8
GR2_01
 62
     7
100
AcDbLine
 10
83.42500000000027
 20
104.0
 30
0.0
 11
83.4250000000003
 21
93.49999999999996
 31
0.0
  0
LINE
  5
191
330
1F
100
AcDbEntity
  8
GR2_01
 62
     7
100
AcDbLine
 10
75.80500000000026
 20
104.0
 30
0.0
 11
75.80500000000029
 21
93.50000000000001
 31
0.0
  0
LINE
  5
192
330
1F
100
AcDbEntity
  8
GR2_01
 62
     7
100
AcDbLine
 10
68.18500000000023
 20
104.0
 30
0.0
 11
68.18500000000023
 21
93.50000000000001
 31
0.0
  0
LINE
  5
193
330
1F
100
AcDbEntity
  8
GR2_01
 62
     7
100
AcDbLine
 10
60.5650000000002
 20
104.0
 30
0.0
 11
60.5650000000002
 21
93.50000000000001
 31
0.0
  0
LINE
  5
194
330
1F
100
AcDbEntity
  8
GR2_01
 62
     7
100
AcDbLine
 10
52.94500000000011
 20
104.0
 30
0.0
 11
52.94500000000014
 21
93.50000000000001
 31
0.0
  0
LINE
  5
195
330
1F
100
AcDbEntity
  8
GR2_01
 62
     7
100
AcDbLine
 10
49.13500000000042
 20
93.50000000000001
 30
0.0
 11
49.13500000000036
 21
83.00000000000001
 31
0.0
  0
LINE
  5
196
330
1F
100
AcDbEntity
  8
GR2_01
 62
     7
100
AcDbLine
 10
56.75500000000045
 20
93.50000000000001
 30
0.0
 11
56.75500000000045
 21
83.00000000000001
 31
0.0
  0
LINE
  5
197
330
1F
100
AcDbEntity
  8
GR2_01
 62
     7
100
AcDbLine
 10
64.37500000000034
 20
93.50000000000001
 30
0.0
 11
64.37500000000045
 21
83.00000000000001
 31
0.0
  0
LINE
  5
198
330
1F
100
AcDbEntity
  8
GR2_01
 62
     7
100
AcDbLine
 10
71.9950000000004
 20
93.50000000000001
 30
0.0
 11
71.99500000000046
 21
82.99999999999996
 31
0.0
  0
LINE
  5
199
330
1F
100
AcDbEntity
  8
GR2_01
 62
     7
100
AcDbLine
 10
79.61500000000046
 20
93.50000000000001
 30
0.0
 11
79.61500000000046
 21
82.99999999999996
 31
0.0
  0
LINE
  5
19A
330
1F
100
AcDbEntity
  8
GR2_01
 62
     7
100
AcDbLine
 10
87.23500000000047
 20
93.50000000000001
 30
0.0
 11
87.23500000000047
 21
82.99999999999996
 31
0.0
  0
LINE
  5
19B
330
1F
100
AcDbEntity
  8
GR2_01
 62
     7
100
AcDbLine
 10
94.85500000000047
 20
93.50000000000001
 30
0.0
 11
94.85500000000047
 21
82.99999999999996
 31
0.0
  0
LINE
  5
19C
330
1F
100
AcDbEntity
  8
GR2_01
 62
     7
100
AcDbLine
 10
102.4750000000005
 20
93.50000000000001
 30
0.0
 11
102.4750000000005
 21
82.99999999999996
 31
0.0
  0
LINE
  5
19D
330
1F
100
AcDbEntity
  8
GR2_01
 62
     7
100
AcDbLine
 10
110.0950000000004
 20
93.50000000000001
 30
0.0
 11
110.0950000000005
 21
83.00000000000001
 31
0.0
  0
LINE
  5
19E
330
1F
100
AcDbEntity
  8
GR2_01
 62
     7
100
AcDbLine
 10
117.7150000000005
 20
93.50000000000001
 30
0.0
 11
117.7150000000005
 21
82.99999999999996
 31
0.0
  0
LINE
  5
19F
330
1F
100
AcDbEntity
  8
GR2_01
 62
     7
100
AcDbLine
 10
125.3350000000004
 20
93.50000000000001
 30
0.0
 11
125.3350000000005
 21
82.9999999999999
 31
0.0
  0
LINE
  5
1A0
330
1F
100
AcDbEntity
  8
GR2_01
 62
     7
100
AcDbLine
 10
132.9550000000005
 20
93.49999999999996
 30
0.0
 11
132.9550000000005
 21
82.9999999999999
 31
0.0
  0
LINE
  5
1A1
330
1F
100
AcDbEntity
  8
GR2_01
 62
     7
100
AcDbLine
 10
140.5750000000004
 20
93.50000000000001
 30
0.0
 11
140.5750000000006
 21
82.99999999999996
 31
0.0
  0
LINE
  5
1A2
330
1F
100
AcDbEntity
  8
GR2_01
 62
     7
100
AcDbLine
 10
148.1950000000004
 20
93.50000000000001
 30
0.0
 11
148.1950000000005
 21
82.9999999999999
 31
0.0
  0
LINE
  5
1A3
330
1F
100
AcDbEntity
  8
GR2_01
 62
     7
100
AcDbLine
 10
155.8150000000005
 20
93.49999999999996
 30
0.0
 11
155.8150000000005
 21
82.99999999999996
 31
0.0
  0
LINE
  5
1A4
330
1F
100
AcDbEntity
  8
GR2_01
 62
     7
100
AcDbLine
 10
163.4350000000005
 20
93.49999999999996
 30
0.0
 11
163.4350000000005
 21
82.9999999999999
 31
0.0
  0
LINE
  5
1A5
330
1F
100
AcDbEntity
  8
GR2_01
 62
     7
100
AcDbLine
 10
171.0550000000004
 20
93.50000000000001
 30
0.0
 11
171.0550000000005
 21
82.9999999999999
 31
0.0
  0
TEXT
  5
1A6
330
1F
100
AcDbEntity
  8
GR2_01
 62
     7
100
AcDbText
 10
45.99998474121094
 20
101.2768060857599
 30
0.0
 40
1.515151515151515
  1
０
 41
0.7615384615384615
  7
ＭＳ_ゴシック
 72
     1
 11
46.74998474121094
 21
101.0000305175781
 31
0.0
100
AcDbText
 73
     1
  0
TEXT
  5
1A7
330
1F
100
AcDbEntity
  8
GR2_01
 62
     7
100
AcDbText
 10
168.2449798583984
 20
101.2768060857599
 30
0.0
 40
1.515151515151515
  1
２４Ｖ
 41
0.7615384615384615
  7
ＭＳ_ゴシック
 72
     1
 11
170.4949798583984
 21
101.0000305175781
 31
0.0
100
AcDbText
 73
     1
  0
TEXT
  5
1A8
330
1F
100
AcDbEntity
  8
GR2_01
 62
     7
100
AcDbText
 10
172.0549774169922
 20
90.77677556818182
 30
0.0
 40
1.515151515151515
  1
０Ｖ
 41
0.7615384615384615
  7
ＭＳ_ゴシック
 72
     1
 11
173.5549774169922
 21
90.5
 31
0.0
100
AcDbText
 73
     1
  0
TEXT
  5
1A9
330
1F
100
AcDbEntity
  8
GR2_01
 62
     7
100
AcDbText
 10
178.4578264337118
 20
98.84728384017944
 30
0.0
 40
1.363636327512336
  1
－００１
 50
90.0
 41
0.6769231217539221
  7
ＭＳ_ゴシック
 72
     1
 11
178.7069244384766
 21
101.2472839355469
 31
0.0
100
AcDbText
 73
     1
  0
TEXT
  5
1AA
330
1F
100
AcDbEntity
  8
GR2_01
 62
     7
100
AcDbText
 10
176.727418718868
 20
94.00911235809326
 30
0.0
 40
1.363636327512336
  1
８４５３６０７６
 50
90.0
 41
0.6769231217539221
  7
ＭＳ_ゴシック
 72
     1
 11
176.9765167236328
 21
98.80911254882812
 31
0.0
100
AcDbText
 73
     1
  0
LINE
  5
1AB
330
1F
100
AcDbEntity
  8
GR2_01
 62
     7
100
AcDbLine
 10
179.0
 20
104.0
 30
0.0
 11
179.0
 21
82.9999999999999
 31
0.0
  0
LINE
  5
1AC
330
1F
100
AcDbEntity
  8
GR2_01
 62
     7
100
AcDbLine
 10
45.0
 20
104.0
 30
0.0
 11
45.0
 21
83.00000000000001
 31
0.0
  0
TEXT
  5
1AD
330
1F
100
AcDbEntity
  8
GR2_01
 62
     7
100
AcDbText
 10
50.13499450683594
 20
90.77677556818182
 30
0.0
 40
1.515151515151515
  1
０Ｖ
 41
0.7615384615384615
  7
ＭＳ_ゴシック
 72
     1
 11
51.63499450683594
 21
90.5
 31
0.0
100
AcDbText
 73
     1
  0
TEXT
  5
1AE
330
1F
100
AcDbEntity
  8
GR2_01
 62
     7
100
AcDbText
 10
57.75498962402344
 20
90.77680608575994
 30
0.0
 40
1.515151515151515
  1
２４Ｖ
 41
0.7615384615384615
  7
ＭＳ_ゴシック
 72
     1
 11
60.00498962402344
 21
90.50003051757812
 31
0.0
100
AcDbText
 73
     1
  0
TEXT
  5
1AF
330
1F
100
AcDbEntity
  8
GR2_01
 62
     7
100
AcDbText
 10
65.37498474121094
 20
90.77677556818182
 30
0.0
 40
1.515151515151515
  1
０Ｖ
 41
0.7615384615384615
  7
ＭＳ_ゴシック
 72
     1
 11
66.87498474121094
 21
90.5
 31
0.0
100
AcDbText
 73
     1
  0
TEXT
  5
1B0
330
1F
100
AcDbEntity
  8
GR2_01
 62
     7
100
AcDbText
 10
72.9949951171875
 20
90.77680608575994
 30
0.0
 40
1.515151515151515
  1
２４Ｖ
 41
0.7615384615384615
  7
ＭＳ_ゴシック
 72
     1
 11
75.2449951171875
 21
90.50003051757812
 31
0.0
100
AcDbText
 73
     1
  0
TEXT
  5
1B1
330
1F
100
AcDbEntity
  8
GR2_01
 62
     7
100
AcDbText
 10
80.614990234375
 20
90.77677556818182
 30
0.0
 40
1.515151515151515
  1
０Ｖ
 41
0.7615384615384615
  7
ＭＳ_ゴシック
 72
     1
 11
82.114990234375
 21
90.5
 31
0.0
100
AcDbText
 73
     1
  0
TEXT
  5
1B2
330
1F
100
AcDbEntity
  8
GR2_01
 62
     7
100
AcDbText
 10
88.23500061035156
 20
90.77680608575994
 30
0.0
 40
1.515151515151515
  1
２４Ｖ
 41
0.7615384615384615
  7
ＭＳ_ゴシック
 72
     1
 11
90.48500061035156
 21
90.50003051757812
 31
0.0
100
AcDbText
 73
     1
  0
TEXT
  5
1B3
330
1F
100
AcDbEntity
  8
GR2_01
 62
     7
100
AcDbText
 10
95.85498046875
 20
90.77677556818182
 30
0.0
 40
1.515151515151515
  1
０Ｖ
 41
0.7615384615384615
  7
ＭＳ_ゴシック
 72
     1
 11
97.35498046875
 21
90.5
 31
0.0
100
AcDbText
 73
     1
  0
TEXT
  5
1B4
330
1F
100
AcDbEntity
  8
GR2_01
 62
     7
100
AcDbText
 10
103.4749908447266
 20
90.77680608575994
 30
0.0
 40
1.515151515151515
  1
２４Ｖ
 41
0.7615384615384615
  7
ＭＳ_ゴシック
 72
     1
 11
105.7249908447266
 21
90.50003051757812
 31
0.0
100
AcDbText
 73
     1
  0
TEXT
  5
1B5
330
1F
100
AcDbEntity
  8
GR2_01
 62
     7
100
AcDbText
 10
111.0949859619141
 20
90.77677556818182
 30
0.0
 40
1.515151515151515
  1
０Ｖ
 41
0.7615384615384615
  7
ＭＳ_ゴシック
 72
     1
 11
112.5949859619141
 21
90.5
 31
0.0
100
AcDbText
 73
     1
  0
TEXT
  5
1B6
330
1F
100
AcDbEntity
  8
GR2_01
 62
     7
100
AcDbText
 10
118.7149963378906
 20
90.77680608575994
 30
0.0
 40
1.515151515151515
  1
２４Ｖ
 41
0.7615384615384615
  7
ＭＳ_ゴシック
 72
     1
 11
120.9649963378906
 21
90.50003051757812
 31
0.0
100
AcDbText
 73
     1
  0
TEXT
  5
1B7
330
1F
100
AcDbEntity
  8
GR2_01
 62
     7
100
AcDbText
 10
126.3349914550781
 20
90.77677556818182
 30
0.0
 40
1.515151515151515
  1
０Ｖ
 41
0.7615384615384615
  7
ＭＳ_ゴシック
 72
     1
 11
127.8349914550781
 21
90.5
 31
0.0
100
AcDbText
 73
     1
  0
TEXT
  5
1B8
330
1F
100
AcDbEntity
  8
GR2_01
 62
     7
100
AcDbText
 10
133.9549865722656
 20
90.77680608575994
 30
0.0
 40
1.515151515151515
  1
２４Ｖ
 41
0.7615384615384615
  7
ＭＳ_ゴシック
 72
     1
 11
136.2049865722656
 21
90.50003051757812
 31
0.0
100
AcDbText
 73
     1
  0
TEXT
  5
1B9
330
1F
100
AcDbEntity
  8
GR2_01
 62
     7
100
AcDbText
 10
141.5749816894531
 20
90.77677556818182
 30
0.0
 40
1.515151515151515
  1
０Ｖ
 41
0.7615384615384615
  7
ＭＳ_ゴシック
 72
     1
 11
143.0749816894531
 21
90.5
 31
0.0
100
AcDbText
 73
     1
  0
TEXT
  5
1BA
330
1F
100
AcDbEntity
  8
GR2_01
 62
     7
100
AcDbText
 10
149.1950073242188
 20
90.77680608575994
 30
0.0
 40
1.515151515151515
  1
２４Ｖ
 41
0.7615384615384615
  7
ＭＳ_ゴシック
 72
     1
 11
151.4450073242188
 21
90.50003051757812
 31
0.0
100
AcDbText
 73
     1
  0
TEXT
  5
1BB
330
1F
100
AcDbEntity
  8
GR2_01
 62
     7
100
AcDbText
 10
156.8149871826172
 20
90.77677556818182
 30
0.0
 40
1.515151515151515
  1
０Ｖ
 41
0.7615384615384615
  7
ＭＳ_ゴシック
 72
     1
 11
158.3149871826172
 21
90.5
 31
0.0
100
AcDbText
 73
     1
  0
TEXT
  5
1BC
330
1F
100
AcDbEntity
  8
GR2_01
 62
     7
100
AcDbText
 10
164.4349822998047
 20
90.77680608575994
 30
0.0
 40
1.515151515151515
  1
２４Ｖ
 41
0.7615384615384615
  7
ＭＳ_ゴシック
 72
     1
 11
166.6849822998047
 21
90.50003051757812
 31
0.0
100
AcDbText
 73
     1
  0
TEXT
  5
1BD
330
1F
100
AcDbEntity
  8
GR2_01
 62
     7
100
AcDbText
 10
53.94499206542969
 20
101.2768060857599
 30
0.0
 40
1.515151515151515
  1
１
 41
0.7615384615384615
  7
ＭＳ_ゴシック
 72
     1
 11
54.69499206542969
 21
101.0000305175781
 31
0.0
100
AcDbText
 73
     1
  0
TEXT
  5
1BE
330
1F
100
AcDbEntity
  8
GR2_01
 62
     7
100
AcDbText
 10
61.56498718261719
 20
101.2768060857599
 30
0.0
 40
1.515151515151515
  1
２
 41
0.7615384615384615
  7
ＭＳ_ゴシック
 72
     1
 11
62.31498718261719
 21
101.0000305175781
 31
0.0
100
AcDbText
 73
     1
  0
TEXT
  5
1BF
330
1F
100
AcDbEntity
  8
GR2_01
 62
     7
100
AcDbText
 10
69.18498229980469
 20
101.2768060857599
 30
0.0
 40
1.515151515151515
  1
３
 41
0.7615384615384615
  7
ＭＳ_ゴシック
 72
     1
 11
69.93498229980469
 21
101.0000305175781
 31
0.0
100
AcDbText
 73
     1
  0
TEXT
  5
1C0
330
1F
100
AcDbEntity
  8
GR2_01
 62
     7
100
AcDbText
 10
76.80497741699219
 20
101.2768060857599
 30
0.0
 40
1.515151515151515
  1
４
 41
0.7615384615384615
  7
ＭＳ_ゴシック
 72
     1
 11
77.55497741699219
 21
101.0000305175781
 31
0.0
100
AcDbText
 73
     1
  0
TEXT
  5
1C1
330
1F
100
AcDbEntity
  8
GR2_01
 62
     7
100
AcDbText
 10
84.42498779296875
 20
101.2768060857599
 30
0.0
 40
1.515151515151515
  1
５
 41
0.7615384615384615
  7
ＭＳ_ゴシック
 72
     1
 11
85.17498779296875
 21
101.0000305175781
 31
0.0
100
AcDbText
 73
     1
  0
TEXT
  5
1C2
330
1F
100
AcDbEntity
  8
GR2_01
 62
     7
100
AcDbText
 10
92.04499816894531
 20
101.2768060857599
 30
0.0
 40
1.515151515151515
  1
６
 41
0.7615384615384615
  7
ＭＳ_ゴシック
 72
     1
 11
92.79499816894531
 21
101.0000305175781
 31
0.0
100
AcDbText
 73
     1
  0
TEXT
  5
1C3
330
1F
100
AcDbEntity
  8
GR2_01
 62
     7
100
AcDbText
 10
99.66497802734375
 20
101.2768060857599
 30
0.0
 40
1.515151515151515
  1
７
 41
0.7615384615384615
  7
ＭＳ_ゴシック
 72
     1
 11
100.4149780273438
 21
101.0000305175781
 31
0.0
100
AcDbText
 73
     1
  0
TEXT
  5
1C4
330
1F
100
AcDbEntity
  8
GR2_01
 62
     7
100
AcDbText
 10
107.2849884033203
 20
101.2768060857599
 30
0.0
 40
1.515151515151515
  1
８
 41
0.7615384615384615
  7
ＭＳ_ゴシック
 72
     1
 11
108.0349884033203
 21
101.0000305175781
 31
0.0
100
AcDbText
 73
     1
  0
TEXT
  5
1C5
330
1F
100
AcDbEntity
  8
GR2_01
 62
     7
100
AcDbText
 10
114.9049835205078
 20
101.2768060857599
 30
0.0
 40
1.515151515151515
  1
９
 41
0.7615384615384615
  7
ＭＳ_ゴシック
 72
     1
 11
115.6549835205078
 21
101.0000305175781
 31
0.0
100
AcDbText
 73
     1
  0
TEXT
  5
1C6
330
1F
100
AcDbEntity
  8
GR2_01
 62
     7
100
AcDbText
 10
122.5249786376953
 20
101.2768060857599
 30
0.0
 40
1.515151515151515
  1
Ａ
 41
0.7615384615384615
  7
ＭＳ_ゴシック
 72
     1
 11
123.2749786376953
 21
101.0000305175781
 31
0.0
100
AcDbText
 73
     1
  0
TEXT
  5
1C7
330
1F
100
AcDbEntity
  8
GR2_01
 62
     7
100
AcDbText
 10
130.1449890136719
 20
101.2768060857599
 30
0.0
 40
1.515151515151515
  1
Ｂ
 41
0.7615384615384615
  7
ＭＳ_ゴシック
 72
     1
 11
130.8949890136719
 21
101.0000305175781
 31
0.0
100
AcDbText
 73
     1
  0
TEXT
  5
1C8
330
1F
100
AcDbEntity
  8
GR2_01
 62
     7
100
AcDbText
 10
137.7649841308594
 20
101.2768060857599
 30
0.0
 40
1.515151515151515
  1
Ｃ
 41
0.7615384615384615
  7
ＭＳ_ゴシック
 72
     1
 11
138.5149841308594
 21
101.0000305175781
 31
0.0
100
AcDbText
 73
     1
  0
TEXT
  5
1C9
330
1F
100
AcDbEntity
  8
GR2_01
 62
     7
100
AcDbText
 10
145.3849792480469
 20
101.2768060857599
 30
0.0
 40
1.515151515151515
  1
Ｄ
 41
0.7615384615384615
  7
ＭＳ_ゴシック
 72
     1
 11
146.1349792480469
 21
101.0000305175781
 31
0.0
100
AcDbText
 73
     1
  0
TEXT
  5
1CA
330
1F
100
AcDbEntity
  8
GR2_01
 62
     7
100
AcDbText
 10
153.0049896240234
 20
101.2768060857599
 30
0.0
 40
1.515151515151515
  1
Ｅ
 41
0.7615384615384615
  7
ＭＳ_ゴシック
 72
     1
 11
153.7549896240234
 21
101.0000305175781
 31
0.0
100
AcDbText
 73
     1
  0
TEXT
  5
1CB
330
1F
100
AcDbEntity
  8
GR2_01
 62
     7
100
AcDbText
 10
160.6249847412109
 20
101.2768060857599
 30
0.0
 40
1.515151515151515
  1
Ｆ
 41
0.7615384615384615
  7
ＭＳ_ゴシック
 72
     1
 11
161.3749847412109
 21
101.0000305175781
 31
0.0
100
AcDbText
 73
     1
  0
HATCH
  5
1CC
330
1F
100
AcDbEntity
  8
GR2_01
 62
     7
100
AcDbHatch
 10
0.0
 20
0.0
 30
0.0
210
0.0
220
0.0
230
1.0
  2
_USER
 70
     0
 71
     0
 91
        1
 92
        0
 93
        4
 72
     1
 10
49.13500000000042
 20
93.50000000000001
 11
45.0
 21
93.50000000000004
 72
     1
 10
45.0
 20
93.50000000000004
 11
45.0
 21
83.00000000000004
 72
     1
 10
45.0
 20
83.00000000000007
 11
49.13500000000036
 21
83.00000000000007
 72
     1
 10
49.13500000000036
 20
83.00000000000001
 11
49.13500000000042
 21
93.50000000000001
 97
        0
 75
     0
 76
     0
 52
45.0
 41
0.3
 77
     0
 78
     1
 53
45.0
 43
0.0
 44
0.0
 45
-0.2121320343559642
 46
0.2121320343559643
 79
     0
 98
        0
  0
LINE
  5
1CD
330
1F
100
AcDbEntity
  8
GR2_01
 62
     7
100
AcDbLine
 10
179.0000000000003
 20
124.9999999999999
 30
0.0
 11
45.0
 21
124.9999999999999
 31
0.0
  0
LINE
  5
1CE
330
1F
100
AcDbEntity
  8
GR2_01
 62
     7
100
AcDbLine
 10
176.7700000000004
 20
125.0
 30
0.0
 11
176.7700000000006
 21
103.9999999999999
 31
0.0
  0
LINE
  5
1CF
330
1F
100
AcDbEntity
  8
GR2_01
 62
     7
100
AcDbLine
 10
169.1500000000005
 20
124.9999999999999
 30
0.0
 11
169.1500000000002
 21
103.9999999999999
 31
0.0
  0
LINE
  5
1D0
330
1F
100
AcDbEntity
  8
GR2_01
 62
     7
100
AcDbLine
 10
161.5300000000003
 20
124.9999999999998
 30
0.0
 11
161.5300000000006
 21
103.9999999999999
 31
0.0
  0
LINE
  5
1D1
330
1F
100
AcDbEntity
  8
GR2_01
 62
     7
100
AcDbLine
 10
153.9100000000003
 20
124.9999999999999
 30
0.0
 11
153.9100000000003
 21
103.9999999999999
 31
0.0
  0
LINE
  5
1D2
330
1F
100
AcDbEntity
  8
GR2_01
 62
     7
100
AcDbLine
 10
146.2900000000003
 20
125.0
 30
0.0
 11
146.2900000000003
 21
103.9999999999999
 31
0.0
  0
LINE
  5
1D3
330
1F
100
AcDbEntity
  8
GR2_01
 62
     7
100
AcDbLine
 10
138.6700000000003
 20
124.9999999999998
 30
0.0
 11
138.6700000000005
 21
103.9999999999999
 31
0.0
  0
LINE
  5
1D4
330
1F
100
AcDbEntity
  8
GR2_01
 62
     7
100
AcDbLine
 10
131.0500000000003
 20
124.9999999999999
 30
0.0
 11
131.0500000000003
 21
103.9999999999999
 31
0.0
  0
LINE
  5
1D5
330
1F
100
AcDbEntity
  8
GR2_01
 62
     7
100
AcDbLine
 10
123.4300000000003
 20
124.9999999999999
 30
0.0
 11
123.4300000000003
 21
103.9999999999999
 31
0.0
  0
LINE
  5
1D6
330
1F
100
AcDbEntity
  8
GR2_01
 62
     7
100
AcDbLine
 10
115.8100000000003
 20
124.9999999999999
 30
0.0
 11
115.8100000000003
 21
103.9999999999999
 31
0.0
  0
LINE
  5
1D7
330
1F
100
AcDbEntity
  8
GR2_01
 62
     7
100
AcDbLine
 10
108.1900000000004
 20
125.0
 30
0.0
 11
108.1900000000003
 21
103.9999999999999
 31
0.0
  0
LINE
  5
1D8
330
1F
100
AcDbEntity
  8
GR2_01
 62
     7
100
AcDbLine
 10
100.5700000000003
 20
125.0000000000001
 30
0.0
 11
100.5700000000002
 21
103.9999999999999
 31
0.0
  0
LINE
  5
1D9
330
1F
100
AcDbEntity
  8
GR2_01
 62
     7
100
AcDbLine
 10
92.95000000000019
 20
124.9999999999997
 30
0.0
 11
92.95000000000027
 21
104.0
 31
0.0
  0
LINE
  5
1DA
330
1F
100
AcDbEntity
  8
GR2_01
 62
     7
100
AcDbLine
 10
85.33000000000018
 20
125.0000000000001
 30
0.0
 11
85.3300000000001
 21
104.0
 31
0.0
  0
LINE
  5
1DB
330
1F
100
AcDbEntity
  8
GR2_01
 62
     7
100
AcDbLine
 10
77.71000000000015
 20
124.9999999999999
 30
0.0
 11
77.7100000000002
 21
104.0
 31
0.0
  0
LINE
  5
1DC
330
1F
100
AcDbEntity
  8
GR2_01
 62
     7
100
AcDbLine
 10
70.09000000000009
 20
124.9999999999999
 30
0.0
 11
70.09000000000009
 21
104.0
 31
0.0
  0
LINE
  5
1DD
330
1F
100
AcDbEntity
  8
GR2_01
 62
     7
100
AcDbLine
 10
62.47000000000008
 20
124.9999999999998
 30
0.0
 11
62.47000000000008
 21
104.0
 31
0.0
  0
LINE
  5
1DE
330
1F
100
AcDbEntity
  8
GR2_01
 62
     7
100
AcDbLine
 10
54.85000000000005
 20
125.0
 30
0.0
 11
54.84999999999999
 21
104.0
 31
0.0
  0
LINE
  5
1DF
330
1F
100
AcDbEntity
  8
GR2_01
 62
     7
100
AcDbLine
 10
51.04000000000033
 20
125.0000000000004
 30
0.0
 11
51.04000000000022
 21
104.0
 31
0.0
  0
LINE
  5
1E0
330
1F
100
AcDbEntity
  8
GR2_01
 62
     7
100
AcDbLine
 10
58.66000000000031
 20
124.9999999999999
 30
0.0
 11
58.66000000000034
 21
104.0
 31
0.0
  0
LINE
  5
1E1
330
1F
100
AcDbEntity
  8
GR2_01
 62
     7
100
AcDbLine
 10
66.28000000000009
 20
124.9999999999988
 30
0.0
 11
66.28000000000031
 21
104.0
 31
0.0
  0
LINE
  5
1E2
330
1F
100
AcDbEntity
  8
GR2_01
 62
     7
100
AcDbLine
 10
73.90000000000026
 20
124.9999999999996
 30
0.0
 11
73.9000000000004
 21
104.0
 31
0.0
  0
LINE
  5
1E3
330
1F
100
AcDbEntity
  8
GR2_01
 62
     7
100
AcDbLine
 10
81.52000000000032
 20
124.9999999999999
 30
0.0
 11
81.52000000000035
 21
104.0
 31
0.0
  0
LINE
  5
1E4
330
1F
100
AcDbEntity
  8
GR2_01
 62
     7
100
AcDbLine
 10
89.14000000000036
 20
124.9999999999999
 30
0.0
 11
89.14000000000036
 21
104.0
 31
0.0
  0
LINE
  5
1E5
330
1F
100
AcDbEntity
  8
GR2_01
 62
     7
100
AcDbLine
 10
96.76000000000036
 20
124.9999999999999
 30
0.0
 11
96.76000000000036
 21
104.0
 31
0.0
  0
LINE
  5
1E6
330
1F
100
AcDbEntity
  8
GR2_01
 62
     7
100
AcDbLine
 10
104.3800000000004
 20
124.9999999999999
 30
0.0
 11
104.3800000000004
 21
103.9999999999999
 31
0.0
  0
LINE
  5
1E7
330
1F
100
AcDbEntity
  8
GR2_01
 62
     7
100
AcDbLine
 10
112.0000000000003
 20
124.9999999999998
 30
0.0
 11
112.0000000000004
 21
103.9999999999999
 31
0.0
  0
LINE
  5
1E8
330
1F
100
AcDbEntity
  8
GR2_01
 62
     7
100
AcDbLine
 10
119.6200000000003
 20
124.9999999999999
 30
0.0
 11
119.6200000000003
 21
103.9999999999999
 31
0.0
  0
LINE
  5
1E9
330
1F
100
AcDbEntity
  8
GR2_01
 62
     7
100
AcDbLine
 10
127.2400000000002
 20
124.9999999999996
 30
0.0
 11
127.2400000000004
 21
103.9999999999999
 31
0.0
  0
LINE
  5
1EA
330
1F
100
AcDbEntity
  8
GR2_01
 62
     7
100
AcDbLine
 10
134.8600000000003
 20
124.9999999999997
 30
0.0
 11
134.8600000000004
 21
103.9999999999999
 31
0.0
  0
LINE
  5
1EB
330
1F
100
AcDbEntity
  8
GR2_01
 62
     7
100
AcDbLine
 10
142.4800000000003
 20
124.9999999999999
 30
0.0
 11
142.4800000000003
 21
103.9999999999999
 31
0.0
  0
LINE
  5
1EC
330
1F
100
AcDbEntity
  8
GR2_01
 62
     7
100
AcDbLine
 10
150.1000000000003
 20
124.9999999999998
 30
0.0
 11
150.1000000000004
 21
103.9999999999999
 31
0.0
  0
LINE
  5
1ED
330
1F
100
AcDbEntity
  8
GR2_01
 62
     7
100
AcDbLine
 10
157.7200000000003
 20
124.9999999999998
 30
0.0
 11
157.7200000000004
 21
103.9999999999999
 31
0.0
  0
LINE
  5
1EE
330
1F
100
AcDbEntity
  8
GR2_01
 62
     7
100
AcDbLine
 10
165.3400000000004
 20
124.9999999999999
 30
0.0
 11
165.3400000000004
 21
103.9999999999999
 31
0.0
  0
LINE
  5
1EF
330
1F
100
AcDbEntity
  8
GR2_01
 62
     7
100
AcDbLine
 10
172.9600000000002
 20
124.9999999999999
 30
0.0
 11
172.9600000000004
 21
103.9999999999999
 31
0.0
  0
TEXT
  5
1F0
330
1F
100
AcDbEntity
  8
GR2_01
 62
     7
100
AcDbText
 10
48.47999572753906
 20
122.1768152410334
 30
0.0
 40
1.515151515151515
  1
０
 41
0.7615384615384615
  7
ＭＳ_ゴシック
 72
     1
 11
49.22999572753906
 21
121.9000396728516
 31
0.0
100
AcDbText
 73
     1
  0
TEXT
  5
1F1
330
1F
100
AcDbEntity
  8
GR2_01
 62
     7
100
AcDbText
 10
56.10000610351562
 20
122.1768152410334
 30
0.0
 40
1.515151515151515
  1
１
 41
0.7615384615384615
  7
ＭＳ_ゴシック
 72
     1
 11
56.85000610351562
 21
121.9000396728516
 31
0.0
100
AcDbText
 73
     1
  0
TEXT
  5
1F2
330
1F
100
AcDbEntity
  8
GR2_01
 62
     7
100
AcDbText
 10
63.71998596191406
 20
122.1768152410334
 30
0.0
 40
1.515151515151515
  1
２
 41
0.7615384615384615
  7
ＭＳ_ゴシック
 72
     1
 11
64.46998596191406
 21
121.9000396728516
 31
0.0
100
AcDbText
 73
     1
  0
TEXT
  5
1F3
330
1F
100
AcDbEntity
  8
GR2_01
 62
     7
100
AcDbText
 10
71.33998107910156
 20
122.1768152410334
 30
0.0
 40
1.515151515151515
  1
３
 41
0.7615384615384615
  7
ＭＳ_ゴシック
 72
     1
 11
72.08998107910156
 21
121.9000396728516
 31
0.0
100
AcDbText
 73
     1
  0
TEXT
  5
1F4
330
1F
100
AcDbEntity
  8
GR2_01
 62
     7
100
AcDbText
 10
78.96000671386719
 20
122.1768152410334
 30
0.0
 40
1.515151515151515
  1
４
 41
0.7615384615384615
  7
ＭＳ_ゴシック
 72
     1
 11
79.71000671386719
 21
121.9000396728516
 31
0.0
100
AcDbText
 73
     1
  0
TEXT
  5
1F5
330
1F
100
AcDbEntity
  8
GR2_01
 62
     7
100
AcDbText
 10
86.57998657226562
 20
122.1768152410334
 30
0.0
 40
1.515151515151515
  1
５
 41
0.7615384615384615
  7
ＭＳ_ゴシック
 72
     1
 11
87.32998657226562
 21
121.9000396728516
 31
0.0
100
AcDbText
 73
     1
  0
TEXT
  5
1F6
330
1F
100
AcDbEntity
  8
GR2_01
 62
     7
100
AcDbText
 10
94.19999694824219
 20
122.1768152410334
 30
0.0
 40
1.515151515151515
  1
６
 41
0.7615384615384615
  7
ＭＳ_ゴシック
 72
     1
 11
94.94999694824219
 21
121.9000396728516
 31
0.0
100
AcDbText
 73
     1
  0
TEXT
  5
1F7
330
1F
100
AcDbEntity
  8
GR2_01
 62
     7
100
AcDbText
 10
101.8199768066406
 20
122.1768152410334
 30
0.0
 40
1.515151515151515
  1
７
 41
0.7615384615384615
  7
ＭＳ_ゴシック
 72
     1
 11
102.5699768066406
 21
121.9000396728516
 31
0.0
100
AcDbText
 73
     1
  0
TEXT
  5
1F8
330
1F
100
AcDbEntity
  8
GR2_01
 62
     7
100
AcDbText
 10
109.4399719238281
 20
122.1768152410334
 30
0.0
 40
1.515151515151515
  1
８
 41
0.7615384615384615
  7
ＭＳ_ゴシック
 72
     1
 11
110.1899719238281
 21
121.9000396728516
 31
0.0
100
AcDbText
 73
     1
  0
TEXT
  5
1F9
330
1F
100
AcDbEntity
  8
GR2_01
 62
     7
100
AcDbText
 10
117.0599822998047
 20
122.1768152410334
 30
0.0
 40
1.515151515151515
  1
９
 41
0.7615384615384615
  7
ＭＳ_ゴシック
 72
     1
 11
117.8099822998047
 21
121.9000396728516
 31
0.0
100
AcDbText
 73
     1
  0
TEXT
  5
1FA
330
1F
100
AcDbEntity
  8
GR2_01
 62
     7
100
AcDbText
 10
51.53999328613281
 20
122.1768152410334
 30
0.0
 40
1.515151515151515
  1
０Ｖ
 41
0.7615384615384615
  7
ＭＳ_ゴシック
 72
     1
 11
53.03999328613281
 21
121.9000396728516
 31
0.0
100
AcDbText
 73
     1
  0
TEXT
  5
1FB
330
1F
100
AcDbEntity
  8
GR2_01
 62
     7
100
AcDbText
 10
124.6799774169922
 20
122.1768152410334
 30
0.0
 40
1.515151515151515
  1
Ａ
 41
0.7615384615384615
  7
ＭＳ_ゴシック
 72
     1
 11
125.4299774169922
 21
121.9000396728516
 31
0.0
100
AcDbText
 73
     1
  0
TEXT
  5
1FC
330
1F
100
AcDbEntity
  8
GR2_01
 62
     7
100
AcDbText
 10
132.3000030517578
 20
122.1768152410334
 30
0.0
 40
1.515151515151515
  1
Ｂ
 41
0.7615384615384615
  7
ＭＳ_ゴシック
 72
     1
 11
133.0500030517578
 21
121.9000396728516
 31
0.0
100
AcDbText
 73
     1
  0
TEXT
  5
1FD
330
1F
100
AcDbEntity
  8
GR2_01
 62
     7
100
AcDbText
 10
139.9199981689453
 20
122.1768152410334
 30
0.0
 40
1.515151515151515
  1
Ｃ
 41
0.7615384615384615
  7
ＭＳ_ゴシック
 72
     1
 11
140.6699981689453
 21
121.9000396728516
 31
0.0
100
AcDbText
 73
     1
  0
TEXT
  5
1FE
330
1F
100
AcDbEntity
  8
GR2_01
 62
     7
100
AcDbText
 10
147.5400085449219
 20
122.1768152410334
 30
0.0
 40
1.515151515151515
  1
Ｄ
 41
0.7615384615384615
  7
ＭＳ_ゴシック
 72
     1
 11
148.2900085449219
 21
121.9000396728516
 31
0.0
100
AcDbText
 73
     1
  0
TEXT
  5
1FF
330
1F
100
AcDbEntity
  8
GR2_01
 62
     7
100
AcDbText
 10
155.1599884033203
 20
122.1768152410334
 30
0.0
 40
1.515151515151515
  1
Ｅ
 41
0.7615384615384615
  7
ＭＳ_ゴシック
 72
     1
 11
155.9099884033203
 21
121.9000396728516
 31
0.0
100
AcDbText
 73
     1
  0
TEXT
  5
200
330
1F
100
AcDbEntity
  8
GR2_01
 62
     7
100
AcDbText
 10
162.7799835205078
 20
122.1768152410334
 30
0.0
 40
1.515151515151515
  1
Ｆ
 41
0.7615384615384615
  7
ＭＳ_ゴシック
 72
     1
 11
163.5299835205078
 21
121.9000396728516
 31
0.0
100
AcDbText
 73
     1
  0
TEXT
  5
201
330
1F
100
AcDbEntity
  8
GR2_01
 62
     7
100
AcDbText
 10
169.5698672533035
 20
122.1768152410334
 30
0.0
 40
1.515151515151515
  1
２４Ｖ
 41
0.5165658694047194
  7
ＭＳ_ゴシック
 72
     1
 11
171.0960845947266
 21
121.9000396728516
 31
0.0
100
AcDbText
 73
     1
  0
TEXT
  5
202
330
1F
100
AcDbEntity
  8
GR2_01
 62
     7
100
AcDbText
 10
173.4599761962891
 20
122.1768152410334
 30
0.0
 40
1.515151515151515
  1
０Ｖ
 41
0.7615384615384615
  7
ＭＳ_ゴシック
 72
     1
 11
174.9599761962891
 21
121.9000396728516
 31
0.0
100
AcDbText
 73
     1
  0
LINE
  5
203
330
1F
100
AcDbEntity
  8
GR2_01
 62
     7
100
AcDbLine
 10
47.22999999999996
 20
125.0000000000004
 30
0.0
 11
47.22999999999988
 21
104.0
 31
0.0
  0
LINE
  5
204
330
1F
100
AcDbEntity
  8
GR2_01
 62
     7
100
AcDbLine
 10
176.7700000000004
 20
120.9999999999999
 30
0.0
 11
47.22999999999996
 21
120.9999999999999
 31
0.0
  0
LINE
  5
205
330
1F
100
AcDbEntity
  8
GR2_01
 62
     7
100
AcDbLine
 10
179.0000000000003
 20
125.0
 30
0.0
 11
179.0000000000005
 21
103.9999999999999
 31
0.0
  0
LINE
  5
206
330
1F
100
AcDbEntity
  8
GR2_01
 62
     7
100
AcDbLine
 10
44.99999999999997
 20
124.9999999999999
 30
0.0
 11
44.99999999999997
 21
104.0
 31
0.0
  0
LINE
  5
207
330
1F
100
AcDbEntity
  8
GR2_01
 62
     7
100
AcDbLine
 10
44.99999999999997
 20
104.0
 30
0.0
 11
179.0000000000005
 21
103.9999999999999
 31
0.0
  0
TEXT
  5
208
330
1F
100
AcDbEntity
  8
GR2_01
 62
     7
100
AcDbText
 10
59.13377106189728
 20
122.1768152410334
 30
0.0
 40
1.515151515151515
  1
２４Ｖ
 41
0.5165658694047194
  7
ＭＳ_ゴシック
 72
     1
 11
60.65998840332031
 21
121.9000396728516
 31
0.0
100
AcDbText
 73
     1
  0
TEXT
  5
209
330
1F
100
AcDbEntity
  8
GR2_01
 62
     7
100
AcDbText
 10
66.77999877929688
 20
122.1768152410334
 30
0.0
 40
1.515151515151515
  1
０Ｖ
 41
0.7615384615384615
  7
ＭＳ_ゴシック
 72
     1
 11
68.27999877929688
 21
121.9000396728516
 31
0.0
100
AcDbText
 73
     1
  0
TEXT
  5
20A
330
1F
100
AcDbEntity
  8
GR2_01
 62
     7
100
AcDbText
 10
74.37376129627228
 20
122.1768152410334
 30
0.0
 40
1.515151515151515
  1
２４Ｖ
 41
0.5165658694047194
  7
ＭＳ_ゴシック
 72
     1
 11
75.89997863769531
 21
121.9000396728516
 31
0.0
100
AcDbText
 73
     1
  0
TEXT
  5
20B
330
1F
100
AcDbEntity
  8
GR2_01
 62
     7
100
AcDbText
 10
82.01998901367188
 20
122.1768152410334
 30
0.0
 40
1.515151515151515
  1
０Ｖ
 41
0.7615384615384615
  7
ＭＳ_ゴシック
 72
     1
 11
83.51998901367188
 21
121.9000396728516
 31
0.0
100
AcDbText
 73
     1
  0
TEXT
  5
20C
330
1F
100
AcDbEntity
  8
GR2_01
 62
     7
100
AcDbText
 10
89.6137820482254
 20
122.1768152410334
 30
0.0
 40
1.515151515151515
  1
２４Ｖ
 41
0.5165658694047194
  7
ＭＳ_ゴシック
 72
     1
 11
91.13999938964844
 21
121.9000396728516
 31
0.0
100
AcDbText
 73
     1
  0
TEXT
  5
20D
330
1F
100
AcDbEntity
  8
GR2_01
 62
     7
100
AcDbText
 10
97.25999450683594
 20
122.1768152410334
 30
0.0
 40
1.515151515151515
  1
０Ｖ
 41
0.7615384615384615
  7
ＭＳ_ゴシック
 72
     1
 11
98.75999450683594
 21
121.9000396728516
 31
0.0
100
AcDbText
 73
     1
  0
TEXT
  5
20E
330
1F
100
AcDbEntity
  8
GR2_01
 62
     7
100
AcDbText
 10
104.8537570238113
 20
122.1768152410334
 30
0.0
 40
1.515151515151515
  1
２４Ｖ
 41
0.5165658694047194
  7
ＭＳ_ゴシック
 72
     1
 11
106.3799743652344
 21
121.9000396728516
 31
0.0
100
AcDbText
 73
     1
  0
TEXT
  5
20F
330
1F
100
AcDbEntity
  8
GR2_01
 62
     7
100
AcDbText
 10
112.5
 20
122.1768152410334
 30
0.0
 40
1.515151515151515
  1
０Ｖ
 41
0.7615384615384615
  7
ＭＳ_ゴシック
 72
     1
 11
114.0
 21
121.9000396728516
 31
0.0
100
AcDbText
 73
     1
  0
TEXT
  5
210
330
1F
100
AcDbEntity
  8
GR2_01
 62
     7
100
AcDbText
 10
120.0937625169754
 20
122.1768152410334
 30
0.0
 40
1.515151515151515
  1
２４Ｖ
 41
0.5165658694047194
  7
ＭＳ_ゴシック
 72
     1
 11
121.6199798583984
 21
121.9000396728516
 31
0.0
100
AcDbText
 73
     1
  0
TEXT
  5
211
330
1F
100
AcDbEntity
  8
GR2_01
 62
     7
100
AcDbText
 10
127.739990234375
 20
122.1768152410334
 30
0.0
 40
1.515151515151515
  1
０Ｖ
 41
0.7615384615384615
  7
ＭＳ_ゴシック
 72
     1
 11
129.239990234375
 21
121.9000396728516
 31
0.0
100
AcDbText
 73
     1
  0
TEXT
  5
212
330
1F
100
AcDbEntity
  8
GR2_01
 62
     7
100
AcDbText
 10
135.3337680101395
 20
122.1768152410334
 30
0.0
 40
1.515151515151515
  1
２４Ｖ
 41
0.5165658694047194
  7
ＭＳ_ゴシック
 72
     1
 11
136.8599853515625
 21
121.9000396728516
 31
0.0
100
AcDbText
 73
     1
  0
TEXT
  5
213
330
1F
100
AcDbEntity
  8
GR2_01
 62
     7
100
AcDbText
 10
142.9799957275391
 20
122.1768152410334
 30
0.0
 40
1.515151515151515
  1
０Ｖ
 41
0.7615384615384615
  7
ＭＳ_ゴシック
 72
     1
 11
144.4799957275391
 21
121.9000396728516
 31
0.0
100
AcDbText
 73
     1
  0
TEXT
  5
214
330
1F
100
AcDbEntity
  8
GR2_01
 62
     7
100
AcDbText
 10
150.5737429857254
 20
122.1768152410334
 30
0.0
 40
1.515151515151515
  1
２４Ｖ
 41
0.5165658694047194
  7
ＭＳ_ゴシック
 72
     1
 11
152.0999603271484
 21
121.9000396728516
 31
0.0
100
AcDbText
 73
     1
  0
TEXT
  5
215
330
1F
100
AcDbEntity
  8
GR2_01
 62
     7
100
AcDbText
 10
158.2199859619141
 20
122.1768152410334
 30
0.0
 40
1.515151515151515
  1
０Ｖ
 41
0.7615384615384615
  7
ＭＳ_ゴシック
 72
     1
 11
159.7199859619141
 21
121.9000396728516
 31
0.0
100
AcDbText
 73
     1
  0
TEXT
  5
216
330
1F
100
AcDbEntity
  8
GR2_01
 62
     7
100
AcDbText
 10
165.8137637376785
 20
122.1768152410334
 30
0.0
 40
1.515151515151515
  1
２４Ｖ
 41
0.5165658694047194
  7
ＭＳ_ゴシック
 72
     1
 11
167.3399810791016
 21
121.9000396728516
 31
0.0
100
AcDbText
 73
     1
  0
HATCH
  5
217
330
1F
100
AcDbEntity
  8
GR2_01
 62
     7
100
AcDbHatch
 10
0.0
 20
0.0
 30
0.0
210
0.0
220
0.0
230
1.0
  2
_USER
 70
     0
 71
     0
 91
        2
 92
        0
 93
        4
 72
     1
 10
47.22999999999996
 20
124.9999999999999
 11
44.99999999999997
 21
124.9999999999999
 72
     1
 10
44.99999999999997
 20
124.9999999999999
 11
44.99999999999997
 21
103.9999999999999
 72
     1
 10
44.99999999999997
 20
104.0
 11
47.22999999999988
 21
103.9999999999999
 72
     1
 10
47.22999999999988
 20
104.0
 11
47.22999999999996
 21
124.9999999999999
 97
        0
 92
        0
 93
        6
 72
     1
 10
179.0000000000003
 20
124.9999999999999
 11
176.7700000000004
 21
124.9999999999999
 72
     1
 10
176.7700000000004
 20
124.9999999999999
 11
176.7700000000004
 21
120.9999999999999
 72
     1
 10
176.7700000000004
 20
120.9999999999999
 11
176.7700000000006
 21
103.9999999999999
 72
     1
 10
176.7700000000006
 20
103.9999999999999
 11
179.0000000000004
 21
103.9999999999999
 72
     1
 10
179.0000000000005
 20
103.9999999999999
 11
179.0000000000003
 21
116.6597182265352
 72
     1
 10
179.0000000000003
 20
116.6597182265352
 11
179.0000000000003
 21
124.9999999999999
 97
        0
 75
     0
 76
     0
 52
45.0
 41
0.3
 77
     0
 78
     1
 53
45.0
 43
0.0
 44
0.0
 45
-0.2121320343559642
 46
0.2121320343559643
 79
     0
 98
        0
  0
ENDSEC
  0
SECTION
  2
OBJECTS
  0
DICTIONARY
  5
C
330
0
100
AcDbDictionary
  3
ACAD_GROUP
350
D
  3
ACAD_LAYOUT
350
1A
  3
ACAD_MATERIAL
350
43
  3
ACAD_MLEADERSTYLE
350
6B
  3
ACAD_MLINESTYLE
350
17
  3
ACAD_PLOTSETTINGS
350
19
  3
ACAD_SCALELIST
350
47
  3
ACAD_VISUALSTYLE
350
2A
  3
ACDBHEADERROUNDTRIPXREC
350
218
  3
ACDBVARIABLEDICTIONARY
350
239
  0
DICTIONARY
  5
242
330
8
100
AcDbDictionary
280
     1
  3
ACAD_XREC_ROUNDTRIP
360
243
  0
DICTIONARY
  5
D
102
{ACAD_REACTORS
330
C
102
}
330
C
100
AcDbDictionary
  0
DICTIONARY
  5
1A
102
{ACAD_REACTORS
330
C
102
}
330
C
100
AcDbDictionary
  0
DICTIONARY
  5
43
102
{ACAD_REACTORS
330
C
102
}
330
C
100
AcDbDictionary
  3
BYBLOCK
350
45
  3
BYLAYER
350
44
  3
GLOBAL
350
46
  0
DICTIONARY
  5
6B
102
{ACAD_REACTORS
330
C
102
}
330
C
100
AcDbDictionary
  3
STANDARD
350
6C
  0
DICTIONARY
  5
17
102
{ACAD_REACTORS
330
C
102
}
330
C
100
AcDbDictionary
  3
STANDARD
350
18
  0
DICTIONARY
  5
19
102
{ACAD_REACTORS
330
C
102
}
330
C
100
AcDbDictionary
  0
DICTIONARY
  5
47
102
{ACAD_REACTORS
330
C
102
}
330
C
100
AcDbDictionary
  3
A0
350
48
  3
A1
350
49
  3
A2
350
4A
  3
A3
350
4B
  3
A4
350
4C
  3
A5
350
4D
  3
A6
350
4E
  3
A7
350
4F
  3
A8
350
50
  3
A9
350
51
  3
B0
350
52
  3
B1
350
53
  3
B2
350
54
  3
B3
350
55
  3
B4
350
56
  3
B5
350
57
  3
B6
350
58
  3
B7
350
59
  3
B8
350
5A
  3
B9
350
5B
  3
C0
350
5C
  3
C1
350
5D
  3
C2
350
5E
  3
C3
350
5F
  3
C4
350
60
  3
C5
350
61
  3
C6
350
62
  3
C7
350
63
  3
C8
350
64
  3
C9
350
65
  3
D0
350
66
  3
D1
350
67
  3
D2
350
68
  0
DICTIONARY
  5
2A
102
{ACAD_REACTORS
330
C
102
}
330
C
100
AcDbDictionary
  3
2DWIREFRAME
350
2F
  3
BASIC
350
32
  3
BRIGHTEN
350
36
  3
COLORCHANGE
350
3A
  3
CONCEPTUAL
350
34
  3
DIM
350
35
  3
EDGECOLOROFF
350
3D
  3
FACEPATTERN
350
39
  3
FLAT
350
2B
  3
FLATWITHEDGES
350
2C
  3
GOURAUD
350
2D
  3
GOURAUDWITHEDGES
350
2E
  3
HIDDEN
350
31
  3
JITTEROFF
350
3B
  3
LINEPATTERN
350
38
  3
OVERHANGOFF
350
3C
  3
REALISTIC
350
33
  3
SHADED
350
42
  3
SHADED_WITH_EDGES
350
41
  3
SHADES_OF_GRAY
350
3E
  3
SKETCHY
350
3F
  3
THICKEN
350
37
  3
WIREFRAME
350
30
  3
X-RAY
350
40
  0
DICTIONARY
  5
218
102
{ACAD_REACTORS
330
C
102
}
330
C
100
AcDbDictionary
  3
CEPSNID
350
222
  3
CEPSNTYPE
350
221
  3
DIMSTYLEDATA
350
238
  3
FINGERPRINTGUID
350
223
  3
HYPERLINKBASE
350
21B
  3
INSUNITS
350
220
  3
LAYOUTDICT
350
21D
  3
LWETCUNION
350
21F
  3
PLOTSETDICT
350
21E
  3
PSVPSCALE
350
225
  3
PUCSBASE
350
228
  3
PUCSORGBACK
350
22E
  3
PUCSORGBOTTOM
350
22A
  3
PUCSORGFRONT
350
22D
  3
PUCSORGLEFT
350
22B
  3
PUCSORGRIGHT
350
22C
  3
PUCSORGTOP
350
229
  3
PUCSORTHOREF
350
226
  3
PUCSORTHOVIEW
350
227
  3
STYLESHEET
350
21C
  3
TSTACKALIGN
350
219
  3
TSTACKSIZE
350
21A
  3
UCSBASE
350
231
  3
UCSORGBACK
350
237
  3
UCSORGBOTTOM
350
233
  3
UCSORGFRONT
350
236
  3
UCSORGLEFT
350
234
  3
UCSORGRIGHT
350
235
  3
UCSORGTOP
350
232
  3
UCSORTHOREF
350
22F
  3
UCSORTHOVIEW
350
230
  3
VERSIONGUID
350
224
  0
DICTIONARY
  5
239
102
{ACAD_REACTORS
330
C
102
}
330
C
100
AcDbDictionary
  3
CANNOSCALE
350
244
  3
CMLEADERSTYLE
350
23B
  3
CTABLESTYLE
350
23A
  3
DIMASSOC
350
240
  3
HIDETEXT
350
241
  3
MSLTSCALE
350
245
  3
PSOLHEIGHT
350
23D
  3
PSOLWIDTH
350
23C
  0
XRECORD
  5
243
102
{ACAD_REACTORS
330
242
102
}
330
242
100
AcDbXrecord
102
VTR_0.000_0.000_1.000_1.000_GRIDDISPLAY
 70
     3
102
VTR_0.000_0.000_1.000_1.000_GRIDMAJOR
 70
     5
102
VTR_0.000_0.000_1.000_1.000_DEFAULTLIGHTING
280
     1
102
VTR_0.000_0.000_1.000_1.000_DEFAULTLIGHTINGTYPE
 70
     1
102
VTR_0.000_0.000_1.000_1.000_BRIGHTNESS
141
0.0
102
VTR_0.000_0.000_1.000_1.000_CONTRAST
142
0.0
  0
MATERIAL
  5
45
102
{ACAD_REACTORS
330
43
102
}
102
{ACAD_XDICTIONARY
360
248
102
}
330
43
100
AcDbMaterial
  1
BYBLOCK
  0
MATERIAL
  5
44
102
{ACAD_REACTORS
330
43
102
}
102
{ACAD_XDICTIONARY
360
246
102
}
330
43
100
AcDbMaterial
  1
BYLAYER
  0
MATERIAL
  5
46
102
{ACAD_REACTORS
330
43
102
}
102
{ACAD_XDICTIONARY
360
24A
102
}
330
43
100
AcDbMaterial
  1
GLOBAL
  0
ACAD_PROXY_OBJECT
  5
6C
102
{ACAD_REACTORS
330
6B
102
}
330
6B
100
AcDbProxyObject
 90
      499
 91
      505
 93
      610
310
40901902A4063FBFFFFFE0000000000000020400000000000020404214DD185B99185C990000000000000104090141901A00000000000004100000000000000041025764000000000000039000
340
14
340
0
340
11
340
0
 94
        0
1001
ACAD_MLEADERVER
1070
     2
  0
MLINESTYLE
  5
18
102
{ACAD_REACTORS
330
17
102
}
330
17
100
AcDbMlineStyle
  2
Standard
 70
     0
  3

 62
   256
 51
90.0
 52
90.0
 71
     2
 49
0.5
 62
   256
  6
BYLAYER
 49
-0.5
 62
   256
  6
BYLAYER
  0
ACAD_PROXY_OBJECT
  5
48
102
{ACAD_REACTORS
330
47
102
}
330
47
100
AcDbProxyObject
 90
      499
 91
      503
 93
       41
310
903313A31580
  0
ACAD_PROXY_OBJECT
  5
49
102
{ACAD_REACTORS
330
47
102
}
330
47
100
AcDbProxyObject
 90
      499
 91
      503
 93
      105
310
903313A324000000000000004000
  0
ACAD_PROXY_OBJECT
  5
4A
102
{ACAD_REACTORS
330
47
102
}
330
47
100
AcDbProxyObject
 90
      499
 91
      503
 93
      105
310
903313A344000000000000104000
  0
ACAD_PROXY_OBJECT
  5
4B
102
{ACAD_REACTORS
330
47
102
}
330
47
100
AcDbProxyObject
 90
      499
 91
      503
 93
      105
310
903313A354000000000000144000
  0
ACAD_PROXY_OBJECT
  5
4C
102
{ACAD_REACTORS
330
47
102
}
330
47
100
AcDbProxyObject
 90
      499
 91
      503
 93
      105
310
903313A384000000000000204000
  0
ACAD_PROXY_OBJECT
  5
4D
102
{ACAD_REACTORS
330
47
102
}
330
47
100
AcDbProxyObject
 90
      499
 91
      503
 93
      113
310
904313A31304000000000000244000
  0
ACAD_PROXY_OBJECT
  5
4E
102
{ACAD_REACTORS
330
47
102
}
330
47
100
AcDbProxyObject
 90
      499
 91
      503
 93
      113
310
904313A31364000000000000304000
  0
ACAD_PROXY_OBJECT
  5
4F
102
{ACAD_REACTORS
330
47
102
}
330
47
100
AcDbProxyObject
 90
      499
 91
      503
 93
      113
310
904313A32304000000000000344000
  0
ACAD_PROXY_OBJECT
  5
50
102
{ACAD_REACTORS
330
47
102
}
330
47
100
AcDbProxyObject
 90
      499
 91
      503
 93
      113
310
904313A333040000000000003E4000
  0
ACAD_PROXY_OBJECT
  5
51
102
{ACAD_REACTORS
330
47
102
}
330
47
100
AcDbProxyObject
 90
      499
 91
      503
 93
      113
310
904313A34304000000000000444000
  0
ACAD_PROXY_OBJECT
  5
52
102
{ACAD_REACTORS
330
47
102
}
330
47
100
AcDbProxyObject
 90
      499
 91
      503
 93
      113
310
904313A35304000000000000494000
  0
ACAD_PROXY_OBJECT
  5
53
102
{ACAD_REACTORS
330
47
102
}
330
47
100
AcDbProxyObject
 90
      499
 91
      503
 93
      121
310
905313A3130304000000000000594000
  0
ACAD_PROXY_OBJECT
  5
54
102
{ACAD_REACTORS
330
47
102
}
330
47
100
AcDbProxyObject
 90
      499
 91
      503
 93
      105
310
903323A310000000000000010100
  0
ACAD_PROXY_OBJECT
  5
55
102
{ACAD_REACTORS
330
47
102
}
330
47
100
AcDbProxyObject
 90
      499
 91
      503
 93
      105
310
903343A310000000000000410100
  0
ACAD_PROXY_OBJECT
  5
56
102
{ACAD_REACTORS
330
47
102
}
330
47
100
AcDbProxyObject
 90
      499
 91
      503
 93
      105
310
903383A310000000000000810100
  0
ACAD_PROXY_OBJECT
  5
57
102
{ACAD_REACTORS
330
47
102
}
330
47
100
AcDbProxyObject
 90
      499
 91
      503
 93
      113
310
90431303A310000000000000910100
  0
ACAD_PROXY_OBJECT
  5
58
102
{ACAD_REACTORS
330
47
102
}
330
47
100
AcDbProxyObject
 90
      499
 91
      503
 93
      121
310
9053130303A310000000000001650100
  0
ACAD_PROXY_OBJECT
  5
59
102
{ACAD_REACTORS
330
47
102
}
330
47
100
AcDbProxyObject
 90
      499
 91
      503
 93
      257
310
90E312F31323822203D2031272D3022000000000000200FC000000000000284000
  0
ACAD_PROXY_OBJECT
  5
5A
102
{ACAD_REACTORS
330
47
102
}
330
47
100
AcDbProxyObject
 90
      499
 91
      503
 93
      249
310
90D312F363422203D2031272D3022000000000000240FC000000000000284000
  0
ACAD_PROXY_OBJECT
  5
5B
102
{ACAD_REACTORS
330
47
102
}
330
47
100
AcDbProxyObject
 90
      499
 91
      503
 93
      249
310
90D312F333222203D2031272D3022000000000000280FC000000000000284000
  0
ACAD_PROXY_OBJECT
  5
5C
102
{ACAD_REACTORS
330
47
102
}
330
47
100
AcDbProxyObject
 90
      499
 91
      503
 93
      249
310
90D312F313622203D2031272D30220000000000002C0FC000000000000284000
  0
ACAD_PROXY_OBJECT
  5
5D
102
{ACAD_REACTORS
330
47
102
}
330
47
100
AcDbProxyObject
 90
      499
 91
      503
 93
      249
310
90D332F333222203D2031272D30220000000000002E0FC000000000000284000
  0
ACAD_PROXY_OBJECT
  5
5E
102
{ACAD_REACTORS
330
47
102
}
330
47
100
AcDbProxyObject
 90
      499
 91
      503
 93
      241
310
90C312F3822203D2031272D3022000000000000300FC000000000000284000
  0
ACAD_PROXY_OBJECT
  5
5F
102
{ACAD_REACTORS
330
47
102
}
330
47
100
AcDbProxyObject
 90
      499
 91
      503
 93
      249
310
90D332F313622203D2031272D3022000000000000320FC000000000000284000
  0
ACAD_PROXY_OBJECT
  5
60
102
{ACAD_REACTORS
330
47
102
}
330
47
100
AcDbProxyObject
 90
      499
 91
      503
 93
      241
310
90C312F3422203D2031272D3022000000000000340FC000000000000284000
  0
ACAD_PROXY_OBJECT
  5
61
102
{ACAD_REACTORS
330
47
102
}
330
47
100
AcDbProxyObject
 90
      499
 91
      503
 93
      241
310
90C332F3822203D2031272D3022000000000000360FC000000000000284000
  0
ACAD_PROXY_OBJECT
  5
62
102
{ACAD_REACTORS
330
47
102
}
330
47
100
AcDbProxyObject
 90
      499
 91
      503
 93
      241
310
90C312F3222203D2031272D3022000000000000380FC000000000000284000
  0
ACAD_PROXY_OBJECT
  5
63
102
{ACAD_REACTORS
330
47
102
}
330
47
100
AcDbProxyObject
 90
      499
 91
      503
 93
      241
310
90C332F3422203D2031272D30220000000000003A0FC000000000000284000
  0
ACAD_PROXY_OBJECT
  5
64
102
{ACAD_REACTORS
330
47
102
}
330
47
100
AcDbProxyObject
 90
      499
 91
      503
 93
      161
310
90A3122203D2031272D30224000000000000284000
  0
ACAD_PROXY_OBJECT
  5
65
102
{ACAD_REACTORS
330
47
102
}
330
47
100
AcDbProxyObject
 90
      499
 91
      503
 93
      257
310
90E312D312F3222203D2031272D30220000000000003E0FC000000000000284000
  0
ACAD_PROXY_OBJECT
  5
66
102
{ACAD_REACTORS
330
47
102
}
330
47
100
AcDbProxyObject
 90
      499
 91
      503
 93
      225
310
90A3322203D2031272D302200000000000002100000000000000284000
  0
ACAD_PROXY_OBJECT
  5
67
102
{ACAD_REACTORS
330
47
102
}
330
47
100
AcDbProxyObject
 90
      499
 91
      503
 93
      225
310
90A3622203D2031272D302200000000000006100000000000000284000
  0
ACAD_PROXY_OBJECT
  5
68
102
{ACAD_REACTORS
330
47
102
}
330
47
100
AcDbProxyObject
 90
      499
 91
      503
 93
      249
310
90D31272D3022203D2031272D30220000000000000A100000000000000284000
  0
ACAD_PROXY_OBJECT
  5
2F
102
{ACAD_REACTORS
330
2A
102
}
330
2A
100
AcDbProxyObject
 90
      499
 91
      501
 93
      436
310
42CC9915DA5C99599C985B595049028333333333333E33F0000000000000F90107901411070040501600405405064090741402480A0340
1001
ACAD
1000
AcDbSavedByObjectVersion
1070
     0
  0
ACAD_PROXY_OBJECT
  5
32
102
{ACAD_REACTORS
330
2A
102
}
330
2A
100
AcDbProxyObject
 90
      499
 91
      501
 93
      388
310
4150985CDA58D07406404333333333333E33F0000000000000F90107A41107004050150841D405064090741402480A0350
1001
ACAD
1000
AcDbSavedByObjectVersion
1070
     0
  0
ACAD_PROXY_OBJECT
  5
36
102
{ACAD_REACTORS
330
2A
102
}
330
2A
100
AcDbProxyObject
 90
      499
 91
      501
 93
      428
310
42109C9A59DA1D195B90C409028333333333333E33F0000000000000F9010790141107004050150841D405064090741402480A029950
1001
ACAD
1000
AcDbSavedByObjectVersion
1070
     0
  0
ACAD_PROXY_OBJECT
  5
3A
102
{ACAD_REACTORS
330
2A
102
}
330
2A
100
AcDbProxyObject
 90
      499
 91
      501
 93
      452
310
42D0DBDB1BDC90DA185B99D95104090240C333333333333E33F0000000000000F90108901411070040501508421405064090741402480A0350
1001
ACAD
1000
AcDbSavedByObjectVersion
1070
     0
  0
ACAD_PROXY_OBJECT
  5
34
102
{ACAD_REACTORS
330
2A
102
}
330
2A
100
AcDbProxyObject
 90
      499
 91
      501
 93
      500
310
4290DBDB98D95C1D1D585B10940D028333333333333E33F0000000000000F90107902409070040501000000000018199010841D405064090740C02480A0340
1001
ACAD
1000
AcDbSavedByObjectVersion
1070
     0
  0
ACAD_PROXY_OBJECT
  5
35
102
{ACAD_REACTORS
330
2A
102
}
330
2A
100
AcDbProxyObject
 90
      499
 91
      501
 93
      412
310
40D11A5B50B409028333333333333E33F0000000000000F9010790141107004050150841D405064090741402480A02677FFFFFD0
1001
ACAD
1000
AcDbSavedByObjectVersion
1070
     0
  0
ACAD_PROXY_OBJECT
  5
3D
102
{ACAD_REACTORS
330
2A
102
}
330
2A
100
AcDbProxyObject
 90
      499
 91
      501
 93
      452
310
43115919D950DBDB1BDC93D999916409028333333333333E33F0000000000000F9010790141107004050150841D405064090741402480A0350
1001
ACAD
1000
AcDbSavedByObjectVersion
1070
     0
  0
ACAD_PROXY_OBJECT
  5
39
102
{ACAD_REACTORS
330
2A
102
}
330
2A
100
AcDbProxyObject
 90
      499
 91
      501
 93
      444
310
42D19858D95C185D1D195C9B90F409028333333333333E33F0000000000000F9010790141107004050150841D405064090741402480A0350
1001
ACAD
1000
AcDbSavedByObjectVersion
1070
     0
  0
ACAD_PROXY_OBJECT
  5
2B
102
{ACAD_REACTORS
330
2A
102
}
330
2A
100
AcDbProxyObject
 90
      499
 91
      501
 93
      380
310
41119B185D240901404333333333333E33F0000000000000F9010740A907004050150841D405064090741402480A1B50
1001
ACAD
1000
AcDbSavedByObjectVersion
1070
     0
  0
ACAD_PROXY_OBJECT
  5
2C
102
{ACAD_REACTORS
330
2A
102
}
330
2A
100
AcDbProxyObject
 90
      499
 91
      501
 93
      468
310
43519B185D15DA5D1A115919D95CD0140901404333333333333E33F0000000000000F90107409019070040501600405405064090741402480A1B50
1001
ACAD
1000
AcDbSavedByObjectVersion
1070
     0
  0
ACAD_PROXY_OBJECT
  5
2D
102
{ACAD_REACTORS
330
2A
102
}
330
2A
100
AcDbProxyObject
 90
      499
 91
      501
 93
      404
310
41D1DBDD5C985D5910240902404333333333333E33F0000000000000F9010740A9070040501641D405064090741402480A1B50
1001
ACAD
1000
AcDbSavedByObjectVersion
1070
     0
  0
ACAD_PROXY_OBJECT
  5
2E
102
{ACAD_REACTORS
330
2A
102
}
330
2A
100
AcDbProxyObject
 90
      499
 91
      501
 93
      492
310
4411DBDD5C985D5915DA5D1A115919D95CD0340902404333333333333E33F0000000000000F90107409019070040501600405405064090741402480A1B50
1001
ACAD
1000
AcDbSavedByObjectVersion
1070
     0
  0
ACAD_PROXY_OBJECT
  5
31
102
{ACAD_REACTORS
330
2A
102
}
330
2A
100
AcDbProxyObject
 90
      499
 91
      501
 93
      476
310
41921A5919195B90640502408333333333333E33F0000000000000F901079024090700405020000000000001110200405405064090740C02480A0340
1001
ACAD
1000
AcDbSavedByObjectVersion
1070
     0
  0
ACAD_PROXY_OBJECT
  5
3B
102
{ACAD_REACTORS
330
2A
102
}
330
2A
100
AcDbProxyObject
 90
      499
 91
      501
 93
      428
310
42529A5D1D195C93D999914409028333333333333E33F0000000000000F9010790141107004050150A41D405064090741402480A0350
1001
ACAD
1000
AcDbSavedByObjectVersion
1070
     0
  0
ACAD_PROXY_OBJECT
  5
38
102
{ACAD_REACTORS
330
2A
102
}
330
2A
100
AcDbProxyObject
 90
      499
 91
      501
 93
      444
310
42D31A5B995C185D1D195C9B90E409028333333333333E33F0000000000000F9010790141107004050750841D405064090741402483A0350
1001
ACAD
1000
AcDbSavedByObjectVersion
1070
     0
  0
ACAD_PROXY_OBJECT
  5
3C
102
{ACAD_REACTORS
330
2A
102
}
330
2A
100
AcDbProxyObject
 90
      499
 91
      501
 93
      444
310
42D3DD995C9A185B99D3D999915409028333333333333E33F0000000000000F9010790141107004050150941D405064090741402480A0350
1001
ACAD
1000
AcDbSavedByObjectVersion
1070
     0
  0
ACAD_PROXY_OBJECT
  5
33
102
{ACAD_REACTORS
330
2A
102
}
330
2A
100
AcDbProxyObject
 90
      499
 91
      501
 93
      428
310
425499585B1A5CDD1A58D08409038333333333333E33F0000000000000F9010740A907004050150800405405064090740C02480A1B40
1001
ACAD
1000
AcDbSavedByObjectVersion
1070
     0
  0
ACAD_PROXY_OBJECT
  5
42
102
{ACAD_REACTORS
330
2A
102
}
330
2A
100
AcDbProxyObject
 90
      499
 91
      501
 93
      420
310
4194DA1859195911B40902404333333333333E33F0000000000000F9010740A41107004050150800405405064090840C02480A0B40
1001
ACAD
1000
AcDbSavedByObjectVersion
1070
     0
  0
ACAD_PROXY_OBJECT
  5
41
102
{ACAD_REACTORS
330
2A
102
}
330
2A
100
AcDbProxyObject
 90
      499
 91
      501
 93
      516
310
4454DA18591959081DDA5D1A08195919D95CD1A40902404333333333333E33F0000000000000F901074090142907004050250800405405064090740C02480A0B40
1001
ACAD
1000
AcDbSavedByObjectVersion
1070
     0
  0
ACAD_PROXY_OBJECT
  5
3E
102
{ACAD_REACTORS
330
2A
102
}
330
2A
100
AcDbProxyObject
 90
      499
 91
      501
 93
      532
310
4394DA1859195CC81BD98811DC985E5174090240C333333333333E33F0000000000000F901079024090741D01000000000000111010841D405064090740C02480A0340
1001
ACAD
1000
AcDbSavedByObjectVersion
1070
     0
  0
ACAD_PROXY_OBJECT
  5
3F
102
{ACAD_REACTORS
330
2A
102
}
330
2A
100
AcDbProxyObject
 90
      499
 91
      501
 93
      476
310
41D4DAD95D18DA1E51840502408333333333333E33F0000000000000F901079024090741D01000000000000111010B41D405064090741802480A0340
1001
ACAD
1000
AcDbSavedByObjectVersion
1070
     0
  0
ACAD_PROXY_OBJECT
  5
37
102
{ACAD_REACTORS
330
2A
102
}
330
2A
100
AcDbProxyObject
 90
      499
 91
      501
 93
      412
310
41D51A1A58DAD95B90D409028333333333333E33F0000000000000F9010790141107004050150C41D405064090741402480A0350
1001
ACAD
1000
AcDbSavedByObjectVersion
1070
     0
  0
ACAD_PROXY_OBJECT
  5
30
102
{ACAD_REACTORS
330
2A
102
}
330
2A
100
AcDbProxyObject
 90
      499
 91
      501
 93
      420
310
4255DA5C99599C985B595059028333333333333E33F0000000000000F90107901411070040501600405405064090740C02480A0340
1001
ACAD
1000
AcDbSavedByObjectVersion
1070
     0
  0
ACAD_PROXY_OBJECT
  5
40
102
{ACAD_REACTORS
330
2A
102
}
330
2A
100
AcDbProxyObject
 90
      499
 91
      501
 93
      404
310
41560B54985E51940902404000000000000E03F0000000000000F9010740501907004050150841D405064090740C02480A1B40
1001
ACAD
1000
AcDbSavedByObjectVersion
1070
     0
  0
XRECORD
  5
222
102
{ACAD_REACTORS
330
218
102
}
330
218
100
AcDbXrecord
340
0
  0
XRECORD
  5
221
102
{ACAD_REACTORS
330
218
102
}
330
218
100
AcDbXrecord
 90
        0
  0
XRECORD
  5
238
102
{ACAD_REACTORS
330
218
102
}
330
218
100
AcDbXrecord
1000
DSTYLE
1002
{
1070
   179
 70
     2
1070
   143
 40
0.03937
1070
    79
 70
     2
1070
   343
340
72
1070
   344
340
78
1070
    46
 40
4.0
1070
    43
 40
6.0
1070
   278
 70
    46
1070
    44
 40
1.0
1070
    42
 40
1.0
1070
   147
 40
1.0
1070
   341
340
72
1070
   173
 70
     1
1070
   283
 70
     1
1070
   340
340
D9
1070
   140
 40
3.0
1002
}
  0
XRECORD
  5
223
102
{ACAD_REACTORS
330
218
102
}
330
218
100
AcDbXrecord
  1
{0070BF1A-DDE1-4E89-B93C-1B16E3B5FC49}
  0
XRECORD
  5
21B
102
{ACAD_REACTORS
330
218
102
}
330
218
100
AcDbXrecord
  1

  0
XRECORD
  5
220
102
{ACAD_REACTORS
330
218
102
}
330
218
100
AcDbXrecord
 90
        4
  0
XRECORD
  5
21D
102
{ACAD_REACTORS
330
218
102
}
330
218
100
AcDbXrecord
340
1A
  0
XRECORD
  5
21F
102
{ACAD_REACTORS
330
218
102
}
330
218
100
AcDbXrecord
 90
    10781
  0
XRECORD
  5
21E
102
{ACAD_REACTORS
330
218
102
}
330
218
100
AcDbXrecord
340
19
  0
XRECORD
  5
225
102
{ACAD_REACTORS
330
218
102
}
330
218
100
AcDbXrecord
 40
0.0
  0
XRECORD
  5
228
102
{ACAD_REACTORS
330
218
102
}
330
218
100
AcDbXrecord
340
0
  0
XRECORD
  5
22E
102
{ACAD_REACTORS
330
218
102
}
330
218
100
AcDbXrecord
 10
0.0
 20
0.0
 30
0.0
  0
XRECORD
  5
22A
102
{ACAD_REACTORS
330
218
102
}
330
218
100
AcDbXrecord
 10
0.0
 20
0.0
 30
0.0
  0
XRECORD
  5
22D
102
{ACAD_REACTORS
330
218
102
}
330
218
100
AcDbXrecord
 10
0.0
 20
0.0
 30
0.0
  0
XRECORD
  5
22B
102
{ACAD_REACTORS
330
218
102
}
330
218
100
AcDbXrecord
 10
0.0
 20
0.0
 30
0.0
  0
XRECORD
  5
22C
102
{ACAD_REACTORS
330
218
102
}
330
218
100
AcDbXrecord
 10
0.0
 20
0.0
 30
0.0
  0
XRECORD
  5
229
102
{ACAD_REACTORS
330
218
102
}
330
218
100
AcDbXrecord
 10
0.0
 20
0.0
 30
0.0
  0
XRECORD
  5
226
102
{ACAD_REACTORS
330
218
102
}
330
218
100
AcDbXrecord
340
0
  0
XRECORD
  5
227
102
{ACAD_REACTORS
330
218
102
}
330
218
100
AcDbXrecord
 70
     0
  0
XRECORD
  5
21C
102
{ACAD_REACTORS
330
218
102
}
330
218
100
AcDbXrecord
  1

  0
XRECORD
  5
219
102
{ACAD_REACTORS
330
218
102
}
330
218
100
AcDbXrecord
 90
        1
  0
XRECORD
  5
21A
102
{ACAD_REACTORS
330
218
102
}
330
218
100
AcDbXrecord
 90
       70
  0
XRECORD
  5
231
102
{ACAD_REACTORS
330
218
102
}
330
218
100
AcDbXrecord
340
0
  0
XRECORD
  5
237
102
{ACAD_REACTORS
330
218
102
}
330
218
100
AcDbXrecord
 10
0.0
 20
0.0
 30
0.0
  0
XRECORD
  5
233
102
{ACAD_REACTORS
330
218
102
}
330
218
100
AcDbXrecord
 10
0.0
 20
0.0
 30
0.0
  0
XRECORD
  5
236
102
{ACAD_REACTORS
330
218
102
}
330
218
100
AcDbXrecord
 10
0.0
 20
0.0
 30
0.0
  0
XRECORD
  5
234
102
{ACAD_REACTORS
330
218
102
}
330
218
100
AcDbXrecord
 10
0.0
 20
0.0
 30
0.0
  0
XRECORD
  5
235
102
{ACAD_REACTORS
330
218
102
}
330
218
100
AcDbXrecord
 10
0.0
 20
0.0
 30
0.0
  0
XRECORD
  5
232
102
{ACAD_REACTORS
330
218
102
}
330
218
100
AcDbXrecord
 10
0.0
 20
0.0
 30
0.0
  0
XRECORD
  5
22F
102
{ACAD_REACTORS
330
218
102
}
330
218
100
AcDbXrecord
340
0
  0
XRECORD
  5
230
102
{ACAD_REACTORS
330
218
102
}
330
218
100
AcDbXrecord
 70
     0
  0
XRECORD
  5
224
102
{ACAD_REACTORS
330
218
102
}
330
218
100
AcDbXrecord
  1
{FAEB1C32-E019-11D5-929B-00C0DF256EC4}
  0
DICTIONARYVAR
  5
244
102
{ACAD_REACTORS
330
239
102
}
330
239
100
DictionaryVariables
280
     0
  1
1:1
  0
DICTIONARYVAR
  5
23B
102
{ACAD_REACTORS
330
239
102
}
330
239
100
DictionaryVariables
280
     0
  1
Standard
  0
DICTIONARYVAR
  5
23A
102
{ACAD_REACTORS
330
239
102
}
330
239
100
DictionaryVariables
280
     0
  1
Standard
  0
DICTIONARYVAR
  5
240
102
{ACAD_REACTORS
330
239
102
}
330
239
100
DictionaryVariables
280
     0
  1
2
  0
DICTIONARYVAR
  5
241
102
{ACAD_REACTORS
330
239
102
}
330
239
100
DictionaryVariables
280
     0
  1
1
  0
DICTIONARYVAR
  5
245
102
{ACAD_REACTORS
330
239
102
}
330
239
100
DictionaryVariables
280
     0
  1
1
  0
DICTIONARYVAR
  5
23D
102
{ACAD_REACTORS
330
239
102
}
330
239
100
DictionaryVariables
280
     0
  1
80.000000
  0
DICTIONARYVAR
  5
23C
102
{ACAD_REACTORS
330
239
102
}
330
239
100
DictionaryVariables
280
     0
  1
5.000000
  0
DICTIONARY
  5
248
330
45
100
AcDbDictionary
280
     1
  3
ACAD_XREC_ROUNDTRIP
360
249
  0
DICTIONARY
  5
246
330
44
100
AcDbDictionary
280
     1
  3
ACAD_XREC_ROUNDTRIP
360
247
  0
DICTIONARY
  5
24A
330
46
100
AcDbDictionary
280
     1
  3
ACAD_XREC_ROUNDTRIP
360
24B
  0
XRECORD
  5
249
102
{ACAD_REACTORS
330
248
102
}
330
248
100
AcDbXrecord
102
MATERIAL
148
0.0
149
0.0
149
0.0
 93
        0
 94
      127
282
     0
 72
     1
 77
     1
171
     1
175
     1
179
     1
273
     0
  0
XRECORD
  5
247
102
{ACAD_REACTORS
330
246
102
}
330
246
100
AcDbXrecord
102
MATERIAL
148
0.0
149
0.0
149
0.0
 93
        0
 94
      127
282
     0
 72
     1
 77
     1
171
     1
175
     1
179
     1
273
     0
  0
XRECORD
  5
24B
102
{ACAD_REACTORS
330
24A
102
}
330
24A
100
AcDbXrecord
102
MATERIAL
148
0.0
149
0.0
149
0.0
 93
        0
 94
      127
282
     0
 72
     1
 77
     1
171
     1
175
     1
179
     1
273
     0
  0
ENDSEC
  0
EOF
