  0
SECTION
  2
HEADER
  9
$ACADVER
  1
AC1014
  9
$ACADMAINTVER
 70
     9
  9
$DWGCODEPAGE
  3
ASCII
  9
$INSBASE
 10
0.0
 20
0.0
 30
0.0
  9
$EXTMIN
 10
1.000000000000000E+20
 20
1.000000000000000E+20
 30
1.000000000000000E+20
  9
$EXTMAX
 10
-1.000000000000000E+20
 20
-1.000000000000000E+20
 30
-1.000000000000000E+20
  9
$LIMMIN
 10
0.0
 20
0.0
  9
$LIMMAX
 10
12.0
 20
9.0
  9
$ORTHOMODE
 70
     0
  9
$REGENMODE
 70
     1
  9
$FILLMODE
 70
     1
  9
$QTEXTMODE
 70
     0
  9
$MIRRTEXT
 70
     1
  9
$DRAGMODE
 70
     2
  9
$LTSCALE
 40
1.0
  9
$OSMODE
 70
    37
  9
$ATTMODE
 70
     1
  9
$TEXTSIZE
 40
0.2
  9
$TRACEWID
 40
0.05
  9
$TEXTSTYLE
  7
STANDARD
  9
$CLAYER
  8
0
  9
$CELTYPE
  6
BYLAYER
  9
$CECOLOR
 62
   256
  9
$CELTSCALE
 40
1.0
  9
$DELOBJ
 70
     1
  9
$DISPSILH
 70
     0
  9
$DIMSCALE
 40
1.0
  9
$DIMASZ
 40
0.18
  9
$DIMEXO
 40
0.0625
  9
$DIMDLI
 40
0.38
  9
$DIMRND
 40
0.0
  9
$DIMDLE
 40
0.0
  9
$DIMEXE
 40
0.18
  9
$DIMTP
 40
0.0
  9
$DIMTM
 40
0.0
  9
$DIMTXT
 40
0.18
  9
$DIMCEN
 40
0.09
  9
$DIMTSZ
 40
0.0
  9
$DIMTOL
 70
     0
  9
$DIMLIM
 70
     0
  9
$DIMTIH
 70
     1
  9
$DIMTOH
 70
     1
  9
$DIMSE1
 70
     0
  9
$DIMSE2
 70
     0
  9
$DIMTAD
 70
     0
  9
$DIMZIN
 70
     0
  9
$DIMBLK
  1

  9
$DIMASO
 70
     1
  9
$DIMSHO
 70
     1
  9
$DIMPOST
  1

  9
$DIMAPOST
  1

  9
$DIMALT
 70
     0
  9
$DIMALTD
 70
     2
  9
$DIMALTF
 40
25.4
  9
$DIMLFAC
 40
1.0
  9
$DIMTOFL
 70
     0
  9
$DIMTVP
 40
0.0
  9
$DIMTIX
 70
     0
  9
$DIMSOXD
 70
     0
  9
$DIMSAH
 70
     0
  9
$DIMBLK1
  1

  9
$DIMBLK2
  1

  9
$DIMSTYLE
  2
STANDARD
  9
$DIMCLRD
 70
     0
  9
$DIMCLRE
 70
     0
  9
$DIMCLRT
 70
     0
  9
$DIMTFAC
 40
1.0
  9
$DIMGAP
 40
0.09
  9
$DIMJUST
 70
     0
  9
$DIMSD1
 70
     0
  9
$DIMSD2
 70
     0
  9
$DIMTOLJ
 70
     1
  9
$DIMTZIN
 70
     0
  9
$DIMALTZ
 70
     0
  9
$DIMALTTZ
 70
     0
  9
$DIMFIT
 70
     3
  9
$DIMUPT
 70
     0
  9
$DIMUNIT
 70
     2
  9
$DIMDEC
 70
     4
  9
$DIMTDEC
 70
     4
  9
$DIMALTU
 70
     2
  9
$DIMALTTD
 70
     2
  9
$DIMTXSTY
  7
STANDARD
  9
$DIMAUNIT
 70
     0
  9
$LUNITS
 70
     2
  9
$LUPREC
 70
     4
  9
$SKETCHINC
 40
0.1
  9
$FILLETRAD
 40
0.5
  9
$AUNITS
 70
     0
  9
$AUPREC
 70
     0
  9
$MENU
  1
.
  9
$ELEVATION
 40
0.0
  9
$PELEVATION
 40
0.0
  9
$THICKNESS
 40
0.0
  9
$LIMCHECK
 70
     0
  9
$CHAMFERA
 40
0.5
  9
$CHAMFERB
 40
0.5
  9
$CHAMFERC
 40
1.0
  9
$CHAMFERD
 40
0.0
  9
$SKPOLY
 70
     0
  9
$TDCREATE
 40
2456673.699302164
  9
$TDUPDATE
 40
2456673.699302176
  9
$TDINDWG
 40
0.0000000116
  9
$TDUSRTIMER
 40
0.0000000116
  9
$USRTIMER
 70
     1
  9
$ANGBASE
 50
0.0
  9
$ANGDIR
 70
     0
  9
$PDMODE
 70
     0
  9
$PDSIZE
 40
0.0
  9
$PLINEWID
 40
0.0
  9
$COORDS
 70
     1
  9
$SPLFRAME
 70
     0
  9
$SPLINETYPE
 70
     6
  9
$SPLINESEGS
 70
     8
  9
$ATTDIA
 70
     0
  9
$ATTREQ
 70
     1
  9
$HANDLING
 70
     1
  9
$HANDSEED
  5
838
  9
$SURFTAB1
 70
     6
  9
$SURFTAB2
 70
     6
  9
$SURFTYPE
 70
     6
  9
$SURFU
 70
     6
  9
$SURFV
 70
     6
  9
$UCSNAME
  2

  9
$UCSORG
 10
0.0
 20
0.0
 30
0.0
  9
$UCSXDIR
 10
1.0
 20
0.0
 30
0.0
  9
$UCSYDIR
 10
0.0
 20
1.0
 30
0.0
  9
$PUCSNAME
  2

  9
$PUCSORG
 10
0.0
 20
0.0
 30
0.0
  9
$PUCSXDIR
 10
1.0
 20
0.0
 30
0.0
  9
$PUCSYDIR
 10
0.0
 20
1.0
 30
0.0
  9
$USERI1
 70
     0
  9
$USERI2
 70
     0
  9
$USERI3
 70
     0
  9
$USERI4
 70
     0
  9
$USERI5
 70
     0
  9
$USERR1
 40
0.0
  9
$USERR2
 40
0.0
  9
$USERR3
 40
0.0
  9
$USERR4
 40
0.0
  9
$USERR5
 40
0.0
  9
$WORLDVIEW
 70
     1
  9
$SHADEDGE
 70
     3
  9
$SHADEDIF
 70
    70
  9
$TILEMODE
 70
     1
  9
$MAXACTVP
 70
    64
  9
$PINSBASE
 10
0.0
 20
0.0
 30
0.0
  9
$PLIMCHECK
 70
     0
  9
$PEXTMIN
 10
1.000000000000000E+20
 20
1.000000000000000E+20
 30
1.000000000000000E+20
  9
$PEXTMAX
 10
-1.000000000000000E+20
 20
-1.000000000000000E+20
 30
-1.000000000000000E+20
  9
$PLIMMIN
 10
0.0
 20
0.0
  9
$PLIMMAX
 10
12.0
 20
9.0
  9
$UNITMODE
 70
     0
  9
$VISRETAIN
 70
     1
  9
$PLINEGEN
 70
     0
  9
$PSLTSCALE
 70
     1
  9
$TREEDEPTH
 70
  3020
  9
$PICKSTYLE
 70
     1
  9
$CMLSTYLE
  2
STANDARD
  9
$CMLJUST
 70
     0
  9
$CMLSCALE
 40
1.0
  9
$PROXYGRAPHICS
 70
     1
  9
$MEASUREMENT
 70
     0
  0
ENDSEC
  0
SECTION
  2
CLASSES
  0
CLASS
  1
ACDBDICTIONARYWDFLT
  2
AcDbDictionaryWithDefault
  3
ObjectDBX Classes
 90
        0
280
     0
281
     0
  0
CLASS
  1
VISUALSTYLE
  2
AcDbVisualStyle
  3
ObjectDBX Classes
 90
     4095
280
     1
281
     0
  0
CLASS
  1
ACAD_PROXY_OBJECT_WRAPPER
  2
AcDbProxyObjectWrapper
  3
AutoCAD 2000
 90
        0
280
     0
281
     0
  0
CLASS
  1
XRECORD
  2
AcDbXrecord
  3
AutoCAD 2000
 90
        0
280
     0
281
     0
  0
CLASS
  1
LWPOLYLINE
  2
AcDbPolyline
  3
AutoCAD 2000
 90
        0
280
     0
281
     1
  0
CLASS
  1
HATCH
  2
AcDbHatch
  3
AutoCAD 2000
 90
        0
280
     0
281
     1
  0
CLASS
  1
ACDBPLACEHOLDER
  2
AcDbPlaceHolder
  3
ObjectDBX Classes
 90
        0
280
     0
281
     0
  0
CLASS
  1
LAYOUT
  2
AcDbLayout
  3
ObjectDBX Classes
 90
        0
280
     0
281
     0
  0
ENDSEC
  0
SECTION
  2
TABLES
  0
TABLE
  2
VPORT
  5
8
330
0
100
AcDbSymbolTable
 70
     1
  0
VPORT
  5
29
102
{ACAD_XDICTIONARY
360
836
102
}
330
8
100
AcDbSymbolTableRecord
100
AcDbViewportTableRecord
  2
*ACTIVE
 70
     0
 10
0.0
 20
0.0
 11
1.0
 21
1.0
 12
0.0
 22
0.0
 13
0.0
 23
0.0
 14
0.5
 24
0.5
 15
0.5
 25
0.5
 16
0.0
 26
0.0
 36
1.0
 17
105.0008091239277
 27
148.5001637099431
 37
0.0
 40
297.0003274198861
 41
0.7070753762199199
 42
50.0
 43
0.0
 44
0.0
 50
0.0
 51
0.0
 71
     0
 72
   100
 73
     1
 74
     3
 75
     0
 76
     0
 77
     0
 78
     0
  0
ENDTAB
  0
TABLE
  2
LTYPE
  5
5
330
0
100
AcDbSymbolTable
 70
     1
  0
LTYPE
  5
14
330
5
100
AcDbSymbolTableRecord
100
AcDbLinetypeTableRecord
  2
BYBLOCK
 70
     0
  3

 72
    65
 73
     0
 40
0.0
  0
LTYPE
  5
15
330
5
100
AcDbSymbolTableRecord
100
AcDbLinetypeTableRecord
  2
BYLAYER
 70
     0
  3

 72
    65
 73
     0
 40
0.0
  0
LTYPE
  5
16
330
5
100
AcDbSymbolTableRecord
100
AcDbLinetypeTableRecord
  2
CONTINUOUS
 70
     0
  3
Solid line
 72
    65
 73
     0
 40
0.0
  0
ENDTAB
  0
TABLE
  2
LAYER
  5
2
330
0
100
AcDbSymbolTable
 70
     2
  0
LAYER
  5
10
330
2
100
AcDbSymbolTableRecord
100
AcDbLayerTableRecord
  2
0
 70
     0
 62
     7
  6
CONTINUOUS
  0
LAYER
  5
3B
330
2
100
AcDbSymbolTableRecord
100
AcDbLayerTableRecord
  2
_____1
 70
     0
 62
     7
  6
CONTINUOUS
  0
ENDTAB
  0
TABLE
  2
STYLE
  5
3
330
0
100
AcDbSymbolTable
 70
     1
  0
STYLE
  5
11
330
3
100
AcDbSymbolTableRecord
100
AcDbTextStyleTableRecord
  2
STANDARD
 70
     0
 40
0.0
 41
1.0
 50
0.0
 71
     0
 42
0.2
  3
txt
  4

  0
ENDTAB
  0
TABLE
  2
VIEW
  5
6
330
0
100
AcDbSymbolTable
 70
     0
  0
ENDTAB
  0
TABLE
  2
UCS
  5
7
330
0
100
AcDbSymbolTable
 70
     0
  0
ENDTAB
  0
TABLE
  2
APPID
  5
9
330
0
100
AcDbSymbolTable
 70
     1
  0
APPID
  5
12
330
9
100
AcDbSymbolTableRecord
100
AcDbRegAppTableRecord
  2
ACAD
 70
     0
  0
ENDTAB
  0
TABLE
  2
DIMSTYLE
  5
A
330
0
100
AcDbSymbolTable
 70
     1
  0
DIMSTYLE
105
27
330
A
100
AcDbSymbolTableRecord
100
AcDbDimStyleTableRecord
  2
STANDARD
 70
     0
  3

  4

  5

  6

  7

 40
1.0
 41
0.18
 42
0.0625
 43
0.38
 44
0.18
 45
0.0
 46
0.0
 47
0.0
 48
0.0
140
0.18
141
0.09
142
0.0
143
25.4
144
1.0
145
0.0
146
1.0
147
0.09
 71
     0
 72
     0
 73
     1
 74
     1
 75
     0
 76
     0
 77
     0
 78
     0
170
     0
171
     2
172
     0
173
     0
174
     0
175
     0
176
     0
177
     0
178
     0
270
     2
271
     4
272
     4
273
     2
274
     2
340
11
275
     0
280
     0
281
     0
282
     0
283
     1
284
     0
285
     0
286
     0
287
     3
288
     0
  0
ENDTAB
  0
TABLE
  2
BLOCK_RECORD
  5
1
330
0
100
AcDbSymbolTable
 70
     2
  0
BLOCK_RECORD
  5
1F
330
1
100
AcDbSymbolTableRecord
100
AcDbBlockTableRecord
  2
*MODEL_SPACE
  0
BLOCK_RECORD
  5
1B
330
1
100
AcDbSymbolTableRecord
100
AcDbBlockTableRecord
  2
*PAPER_SPACE
  0
BLOCK_RECORD
  5
3C
330
1
100
AcDbSymbolTableRecord
100
AcDbBlockTableRecord
  2
BLOCK_2
  0
ENDTAB
  0
ENDSEC
  0
SECTION
  2
BLOCKS
  0
BLOCK
  5
20
330
1F
100
AcDbEntity
  8
0
100
AcDbBlockBegin
  2
*MODEL_SPACE
 70
     0
 71
     0
 10
0.0
 20
0.0
 30
0.0
  3
*MODEL_SPACE
  1

  0
ENDBLK
  5
21
330
1F
100
AcDbEntity
  8
0
100
AcDbBlockEnd
  0
BLOCK
  5
1C
330
1B
100
AcDbEntity
 67
     1
  8
0
100
AcDbBlockBegin
  2
*PAPER_SPACE
 70
     0
 71
     0
 10
0.0
 20
0.0
 30
0.0
  3
*PAPER_SPACE
  1

  0
ENDBLK
  5
1D
330
1B
100
AcDbEntity
 67
     1
  8
0
100
AcDbBlockEnd
  0
BLOCK
  5
3E
330
3C
100
AcDbEntity
  8
0
100
AcDbBlockBegin
  2
BLOCK_2
 70
     0
 71
     0
 10
0.0
 20
0.0
 30
0.0
  3
BLOCK_2
  1

  0
POLYLINE
  5
40
330
3C
100
AcDbEntity
  8
_____1
 62
     7
100
AcDb2dPolyline
 66
     1
 10
0.0
 20
0.0
 30
0.0
  0
VERTEX
  5
41
330
40
100
AcDbEntity
  8
_____1
 62
     7
100
AcDbVertex
100
AcDb2dVertex
 10
121.4805203765814
 20
118.2185295644553
 30
0.0
  0
VERTEX
  5
42
330
40
100
AcDbEntity
  8
_____1
 62
     7
100
AcDbVertex
100
AcDb2dVertex
 10
129.6329997110219
 20
118.2185295644553
 30
0.0
  0
SEQEND
  5
43
330
40
100
AcDbEntity
  8
_____1
  0
POLYLINE
  5
44
330
3C
100
AcDbEntity
  8
_____1
 62
     7
100
AcDb2dPolyline
 66
     1
 10
0.0
 20
0.0
 30
0.0
  0
VERTEX
  5
45
330
44
100
AcDbEntity
  8
_____1
 62
     7
100
AcDbVertex
100
AcDb2dVertex
 10
129.6329997110219
 20
118.2278313284018
 30
0.0
  0
VERTEX
  5
46
330
44
100
AcDbEntity
  8
_____1
 62
     7
100
AcDbVertex
100
AcDb2dVertex
 10
129.6329997110219
 20
121.5151436090489
 30
0.0
  0
SEQEND
  5
47
330
44
100
AcDbEntity
  8
_____1
  0
POLYLINE
  5
48
330
3C
100
AcDbEntity
  8
_____1
 62
     7
100
AcDb2dPolyline
 66
     1
 10
0.0
 20
0.0
 30
0.0
  0
VERTEX
  5
49
330
48
100
AcDbEntity
  8
_____1
 62
     7
100
AcDbVertex
100
AcDb2dVertex
 10
121.4653619464463
 20
118.2278313284018
 30
0.0
  0
VERTEX
  5
4A
330
48
100
AcDbEntity
  8
_____1
 62
     7
100
AcDbVertex
100
AcDb2dVertex
 10
121.4653619464463
 20
121.5151436090489
 30
0.0
  0
SEQEND
  5
4B
330
48
100
AcDbEntity
  8
_____1
  0
POLYLINE
  5
4C
330
3C
100
AcDbEntity
  8
_____1
 62
     7
100
AcDb2dPolyline
 66
     1
 10
0.0
 20
0.0
 30
0.0
  0
VERTEX
  5
4D
330
4C
100
AcDbEntity
  8
_____1
 62
     7
100
AcDbVertex
100
AcDb2dVertex
 10
121.4805203765814
 20
120.2769754748374
 30
0.0
  0
VERTEX
  5
4E
330
4C
100
AcDbEntity
  8
_____1
 62
     7
100
AcDbVertex
100
AcDb2dVertex
 10
129.6329997110219
 20
120.2769754748374
 30
0.0
  0
SEQEND
  5
4F
330
4C
100
AcDbEntity
  8
_____1
  0
POLYLINE
  5
50
330
3C
100
AcDbEntity
  8
_____1
 62
     7
100
AcDb2dPolyline
 66
     1
 10
0.0
 20
0.0
 30
0.0
  0
VERTEX
  5
51
330
50
100
AcDbEntity
  8
_____1
 62
     7
100
AcDbVertex
100
AcDb2dVertex
 10
8.33954814269786
 20
118.2185295644553
 30
0.0
  0
VERTEX
  5
52
330
50
100
AcDbEntity
  8
_____1
 62
     7
100
AcDbVertex
100
AcDb2dVertex
 10
16.4918552222505
 20
118.2185295644553
 30
0.0
  0
SEQEND
  5
53
330
50
100
AcDbEntity
  8
_____1
  0
POLYLINE
  5
54
330
3C
100
AcDbEntity
  8
_____1
 62
     7
100
AcDb2dPolyline
 66
     1
 10
0.0
 20
0.0
 30
0.0
  0
VERTEX
  5
55
330
54
100
AcDbEntity
  8
_____1
 62
     7
100
AcDbVertex
100
AcDb2dVertex
 10
16.4918552222505
 20
118.2278313284018
 30
0.0
  0
VERTEX
  5
56
330
54
100
AcDbEntity
  8
_____1
 62
     7
100
AcDbVertex
100
AcDb2dVertex
 10
16.4918552222505
 20
121.5151436090489
 30
0.0
  0
SEQEND
  5
57
330
54
100
AcDbEntity
  8
_____1
  0
POLYLINE
  5
58
330
3C
100
AcDbEntity
  8
_____1
 62
     7
100
AcDb2dPolyline
 66
     1
 10
0.0
 20
0.0
 30
0.0
  0
VERTEX
  5
59
330
58
100
AcDbEntity
  8
_____1
 62
     7
100
AcDbVertex
100
AcDb2dVertex
 10
8.324389712562828
 20
118.2278313284018
 30
0.0
  0
VERTEX
  5
5A
330
58
100
AcDbEntity
  8
_____1
 62
     7
100
AcDbVertex
100
AcDb2dVertex
 10
8.324389712562828
 20
121.5151436090489
 30
0.0
  0
SEQEND
  5
5B
330
58
100
AcDbEntity
  8
_____1
  0
POLYLINE
  5
5C
330
3C
100
AcDbEntity
  8
_____1
 62
     7
100
AcDb2dPolyline
 66
     1
 10
0.0
 20
0.0
 30
0.0
  0
VERTEX
  5
5D
330
5C
100
AcDbEntity
  8
_____1
 62
     7
100
AcDbVertex
100
AcDb2dVertex
 10
8.33954814269786
 20
120.2769754748374
 30
0.0
  0
VERTEX
  5
5E
330
5C
100
AcDbEntity
  8
_____1
 62
     7
100
AcDbVertex
100
AcDb2dVertex
 10
16.4918552222505
 20
120.2769754748374
 30
0.0
  0
SEQEND
  5
5F
330
5C
100
AcDbEntity
  8
_____1
  0
POLYLINE
  5
60
330
3C
100
AcDbEntity
  8
_____1
 62
     7
100
AcDb2dPolyline
 66
     1
 10
0.0
 20
0.0
 30
0.0
  0
VERTEX
  5
61
330
60
100
AcDbEntity
  8
_____1
 62
     7
100
AcDbVertex
100
AcDb2dVertex
 10
118.472605524105
 20
177.1669082813862
 30
0.0
  0
VERTEX
  5
62
330
60
100
AcDbEntity
  8
_____1
 62
     7
100
AcDbVertex
100
AcDb2dVertex
 10
118.472605524105
 20
178.6731050211671
 30
0.0
  0
SEQEND
  5
63
330
60
100
AcDbEntity
  8
_____1
  0
POLYLINE
  5
64
330
3C
100
AcDbEntity
  8
_____1
 62
     7
100
AcDb2dPolyline
 66
     1
 10
0.0
 20
0.0
 30
0.0
  0
VERTEX
  5
65
330
64
100
AcDbEntity
  8
_____1
 62
     7
100
AcDbVertex
100
AcDb2dVertex
 10
118.472605524105
 20
121.4886163563126
 30
0.0
  0
VERTEX
  5
66
330
64
100
AcDbEntity
  8
_____1
 62
     7
100
AcDbVertex
100
AcDb2dVertex
 10
118.472605524105
 20
122.995502115645
 30
0.0
  0
SEQEND
  5
67
330
64
100
AcDbEntity
  8
_____1
  0
POLYLINE
  5
68
330
3C
100
AcDbEntity
  8
_____1
 62
     7
100
AcDb2dPolyline
 66
     1
 10
0.0
 20
0.0
 30
0.0
  0
VERTEX
  5
69
330
68
100
AcDbEntity
  8
_____1
 62
     7
100
AcDbVertex
100
AcDb2dVertex
 10
19.95969062541474
 20
178.6731050211671
 30
0.0
  0
VERTEX
  5
6A
330
68
100
AcDbEntity
  8
_____1
 62
     7
100
AcDbVertex
100
AcDb2dVertex
 10
19.95969062541474
 20
177.1669082813862
 30
0.0
  0
SEQEND
  5
6B
330
68
100
AcDbEntity
  8
_____1
  0
POLYLINE
  5
6C
330
3C
100
AcDbEntity
  8
_____1
 62
     7
100
AcDb2dPolyline
 66
     1
 10
0.0
 20
0.0
 30
0.0
  0
VERTEX
  5
6D
330
6C
100
AcDbEntity
  8
_____1
 62
     7
100
AcDbVertex
100
AcDb2dVertex
 10
19.79742652101474
 20
123.0285750541214
 30
0.0
  0
VERTEX
  5
6E
330
6C
100
AcDbEntity
  8
_____1
 62
     7
100
AcDbVertex
100
AcDb2dVertex
 10
19.79742652101474
 20
121.5974814454642
 30
0.0
  0
SEQEND
  5
6F
330
6C
100
AcDbEntity
  8
_____1
  0
POLYLINE
  5
70
330
3C
100
AcDbEntity
  8
_____1
 62
     7
100
AcDb2dPolyline
 66
     1
 10
0.0
 20
0.0
 30
0.0
  0
VERTEX
  5
71
330
70
100
AcDbEntity
  8
_____1
 62
     7
100
AcDbVertex
100
AcDb2dVertex
 10
8.582083024858362
 20
149.6610755269322
 30
0.0
  0
VERTEX
  5
72
330
70
100
AcDbEntity
  8
_____1
 62
     7
100
AcDbVertex
100
AcDb2dVertex
 10
8.582083024858362
 20
139.4978648860573
 30
0.0
  0
SEQEND
  5
73
330
70
100
AcDbEntity
  8
_____1
  0
POLYLINE
  5
74
330
3C
100
AcDbEntity
  8
_____1
 62
     7
100
AcDb2dPolyline
 66
     1
 10
0.0
 20
0.0
 30
0.0
  0
VERTEX
  5
75
330
74
100
AcDbEntity
  8
_____1
 62
     7
100
AcDbVertex
100
AcDb2dVertex
 10
8.582083024858362
 20
139.4978648860573
 30
0.0
  0
VERTEX
  5
76
330
74
100
AcDbEntity
  8
_____1
 62
     7
100
AcDbVertex
100
AcDb2dVertex
 10
1.127925005956657
 20
139.4978648860573
 30
0.0
  0
SEQEND
  5
77
330
74
100
AcDbEntity
  8
_____1
  0
SPLINE
  5
78
330
3C
100
AcDbEntity
  8
_____1
 62
     7
100
AcDbSpline
210
0.0
220
0.0
230
1.0
 70
     8
 71
     3
 72
     8
 73
     4
 74
     0
 42
0.0000000001
 43
0.0000000001
 40
0.0
 40
0.0
 40
0.0
 40
0.0
 40
1.0
 40
1.0
 40
1.0
 40
1.0
 10
-2.37039951236554
 20
144.5800730986024
 30
0.0
 10
-2.37039951236554
 20
141.7730074454152
 30
0.0
 10
-0.8047748362598505
 20
139.4978648860573
 30
0.0
 10
1.127925005956657
 20
139.4978648860573
 30
0.0
  0
SPLINE
  5
79
330
3C
100
AcDbEntity
  8
_____1
 62
     7
100
AcDbSpline
210
0.0
220
0.0
230
1.0
 70
     8
 71
     3
 72
     8
 73
     4
 74
     0
 42
0.0000000001
 43
0.0000000001
 40
0.0
 40
0.0
 40
0.0
 40
0.0
 40
1.0
 40
1.0
 40
1.0
 40
1.0
 10
1.127925005956657
 20
149.6610755269322
 30
0.0
 10
-0.8047748362598505
 20
149.6610755269322
 30
0.0
 10
-2.37039951236554
 20
147.386449732238
 30
0.0
 10
-2.37039951236554
 20
144.5800730986024
 30
0.0
  0
POLYLINE
  5
7A
330
3C
100
AcDbEntity
  8
_____1
 62
     7
100
AcDb2dPolyline
 66
     1
 10
0.0
 20
0.0
 30
0.0
  0
VERTEX
  5
7B
330
7A
100
AcDbEntity
  8
_____1
 62
     7
100
AcDbVertex
100
AcDb2dVertex
 10
1.127925005956657
 20
149.6610755269322
 30
0.0
  0
VERTEX
  5
7C
330
7A
100
AcDbEntity
  8
_____1
 62
     7
100
AcDbVertex
100
AcDb2dVertex
 10
8.582083024858362
 20
149.6610755269322
 30
0.0
  0
SEQEND
  5
7D
330
7A
100
AcDbEntity
  8
_____1
  0
SPLINE
  5
7E
330
3C
100
AcDbEntity
  8
_____1
 62
     7
100
AcDbSpline
210
0.0
220
0.0
230
1.0
 70
    11
 71
     3
 72
    32
 73
    28
 74
     0
 42
0.0000000001
 43
0.0000000001
 40
0.0
 40
0.0
 40
0.0
 40
0.0
 40
1.0
 40
1.0
 40
1.0
 40
2.0
 40
2.0
 40
2.0
 40
3.0
 40
3.0
 40
3.0
 40
4.0
 40
4.0
 40
4.0
 40
5.0
 40
5.0
 40
5.0
 40
6.0
 40
6.0
 40
6.0
 40
7.0
 40
7.0
 40
7.0
 40
8.0
 40
8.0
 40
8.0
 40
9.0
 40
9.0
 40
9.0
 40
9.0
 10
3.820096648915818
 20
146.069733369145
 30
0.0
 10
3.462840011415191
 20
146.4369807901437
 30
0.0
 10
2.969502012475077
 20
146.664701751945
 30
0.0
 10
2.423970782501844
 20
146.664701751945
 30
0.0
 10
2.423970782501844
 20
146.664701751945
 30
0.0
 10
2.423970782501844
 20
146.664701751945
 30
0.0
 10
2.423970782501844
 20
146.664701751945
 30
0.0
 10
1.334286361658562
 20
146.664701751945
 30
0.0
 10
0.4506187867413888
 20
145.7541624145157
 30
0.0
 10
0.4506187867413888
 20
144.6324385845234
 30
0.0
 10
0.4506187867413888
 20
144.6324385845234
 30
0.0
 10
0.4506187867413888
 20
144.6324385845234
 30
0.0
 10
0.4506187867413888
 20
144.6324385845234
 30
0.0
 10
0.4506187867413888
 20
143.5096812252037
 30
0.0
 10
1.334286361658562
 20
142.5994863975502
 30
0.0
 10
2.423970782501844
 20
142.5994863975502
 30
0.0
 10
2.423970782501844
 20
142.5994863975502
 30
0.0
 10
2.423970782501844
 20
142.5994863975502
 30
0.0
 10
2.423970782501844
 20
142.5994863975502
 30
0.0
 10
3.514688732672515
 20
142.5994863975502
 30
0.0
 10
4.397839542925993
 20
143.5096812252037
 30
0.0
 10
4.397839542925993
 20
144.6324385845234
 30
0.0
 10
4.397839542925993
 20
144.6324385845234
 30
0.0
 10
4.397839542925993
 20
144.6324385845234
 30
0.0
 10
4.397839542925993
 20
144.6324385845234
 30
0.0
 10
4.397839542925993
 20
145.1939895190712
 30
0.0
 10
4.177525541304344
 20
145.7011079090431
 30
0.0
 10
3.820096648915818
 20
146.069733369145
 30
0.0
  0
POLYLINE
  5
7F
330
3C
100
AcDbEntity
  8
_____1
 62
     7
100
AcDb2dPolyline
 66
     1
 10
0.0
 20
0.0
 30
0.0
  0
VERTEX
  5
80
330
7F
100
AcDbEntity
  8
_____1
 62
     7
100
AcDbVertex
100
AcDb2dVertex
 10
8.582083024858362
 20
121.5974814454642
 30
0.0
  0
VERTEX
  5
81
330
7F
100
AcDbEntity
  8
_____1
 62
     7
100
AcDbVertex
100
AcDb2dVertex
 10
8.582083024858362
 20
178.7275375657428
 30
0.0
  0
VERTEX
  5
82
330
7F
100
AcDbEntity
  8
_____1
 62
     7
100
AcDbVertex
100
AcDb2dVertex
 10
129.7263618602627
 20
178.6638032572206
 30
0.0
  0
VERTEX
  5
83
330
7F
100
AcDbEntity
  8
_____1
 62
     7
100
AcDbVertex
100
AcDb2dVertex
 10
129.7263618602627
 20
121.5974814454642
 30
0.0
  0
VERTEX
  5
84
330
7F
100
AcDbEntity
  8
_____1
 62
     7
100
AcDbVertex
100
AcDb2dVertex
 10
8.582083024858362
 20
121.5974814454642
 30
0.0
  0
SEQEND
  5
85
330
7F
100
AcDbEntity
  8
_____1
  0
POLYLINE
  5
86
330
3C
100
AcDbEntity
  8
_____1
 62
     7
100
AcDb2dPolyline
 66
     1
 10
0.0
 20
0.0
 30
0.0
  0
VERTEX
  5
87
330
86
100
AcDbEntity
  8
_____1
 62
     7
100
AcDbVertex
100
AcDb2dVertex
 10
19.79742652101474
 20
122.9996362329546
 30
0.0
  0
VERTEX
  5
88
330
86
100
AcDbEntity
  8
_____1
 62
     7
100
AcDbVertex
100
AcDb2dVertex
 10
11.07151066476148
 20
122.9996362329546
 30
0.0
  0
VERTEX
  5
89
330
86
100
AcDbEntity
  8
_____1
 62
     7
100
AcDbVertex
100
AcDb2dVertex
 10
11.07151066476148
 20
177.179138378427
 30
0.0
  0
VERTEX
  5
8A
330
86
100
AcDbEntity
  8
_____1
 62
     7
100
AcDbVertex
100
AcDb2dVertex
 10
127.2076508894169
 20
177.2013592589658
 30
0.0
  0
VERTEX
  5
8B
330
86
100
AcDbEntity
  8
_____1
 62
     7
100
AcDbVertex
100
AcDb2dVertex
 10
127.2076508894169
 20
123.0230628977087
 30
0.0
  0
VERTEX
  5
8C
330
86
100
AcDbEntity
  8
_____1
 62
     7
100
AcDbVertex
100
AcDb2dVertex
 10
89.44782916816568
 20
123.0230628977087
 30
0.0
  0
VERTEX
  5
8D
330
86
100
AcDbEntity
  8
_____1
 62
     7
100
AcDbVertex
100
AcDb2dVertex
 10
19.79742652101474
 20
122.9996362329546
 30
0.0
  0
SEQEND
  5
8E
330
86
100
AcDbEntity
  8
_____1
  0
SPLINE
  5
8F
330
3C
100
AcDbEntity
  8
_____1
 62
     7
100
AcDbSpline
210
0.0
220
0.0
230
1.0
 70
     8
 71
     3
 72
    14
 73
    10
 74
     0
 42
0.0000000001
 43
0.0000000001
 40
0.0
 40
0.0
 40
0.0
 40
0.0
 40
1.0
 40
1.0
 40
1.0
 40
2.0
 40
2.0
 40
2.0
 40
3.0
 40
3.0
 40
3.0
 40
3.0
 10
140.651111360535
 20
155.622644942197
 30
0.0
 10
140.651111360535
 20
158.4293660856084
 30
0.0
 10
139.0849699197656
 20
160.7045086449663
 30
0.0
 10
137.1512365482217
 20
160.7045086449663
 30
0.0
 10
137.1512365482217
 20
160.7045086449663
 30
0.0
 10
137.1512365482217
 20
160.7045086449663
 30
0.0
 10
137.1512365482217
 20
160.7045086449663
 30
0.0
 10
137.1512365482217
 20
160.7045086449663
 30
0.0
 10
129.5813232446525
 20
160.7045086449663
 30
0.0
 10
129.5813232446525
 20
160.7045086449663
 30
0.0
  0
SPLINE
  5
90
330
3C
100
AcDbEntity
  8
_____1
 62
     7
100
AcDbSpline
210
0.0
220
0.0
230
1.0
 70
     8
 71
     3
 72
    14
 73
    10
 74
     0
 42
0.0000000001
 43
0.0000000001
 40
0.0
 40
0.0
 40
0.0
 40
0.0
 40
1.0
 40
1.0
 40
1.0
 40
2.0
 40
2.0
 40
2.0
 40
3.0
 40
3.0
 40
3.0
 40
3.0
 10
140.651111360535
 20
155.622644942197
 30
0.0
 10
140.651111360535
 20
152.8159237987856
 30
0.0
 10
139.0849699197656
 20
150.5409534943156
 30
0.0
 10
137.1512365482217
 20
150.5409534943156
 30
0.0
 10
137.1512365482217
 20
150.5409534943156
 30
0.0
 10
137.1512365482217
 20
150.5409534943156
 30
0.0
 10
137.1512365482217
 20
150.5409534943156
 30
0.0
 10
137.1512365482217
 20
150.5409534943156
 30
0.0
 10
129.7077583323697
 20
150.5409534943156
 30
0.0
 10
129.7077583323697
 20
150.5409534943156
 30
0.0
  0
SPLINE
  5
91
330
3C
100
AcDbEntity
  8
_____1
 62
     7
100
AcDbSpline
210
0.0
220
0.0
230
1.0
 70
    11
 71
     3
 72
    20
 73
    16
 74
     0
 42
0.0000000001
 43
0.0000000001
 40
0.0
 40
0.0
 40
0.0
 40
0.0
 40
1.0
 40
1.0
 40
1.0
 40
2.0
 40
2.0
 40
2.0
 40
3.0
 40
3.0
 40
3.0
 40
4.0
 40
4.0
 40
4.0
 40
5.0
 40
5.0
 40
5.0
 40
5.0
 10
135.8562243010039
 20
153.5376717790786
 30
0.0
 10
136.9459087218472
 20
153.5376717790786
 30
0.0
 10
137.8292317869885
 20
154.4475220969562
 30
0.0
 10
137.8292317869885
 20
155.570279456276
 30
0.0
 10
137.8292317869885
 20
156.6926923058199
 30
0.0
 10
136.9459087218472
 20
157.6027148785855
 30
0.0
 10
135.8562243010039
 20
157.6027148785855
 30
0.0
 10
134.7665398801606
 20
157.6027148785855
 30
0.0
 10
133.8832168150192
 20
156.6926923058199
 30
0.0
 10
133.8832168150192
 20
155.570279456276
 30
0.0
 10
133.8832168150192
 20
154.4475220969562
 30
0.0
 10
134.7665398801606
 20
153.5376717790786
 30
0.0
 10
135.8562243010039
 20
153.5376717790786
 30
0.0
 10
135.8562243010039
 20
153.5376717790786
 30
0.0
 10
135.8562243010039
 20
153.5376717790786
 30
0.0
 10
135.8562243010039
 20
153.5376717790786
 30
0.0
  0
POLYLINE
  5
92
330
3C
100
AcDbEntity
  8
_____1
 62
     7
100
AcDb2dPolyline
 66
     1
 10
0.0
 20
0.0
 30
0.0
  0
VERTEX
  5
93
330
92
100
AcDbEntity
  8
_____1
 62
     7
100
AcDbVertex
100
AcDb2dVertex
 10
14.18363972441617
 20
134.1266129716192
 30
0.0
  0
VERTEX
  5
94
330
92
100
AcDbEntity
  8
_____1
 62
     7
100
AcDbVertex
100
AcDb2dVertex
 10
20.52727048103893
 20
134.1266129716192
 30
0.0
  0
VERTEX
  5
95
330
92
100
AcDbEntity
  8
_____1
 62
     7
100
AcDbVertex
100
AcDb2dVertex
 10
20.52640920659944
 20
144.0205892227094
 30
0.0
  0
VERTEX
  5
96
330
92
100
AcDbEntity
  8
_____1
 62
     7
100
AcDbVertex
100
AcDb2dVertex
 10
14.18243394020088
 20
144.0205892227094
 30
0.0
  0
VERTEX
  5
97
330
92
100
AcDbEntity
  8
_____1
 62
     7
100
AcDbVertex
100
AcDb2dVertex
 10
14.18363972441617
 20
134.1266129716192
 30
0.0
  0
SEQEND
  5
98
330
92
100
AcDbEntity
  8
_____1
  0
POLYLINE
  5
99
330
3C
100
AcDbEntity
  8
_____1
 62
     7
100
AcDb2dPolyline
 66
     1
 10
0.0
 20
0.0
 30
0.0
  0
VERTEX
  5
9A
330
99
100
AcDbEntity
  8
_____1
 62
     7
100
AcDbVertex
100
AcDb2dVertex
 10
14.18243394020088
 20
142.6711444309158
 30
0.0
  0
VERTEX
  5
9B
330
99
100
AcDbEntity
  8
_____1
 62
     7
100
AcDbVertex
100
AcDb2dVertex
 10
20.52640920659944
 20
142.6711444309158
 30
0.0
  0
SEQEND
  5
9C
330
99
100
AcDbEntity
  8
_____1
  0
POLYLINE
  5
9D
330
3C
100
AcDbEntity
  8
_____1
 62
     7
100
AcDb2dPolyline
 66
     1
 10
0.0
 20
0.0
 30
0.0
  0
VERTEX
  5
9E
330
9D
100
AcDbEntity
  8
_____1
 62
     7
100
AcDbVertex
100
AcDb2dVertex
 10
19.53835516961602
 20
142.6697663918126
 30
0.0
  0
VERTEX
  5
9F
330
9D
100
AcDbEntity
  8
_____1
 62
     7
100
AcDbVertex
100
AcDb2dVertex
 10
19.53835516961602
 20
143.5692814164164
 30
0.0
  0
VERTEX
  5
A0
330
9D
100
AcDbEntity
  8
_____1
 62
     7
100
AcDbVertex
100
AcDb2dVertex
 10
15.17203827117538
 20
143.5692814164164
 30
0.0
  0
VERTEX
  5
A1
330
9D
100
AcDbEntity
  8
_____1
 62
     7
100
AcDbVertex
100
AcDb2dVertex
 10
15.17203827117538
 20
142.745214032712
 30
0.0
  0
SEQEND
  5
A2
330
9D
100
AcDbEntity
  8
_____1
  0
POLYLINE
  5
A3
330
3C
100
AcDbEntity
  8
_____1
 62
     7
100
AcDb2dPolyline
 66
     1
 10
0.0
 20
0.0
 30
0.0
  0
VERTEX
  5
A4
330
A3
100
AcDbEntity
  8
_____1
 62
     7
100
AcDbVertex
100
AcDb2dVertex
 10
20.52727048103893
 20
135.4750242340854
 30
0.0
  0
VERTEX
  5
A5
330
A3
100
AcDbEntity
  8
_____1
 62
     7
100
AcDbVertex
100
AcDb2dVertex
 10
14.18363972441617
 20
135.4750242340854
 30
0.0
  0
SEQEND
  5
A6
330
A3
100
AcDbEntity
  8
_____1
  0
POLYLINE
  5
A7
330
3C
100
AcDbEntity
  8
_____1
 62
     7
100
AcDb2dPolyline
 66
     1
 10
0.0
 20
0.0
 30
0.0
  0
VERTEX
  5
A8
330
A7
100
AcDbEntity
  8
_____1
 62
     7
100
AcDbVertex
100
AcDb2dVertex
 10
20.52727048103893
 20
136.8248135356548
 30
0.0
  0
VERTEX
  5
A9
330
A7
100
AcDbEntity
  8
_____1
 62
     7
100
AcDbVertex
100
AcDb2dVertex
 10
14.18363972441617
 20
136.8248135356548
 30
0.0
  0
SEQEND
  5
AA
330
A7
100
AcDbEntity
  8
_____1
  0
POLYLINE
  5
AB
330
3C
100
AcDbEntity
  8
_____1
 62
     7
100
AcDb2dPolyline
 66
     1
 10
0.0
 20
0.0
 30
0.0
  0
VERTEX
  5
AC
330
AB
100
AcDbEntity
  8
_____1
 62
     7
100
AcDbVertex
100
AcDb2dVertex
 10
15.17203827117538
 20
136.8248135356548
 30
0.0
  0
VERTEX
  5
AD
330
AB
100
AcDbEntity
  8
_____1
 62
     7
100
AcDbVertex
100
AcDb2dVertex
 10
15.17203827117538
 20
136.2822106387759
 30
0.0
  0
VERTEX
  5
AE
330
AB
100
AcDbEntity
  8
_____1
 62
     7
100
AcDbVertex
100
AcDb2dVertex
 10
19.53835516961602
 20
136.2822106387759
 30
0.0
  0
VERTEX
  5
AF
330
AB
100
AcDbEntity
  8
_____1
 62
     7
100
AcDbVertex
100
AcDb2dVertex
 10
19.53835516961602
 20
136.7500549143071
 30
0.0
  0
SEQEND
  5
B0
330
AB
100
AcDbEntity
  8
_____1
  0
SPLINE
  5
B1
330
3C
100
AcDbEntity
  8
_____1
 62
     7
100
AcDbSpline
210
0.0
220
0.0
230
1.0
 70
    11
 71
     3
 72
    23
 73
    19
 74
     0
 42
0.0000000001
 43
0.0000000001
 40
0.0
 40
0.0
 40
0.0
 40
0.0
 40
1.0
 40
1.0
 40
1.0
 40
2.0
 40
2.0
 40
2.0
 40
3.0
 40
3.0
 40
3.0
 40
4.0
 40
4.0
 40
4.0
 40
5.0
 40
5.0
 40
5.0
 40
6.0
 40
6.0
 40
6.0
 40
6.0
 10
20.22806374075995
 20
139.7472899637337
 30
0.0
 10
20.22806374075995
 20
141.3613182633388
 30
0.0
 10
18.92495551381094
 20
142.6694218820368
 30
0.0
 10
17.31764515483392
 20
142.6694218820368
 30
0.0
 10
15.71016254096899
 20
142.6694218820368
 30
0.0
 10
14.40722656890788
 20
141.3613182633388
 30
0.0
 10
14.40722656890788
 20
139.7472899637337
 30
0.0
 10
14.40722656890788
 20
138.1336061739045
 30
0.0
 10
15.71016254096899
 20
136.8251580454306
 30
0.0
 10
17.31764515483392
 20
136.8251580454306
 30
0.0
 10
18.92495551381094
 20
136.8251580454306
 30
0.0
 10
20.22806374075995
 20
138.1336061739045
 30
0.0
 10
20.22806374075995
 20
139.7472899637337
 30
0.0
 10
20.22806374075995
 20
139.7472899637337
 30
0.0
 10
20.22806374075995
 20
139.7472899637337
 30
0.0
 10
20.22806374075995
 20
139.7472899637337
 30
0.0
 10
20.22806374075995
 20
139.7472899637337
 30
0.0
 10
20.22806374075995
 20
139.7472899637337
 30
0.0
 10
20.22806374075995
 20
139.7472899637337
 30
0.0
  0
POLYLINE
  5
B2
330
3C
100
AcDbEntity
  8
_____1
 62
     7
100
AcDb2dPolyline
 66
     1
 10
0.0
 20
0.0
 30
0.0
  0
VERTEX
  5
B3
330
B2
100
AcDbEntity
  8
_____1
 62
     7
100
AcDbVertex
100
AcDb2dVertex
 10
16.09721927407599
 20
140.8607455591069
 30
0.0
  0
VERTEX
  5
B4
330
B2
100
AcDbEntity
  8
_____1
 62
     7
100
AcDbVertex
100
AcDb2dVertex
 10
18.31448419110013
 20
138.6341788781363
 30
0.0
  0
SEQEND
  5
B5
330
B2
100
AcDbEntity
  8
_____1
  0
POLYLINE
  5
B6
330
3C
100
AcDbEntity
  8
_____1
 62
     7
100
AcDb2dPolyline
 66
     1
 10
0.0
 20
0.0
 30
0.0
  0
VERTEX
  5
B7
330
B6
100
AcDbEntity
  8
_____1
 62
     7
100
AcDbVertex
100
AcDb2dVertex
 10
18.73616415667464
 20
141.2834590540088
 30
0.0
  0
VERTEX
  5
B8
330
B6
100
AcDbEntity
  8
_____1
 62
     7
100
AcDbVertex
100
AcDb2dVertex
 10
15.67553930850148
 20
138.2097428343554
 30
0.0
  0
SEQEND
  5
B9
330
B6
100
AcDbEntity
  8
_____1
  0
POLYLINE
  5
BA
330
3C
100
AcDbEntity
  8
_____1
 62
     7
100
AcDb2dPolyline
 66
     1
 10
0.0
 20
0.0
 30
0.0
  0
VERTEX
  5
BB
330
BA
100
AcDbEntity
  8
_____1
 62
     7
100
AcDbVertex
100
AcDb2dVertex
 10
16.79485157006323
 20
134.2010270831912
 30
0.0
  0
VERTEX
  5
BC
330
BA
100
AcDbEntity
  8
_____1
 62
     7
100
AcDbVertex
100
AcDb2dVertex
 10
16.79485157006323
 20
135.4750242340854
 30
0.0
  0
SEQEND
  5
BD
330
BA
100
AcDbEntity
  8
_____1
  0
POLYLINE
  5
BE
330
3C
100
AcDbEntity
  8
_____1
 62
     7
100
AcDb2dPolyline
 66
     1
 10
0.0
 20
0.0
 30
0.0
  0
VERTEX
  5
BF
330
BE
100
AcDbEntity
  8
_____1
 62
     7
100
AcDbVertex
100
AcDb2dVertex
 10
17.6156461108976
 20
134.2010270831912
 30
0.0
  0
VERTEX
  5
C0
330
BE
100
AcDbEntity
  8
_____1
 62
     7
100
AcDbVertex
100
AcDb2dVertex
 10
17.6156461108976
 20
135.4750242340854
 30
0.0
  0
SEQEND
  5
C1
330
BE
100
AcDbEntity
  8
_____1
  0
POLYLINE
  5
C2
330
3C
100
AcDbEntity
  8
_____1
 62
     7
100
AcDb2dPolyline
 66
     1
 10
0.0
 20
0.0
 30
0.0
  0
VERTEX
  5
C3
330
C2
100
AcDbEntity
  8
_____1
 62
     7
100
AcDbVertex
100
AcDb2dVertex
 10
45.43308795755926
 20
134.1266129716192
 30
0.0
  0
VERTEX
  5
C4
330
C2
100
AcDbEntity
  8
_____1
 62
     7
100
AcDbVertex
100
AcDb2dVertex
 10
51.7779244983973
 20
134.1266129716192
 30
0.0
  0
VERTEX
  5
C5
330
C2
100
AcDbEntity
  8
_____1
 62
     7
100
AcDbVertex
100
AcDb2dVertex
 10
51.7779244983973
 20
144.0205892227094
 30
0.0
  0
VERTEX
  5
C6
330
C2
100
AcDbEntity
  8
_____1
 62
     7
100
AcDbVertex
100
AcDb2dVertex
 10
45.43308795755926
 20
144.0205892227094
 30
0.0
  0
VERTEX
  5
C7
330
C2
100
AcDbEntity
  8
_____1
 62
     7
100
AcDbVertex
100
AcDb2dVertex
 10
45.43308795755926
 20
134.1266129716192
 30
0.0
  0
SEQEND
  5
C8
330
C2
100
AcDbEntity
  8
_____1
  0
POLYLINE
  5
C9
330
3C
100
AcDbEntity
  8
_____1
 62
     7
100
AcDb2dPolyline
 66
     1
 10
0.0
 20
0.0
 30
0.0
  0
VERTEX
  5
CA
330
C9
100
AcDbEntity
  8
_____1
 62
     7
100
AcDbVertex
100
AcDb2dVertex
 10
45.43308795755926
 20
142.6711444309158
 30
0.0
  0
VERTEX
  5
CB
330
C9
100
AcDbEntity
  8
_____1
 62
     7
100
AcDbVertex
100
AcDb2dVertex
 10
51.7775799886215
 20
142.6711444309158
 30
0.0
  0
SEQEND
  5
CC
330
C9
100
AcDbEntity
  8
_____1
  0
POLYLINE
  5
CD
330
3C
100
AcDbEntity
  8
_____1
 62
     7
100
AcDb2dPolyline
 66
     1
 10
0.0
 20
0.0
 30
0.0
  0
VERTEX
  5
CE
330
CD
100
AcDbEntity
  8
_____1
 62
     7
100
AcDbVertex
100
AcDb2dVertex
 10
50.7890091869744
 20
142.6697663918126
 30
0.0
  0
VERTEX
  5
CF
330
CD
100
AcDbEntity
  8
_____1
 62
     7
100
AcDbVertex
100
AcDb2dVertex
 10
50.7890091869744
 20
143.5692814164164
 30
0.0
  0
VERTEX
  5
D0
330
CD
100
AcDbEntity
  8
_____1
 62
     7
100
AcDbVertex
100
AcDb2dVertex
 10
46.42183101409426
 20
143.5692814164164
 30
0.0
  0
VERTEX
  5
D1
330
CD
100
AcDbEntity
  8
_____1
 62
     7
100
AcDbVertex
100
AcDb2dVertex
 10
46.42183101409426
 20
142.745214032712
 30
0.0
  0
SEQEND
  5
D2
330
CD
100
AcDbEntity
  8
_____1
  0
POLYLINE
  5
D3
330
3C
100
AcDbEntity
  8
_____1
 62
     7
100
AcDb2dPolyline
 66
     1
 10
0.0
 20
0.0
 30
0.0
  0
VERTEX
  5
D4
330
D3
100
AcDbEntity
  8
_____1
 62
     7
100
AcDbVertex
100
AcDb2dVertex
 10
51.7775799886215
 20
135.4750242340854
 30
0.0
  0
VERTEX
  5
D5
330
D3
100
AcDbEntity
  8
_____1
 62
     7
100
AcDbVertex
100
AcDb2dVertex
 10
45.43308795755926
 20
135.4750242340854
 30
0.0
  0
SEQEND
  5
D6
330
D3
100
AcDbEntity
  8
_____1
  0
POLYLINE
  5
D7
330
3C
100
AcDbEntity
  8
_____1
 62
     7
100
AcDb2dPolyline
 66
     1
 10
0.0
 20
0.0
 30
0.0
  0
VERTEX
  5
D8
330
D7
100
AcDbEntity
  8
_____1
 62
     7
100
AcDbVertex
100
AcDb2dVertex
 10
51.7775799886215
 20
136.8248135356548
 30
0.0
  0
VERTEX
  5
D9
330
D7
100
AcDbEntity
  8
_____1
 62
     7
100
AcDbVertex
100
AcDb2dVertex
 10
45.43308795755926
 20
136.8248135356548
 30
0.0
  0
SEQEND
  5
DA
330
D7
100
AcDbEntity
  8
_____1
  0
POLYLINE
  5
DB
330
3C
100
AcDbEntity
  8
_____1
 62
     7
100
AcDb2dPolyline
 66
     1
 10
0.0
 20
0.0
 30
0.0
  0
VERTEX
  5
DC
330
DB
100
AcDbEntity
  8
_____1
 62
     7
100
AcDbVertex
100
AcDb2dVertex
 10
46.42183101409426
 20
136.8248135356548
 30
0.0
  0
VERTEX
  5
DD
330
DB
100
AcDbEntity
  8
_____1
 62
     7
100
AcDbVertex
100
AcDb2dVertex
 10
46.42183101409426
 20
136.2822106387759
 30
0.0
  0
VERTEX
  5
DE
330
DB
100
AcDbEntity
  8
_____1
 62
     7
100
AcDbVertex
100
AcDb2dVertex
 10
50.7890091869744
 20
136.2822106387759
 30
0.0
  0
VERTEX
  5
DF
330
DB
100
AcDbEntity
  8
_____1
 62
     7
100
AcDbVertex
100
AcDb2dVertex
 10
50.7890091869744
 20
136.7500549143071
 30
0.0
  0
SEQEND
  5
E0
330
DB
100
AcDbEntity
  8
_____1
  0
SPLINE
  5
E1
330
3C
100
AcDbEntity
  8
_____1
 62
     7
100
AcDbSpline
210
0.0
220
0.0
230
1.0
 70
    11
 71
     3
 72
    23
 73
    19
 74
     0
 42
0.0000000001
 43
0.0000000001
 40
0.0
 40
0.0
 40
0.0
 40
0.0
 40
1.0
 40
1.0
 40
1.0
 40
2.0
 40
2.0
 40
2.0
 40
3.0
 40
3.0
 40
3.0
 40
4.0
 40
4.0
 40
4.0
 40
5.0
 40
5.0
 40
5.0
 40
6.0
 40
6.0
 40
6.0
 40
6.0
 10
51.47871775811833
 20
139.7472899637337
 30
0.0
 10
51.47871775811833
 20
141.3616627731146
 30
0.0
 10
50.17543727628142
 20
142.6701109015884
 30
0.0
 10
48.5679546624165
 20
142.6701109015884
 30
0.0
 10
46.96029979366367
 20
142.6701109015884
 30
0.0
 10
45.65701931182677
 20
141.3616627731146
 30
0.0
 10
45.65701931182677
 20
139.7472899637337
 30
0.0
 10
45.65701931182677
 20
138.1332616641287
 30
0.0
 10
46.96029979366367
 20
136.8248135356548
 30
0.0
 10
48.5679546624165
 20
136.8248135356548
 30
0.0
 10
50.17543727628142
 20
136.8248135356548
 30
0.0
 10
51.47871775811833
 20
138.1332616641287
 30
0.0
 10
51.47871775811833
 20
139.7472899637337
 30
0.0
 10
51.47871775811833
 20
139.7472899637337
 30
0.0
 10
51.47871775811833
 20
139.7472899637337
 30
0.0
 10
51.47871775811833
 20
139.7472899637337
 30
0.0
 10
51.47871775811833
 20
139.7472899637337
 30
0.0
 10
51.47871775811833
 20
139.7472899637337
 30
0.0
 10
51.47871775811833
 20
139.7472899637337
 30
0.0
  0
POLYLINE
  5
E2
330
3C
100
AcDbEntity
  8
_____1
 62
     7
100
AcDb2dPolyline
 66
     1
 10
0.0
 20
0.0
 30
0.0
  0
VERTEX
  5
E3
330
E2
100
AcDbEntity
  8
_____1
 62
     7
100
AcDbVertex
100
AcDb2dVertex
 10
47.34787329143436
 20
140.8607455591069
 30
0.0
  0
VERTEX
  5
E4
330
E2
100
AcDbEntity
  8
_____1
 62
     7
100
AcDbVertex
100
AcDb2dVertex
 10
49.56444918890691
 20
138.6341788781363
 30
0.0
  0
SEQEND
  5
E5
330
E2
100
AcDbEntity
  8
_____1
  0
POLYLINE
  5
E6
330
3C
100
AcDbEntity
  8
_____1
 62
     7
100
AcDb2dPolyline
 66
     1
 10
0.0
 20
0.0
 30
0.0
  0
VERTEX
  5
E7
330
E6
100
AcDbEntity
  8
_____1
 62
     7
100
AcDbVertex
100
AcDb2dVertex
 10
49.98612915448143
 20
141.2834590540088
 30
0.0
  0
VERTEX
  5
E8
330
E6
100
AcDbEntity
  8
_____1
 62
     7
100
AcDbVertex
100
AcDb2dVertex
 10
46.92464303186877
 20
138.2097428343554
 30
0.0
  0
SEQEND
  5
E9
330
E6
100
AcDbEntity
  8
_____1
  0
POLYLINE
  5
EA
330
3C
100
AcDbEntity
  8
_____1
 62
     7
100
AcDb2dPolyline
 66
     1
 10
0.0
 20
0.0
 30
0.0
  0
VERTEX
  5
EB
330
EA
100
AcDbEntity
  8
_____1
 62
     7
100
AcDbVertex
100
AcDb2dVertex
 10
48.04550558742161
 20
134.2010270831912
 30
0.0
  0
VERTEX
  5
EC
330
EA
100
AcDbEntity
  8
_____1
 62
     7
100
AcDbVertex
100
AcDb2dVertex
 10
48.04550558742161
 20
135.4750242340854
 30
0.0
  0
SEQEND
  5
ED
330
EA
100
AcDbEntity
  8
_____1
  0
POLYLINE
  5
EE
330
3C
100
AcDbEntity
  8
_____1
 62
     7
100
AcDb2dPolyline
 66
     1
 10
0.0
 20
0.0
 30
0.0
  0
VERTEX
  5
EF
330
EE
100
AcDbEntity
  8
_____1
 62
     7
100
AcDbVertex
100
AcDb2dVertex
 10
48.86630012825598
 20
134.2010270831912
 30
0.0
  0
VERTEX
  5
F0
330
EE
100
AcDbEntity
  8
_____1
 62
     7
100
AcDbVertex
100
AcDb2dVertex
 10
48.86630012825598
 20
135.4750242340854
 30
0.0
  0
SEQEND
  5
F1
330
EE
100
AcDbEntity
  8
_____1
  0
POLYLINE
  5
F2
330
3C
100
AcDbEntity
  8
_____1
 62
     7
100
AcDb2dPolyline
 66
     1
 10
0.0
 20
0.0
 30
0.0
  0
VERTEX
  5
F3
330
F2
100
AcDbEntity
  8
_____1
 62
     7
100
AcDbVertex
100
AcDb2dVertex
 10
37.62081202671743
 20
134.1266129716192
 30
0.0
  0
VERTEX
  5
F4
330
F2
100
AcDbEntity
  8
_____1
 62
     7
100
AcDbVertex
100
AcDb2dVertex
 10
43.96461503822809
 20
134.1266129716192
 30
0.0
  0
VERTEX
  5
F5
330
F2
100
AcDbEntity
  8
_____1
 62
     7
100
AcDbVertex
100
AcDb2dVertex
 10
43.96461503822809
 20
144.0205892227094
 30
0.0
  0
VERTEX
  5
F6
330
F2
100
AcDbEntity
  8
_____1
 62
     7
100
AcDbVertex
100
AcDb2dVertex
 10
37.62081202671743
 20
144.0205892227094
 30
0.0
  0
VERTEX
  5
F7
330
F2
100
AcDbEntity
  8
_____1
 62
     7
100
AcDbVertex
100
AcDb2dVertex
 10
37.62081202671743
 20
134.1266129716192
 30
0.0
  0
SEQEND
  5
F8
330
F2
100
AcDbEntity
  8
_____1
  0
POLYLINE
  5
F9
330
3C
100
AcDbEntity
  8
_____1
 62
     7
100
AcDb2dPolyline
 66
     1
 10
0.0
 20
0.0
 30
0.0
  0
VERTEX
  5
FA
330
F9
100
AcDbEntity
  8
_____1
 62
     7
100
AcDbVertex
100
AcDb2dVertex
 10
37.62081202671743
 20
142.6711444309158
 30
0.0
  0
VERTEX
  5
FB
330
F9
100
AcDbEntity
  8
_____1
 62
     7
100
AcDbVertex
100
AcDb2dVertex
 10
43.96427052845229
 20
142.6711444309158
 30
0.0
  0
SEQEND
  5
FC
330
F9
100
AcDbEntity
  8
_____1
  0
POLYLINE
  5
FD
330
3C
100
AcDbEntity
  8
_____1
 62
     7
100
AcDb2dPolyline
 66
     1
 10
0.0
 20
0.0
 30
0.0
  0
VERTEX
  5
FE
330
FD
100
AcDbEntity
  8
_____1
 62
     7
100
AcDbVertex
100
AcDb2dVertex
 10
42.97690551102047
 20
142.6697663918126
 30
0.0
  0
VERTEX
  5
FF
330
FD
100
AcDbEntity
  8
_____1
 62
     7
100
AcDbVertex
100
AcDb2dVertex
 10
42.97690551102047
 20
143.5692814164164
 30
0.0
  0
VERTEX
  5
100
330
FD
100
AcDbEntity
  8
_____1
 62
     7
100
AcDbVertex
100
AcDb2dVertex
 10
38.60938282836454
 20
143.5692814164164
 30
0.0
  0
VERTEX
  5
101
330
FD
100
AcDbEntity
  8
_____1
 62
     7
100
AcDbVertex
100
AcDb2dVertex
 10
38.60938282836454
 20
142.745214032712
 30
0.0
  0
SEQEND
  5
102
330
FD
100
AcDbEntity
  8
_____1
  0
POLYLINE
  5
103
330
3C
100
AcDbEntity
  8
_____1
 62
     7
100
AcDb2dPolyline
 66
     1
 10
0.0
 20
0.0
 30
0.0
  0
VERTEX
  5
104
330
103
100
AcDbEntity
  8
_____1
 62
     7
100
AcDbVertex
100
AcDb2dVertex
 10
43.96427052845229
 20
135.4750242340854
 30
0.0
  0
VERTEX
  5
105
330
103
100
AcDbEntity
  8
_____1
 62
     7
100
AcDbVertex
100
AcDb2dVertex
 10
37.62081202671743
 20
135.4750242340854
 30
0.0
  0
SEQEND
  5
106
330
103
100
AcDbEntity
  8
_____1
  0
POLYLINE
  5
107
330
3C
100
AcDbEntity
  8
_____1
 62
     7
100
AcDb2dPolyline
 66
     1
 10
0.0
 20
0.0
 30
0.0
  0
VERTEX
  5
108
330
107
100
AcDbEntity
  8
_____1
 62
     7
100
AcDbVertex
100
AcDb2dVertex
 10
43.96427052845229
 20
136.8248135356548
 30
0.0
  0
VERTEX
  5
109
330
107
100
AcDbEntity
  8
_____1
 62
     7
100
AcDbVertex
100
AcDb2dVertex
 10
37.62081202671743
 20
136.8248135356548
 30
0.0
  0
SEQEND
  5
10A
330
107
100
AcDbEntity
  8
_____1
  0
POLYLINE
  5
10B
330
3C
100
AcDbEntity
  8
_____1
 62
     7
100
AcDb2dPolyline
 66
     1
 10
0.0
 20
0.0
 30
0.0
  0
VERTEX
  5
10C
330
10B
100
AcDbEntity
  8
_____1
 62
     7
100
AcDbVertex
100
AcDb2dVertex
 10
38.60938282836454
 20
136.8248135356548
 30
0.0
  0
VERTEX
  5
10D
330
10B
100
AcDbEntity
  8
_____1
 62
     7
100
AcDbVertex
100
AcDb2dVertex
 10
38.60938282836454
 20
136.2822106387759
 30
0.0
  0
VERTEX
  5
10E
330
10B
100
AcDbEntity
  8
_____1
 62
     7
100
AcDbVertex
100
AcDb2dVertex
 10
42.97690551102047
 20
136.2822106387759
 30
0.0
  0
VERTEX
  5
10F
330
10B
100
AcDbEntity
  8
_____1
 62
     7
100
AcDbVertex
100
AcDb2dVertex
 10
42.97690551102047
 20
136.7500549143071
 30
0.0
  0
SEQEND
  5
110
330
10B
100
AcDbEntity
  8
_____1
  0
SPLINE
  5
111
330
3C
100
AcDbEntity
  8
_____1
 62
     7
100
AcDbSpline
210
0.0
220
0.0
230
1.0
 70
    11
 71
     3
 72
    23
 73
    19
 74
     0
 42
0.0000000001
 43
0.0000000001
 40
0.0
 40
0.0
 40
0.0
 40
0.0
 40
1.0
 40
1.0
 40
1.0
 40
2.0
 40
2.0
 40
2.0
 40
3.0
 40
3.0
 40
3.0
 40
4.0
 40
4.0
 40
4.0
 40
5.0
 40
5.0
 40
5.0
 40
6.0
 40
6.0
 40
6.0
 40
6.0
 10
43.66506378817332
 20
139.7472899637337
 30
0.0
 10
43.66506378817332
 20
141.360973753563
 30
0.0
 10
42.36230007100011
 20
142.669077372261
 30
0.0
 10
40.75498971202308
 20
142.669077372261
 30
0.0
 10
39.14785160793395
 20
142.669077372261
 30
0.0
 10
37.84491563587284
 20
141.360973753563
 30
0.0
 10
37.84491563587284
 20
139.7472899637337
 30
0.0
 10
37.84491563587284
 20
138.1336061739045
 30
0.0
 10
39.14785160793395
 20
136.8255025552064
 30
0.0
 10
40.75498971202308
 20
136.8255025552064
 30
0.0
 10
42.36230007100011
 20
136.8255025552064
 30
0.0
 10
43.66506378817332
 20
138.1336061739045
 30
0.0
 10
43.66506378817332
 20
139.7472899637337
 30
0.0
 10
43.66506378817332
 20
139.7472899637337
 30
0.0
 10
43.66506378817332
 20
139.7472899637337
 30
0.0
 10
43.66506378817332
 20
139.7472899637337
 30
0.0
 10
43.66506378817332
 20
139.7472899637337
 30
0.0
 10
43.66506378817332
 20
139.7472899637337
 30
0.0
 10
43.66506378817332
 20
139.7472899637337
 30
0.0
  0
POLYLINE
  5
112
330
3C
100
AcDbEntity
  8
_____1
 62
     7
100
AcDb2dPolyline
 66
     1
 10
0.0
 20
0.0
 30
0.0
  0
VERTEX
  5
113
330
112
100
AcDbEntity
  8
_____1
 62
     7
100
AcDbVertex
100
AcDb2dVertex
 10
39.53508059592885
 20
140.8607455591069
 30
0.0
  0
VERTEX
  5
114
330
112
100
AcDbEntity
  8
_____1
 62
     7
100
AcDbVertex
100
AcDb2dVertex
 10
41.7516564934014
 20
138.6341788781363
 30
0.0
  0
SEQEND
  5
115
330
112
100
AcDbEntity
  8
_____1
  0
POLYLINE
  5
116
330
3C
100
AcDbEntity
  8
_____1
 62
     7
100
AcDb2dPolyline
 66
     1
 10
0.0
 20
0.0
 30
0.0
  0
VERTEX
  5
117
330
116
100
AcDbEntity
  8
_____1
 62
     7
100
AcDbVertex
100
AcDb2dVertex
 10
42.17333645897591
 20
141.2834590540088
 30
0.0
  0
VERTEX
  5
118
330
116
100
AcDbEntity
  8
_____1
 62
     7
100
AcDbVertex
100
AcDb2dVertex
 10
39.11271161080274
 20
138.2097428343554
 30
0.0
  0
SEQEND
  5
119
330
116
100
AcDbEntity
  8
_____1
  0
POLYLINE
  5
11A
330
3C
100
AcDbEntity
  8
_____1
 62
     7
100
AcDb2dPolyline
 66
     1
 10
0.0
 20
0.0
 30
0.0
  0
VERTEX
  5
11B
330
11A
100
AcDbEntity
  8
_____1
 62
     7
100
AcDbVertex
100
AcDb2dVertex
 10
40.23254063702819
 20
134.2010270831912
 30
0.0
  0
VERTEX
  5
11C
330
11A
100
AcDbEntity
  8
_____1
 62
     7
100
AcDbVertex
100
AcDb2dVertex
 10
40.23254063702819
 20
135.4750242340854
 30
0.0
  0
SEQEND
  5
11D
330
11A
100
AcDbEntity
  8
_____1
  0
POLYLINE
  5
11E
330
3C
100
AcDbEntity
  8
_____1
 62
     7
100
AcDb2dPolyline
 66
     1
 10
0.0
 20
0.0
 30
0.0
  0
VERTEX
  5
11F
330
11E
100
AcDbEntity
  8
_____1
 62
     7
100
AcDbVertex
100
AcDb2dVertex
 10
41.05281841319887
 20
134.2010270831912
 30
0.0
  0
VERTEX
  5
120
330
11E
100
AcDbEntity
  8
_____1
 62
     7
100
AcDbVertex
100
AcDb2dVertex
 10
41.05281841319887
 20
135.4750242340854
 30
0.0
  0
SEQEND
  5
121
330
11E
100
AcDbEntity
  8
_____1
  0
POLYLINE
  5
122
330
3C
100
AcDbEntity
  8
_____1
 62
     7
100
AcDb2dPolyline
 66
     1
 10
0.0
 20
0.0
 30
0.0
  0
VERTEX
  5
123
330
122
100
AcDbEntity
  8
_____1
 62
     7
100
AcDbVertex
100
AcDb2dVertex
 10
29.80853609587561
 20
134.1266129716192
 30
0.0
  0
VERTEX
  5
124
330
122
100
AcDbEntity
  8
_____1
 62
     7
100
AcDbVertex
100
AcDb2dVertex
 10
36.15285587204996
 20
134.1266129716192
 30
0.0
  0
VERTEX
  5
125
330
122
100
AcDbEntity
  8
_____1
 62
     7
100
AcDbVertex
100
AcDb2dVertex
 10
36.15285587204996
 20
144.0205892227094
 30
0.0
  0
VERTEX
  5
126
330
122
100
AcDbEntity
  8
_____1
 62
     7
100
AcDbVertex
100
AcDb2dVertex
 10
29.80715805677243
 20
144.0205892227094
 30
0.0
  0
VERTEX
  5
127
330
122
100
AcDbEntity
  8
_____1
 62
     7
100
AcDbVertex
100
AcDb2dVertex
 10
29.80853609587561
 20
134.1266129716192
 30
0.0
  0
SEQEND
  5
128
330
122
100
AcDbEntity
  8
_____1
  0
POLYLINE
  5
129
330
3C
100
AcDbEntity
  8
_____1
 62
     7
100
AcDb2dPolyline
 66
     1
 10
0.0
 20
0.0
 30
0.0
  0
VERTEX
  5
12A
330
129
100
AcDbEntity
  8
_____1
 62
     7
100
AcDbVertex
100
AcDb2dVertex
 10
29.80715805677243
 20
142.6711444309158
 30
0.0
  0
VERTEX
  5
12B
330
129
100
AcDbEntity
  8
_____1
 62
     7
100
AcDbVertex
100
AcDb2dVertex
 10
36.15285587204996
 20
142.6711444309158
 30
0.0
  0
SEQEND
  5
12C
330
129
100
AcDbEntity
  8
_____1
  0
POLYLINE
  5
12D
330
3C
100
AcDbEntity
  8
_____1
 62
     7
100
AcDb2dPolyline
 66
     1
 10
0.0
 20
0.0
 30
0.0
  0
VERTEX
  5
12E
330
12D
100
AcDbEntity
  8
_____1
 62
     7
100
AcDbVertex
100
AcDb2dVertex
 10
35.16325154107546
 20
142.6697663918126
 30
0.0
  0
VERTEX
  5
12F
330
12D
100
AcDbEntity
  8
_____1
 62
     7
100
AcDbVertex
100
AcDb2dVertex
 10
35.16325154107546
 20
143.5692814164164
 30
0.0
  0
VERTEX
  5
130
330
12D
100
AcDbEntity
  8
_____1
 62
     7
100
AcDbVertex
100
AcDb2dVertex
 10
30.79676238774692
 20
143.5692814164164
 30
0.0
  0
VERTEX
  5
131
330
12D
100
AcDbEntity
  8
_____1
 62
     7
100
AcDbVertex
100
AcDb2dVertex
 10
30.79676238774692
 20
142.745214032712
 30
0.0
  0
SEQEND
  5
132
330
12D
100
AcDbEntity
  8
_____1
  0
POLYLINE
  5
133
330
3C
100
AcDbEntity
  8
_____1
 62
     7
100
AcDb2dPolyline
 66
     1
 10
0.0
 20
0.0
 30
0.0
  0
VERTEX
  5
134
330
133
100
AcDbEntity
  8
_____1
 62
     7
100
AcDbVertex
100
AcDb2dVertex
 10
36.15285587204996
 20
135.4750242340854
 30
0.0
  0
VERTEX
  5
135
330
133
100
AcDbEntity
  8
_____1
 62
     7
100
AcDbVertex
100
AcDb2dVertex
 10
29.80853609587561
 20
135.4750242340854
 30
0.0
  0
SEQEND
  5
136
330
133
100
AcDbEntity
  8
_____1
  0
POLYLINE
  5
137
330
3C
100
AcDbEntity
  8
_____1
 62
     7
100
AcDb2dPolyline
 66
     1
 10
0.0
 20
0.0
 30
0.0
  0
VERTEX
  5
138
330
137
100
AcDbEntity
  8
_____1
 62
     7
100
AcDbVertex
100
AcDb2dVertex
 10
36.15285587204996
 20
136.8248135356548
 30
0.0
  0
VERTEX
  5
139
330
137
100
AcDbEntity
  8
_____1
 62
     7
100
AcDbVertex
100
AcDb2dVertex
 10
29.80853609587561
 20
136.8248135356548
 30
0.0
  0
SEQEND
  5
13A
330
137
100
AcDbEntity
  8
_____1
  0
POLYLINE
  5
13B
330
3C
100
AcDbEntity
  8
_____1
 62
     7
100
AcDb2dPolyline
 66
     1
 10
0.0
 20
0.0
 30
0.0
  0
VERTEX
  5
13C
330
13B
100
AcDbEntity
  8
_____1
 62
     7
100
AcDbVertex
100
AcDb2dVertex
 10
30.79676238774692
 20
136.8248135356548
 30
0.0
  0
VERTEX
  5
13D
330
13B
100
AcDbEntity
  8
_____1
 62
     7
100
AcDbVertex
100
AcDb2dVertex
 10
30.79676238774692
 20
136.2822106387759
 30
0.0
  0
VERTEX
  5
13E
330
13B
100
AcDbEntity
  8
_____1
 62
     7
100
AcDbVertex
100
AcDb2dVertex
 10
35.16325154107546
 20
136.2822106387759
 30
0.0
  0
VERTEX
  5
13F
330
13B
100
AcDbEntity
  8
_____1
 62
     7
100
AcDbVertex
100
AcDb2dVertex
 10
35.16325154107546
 20
136.7500549143071
 30
0.0
  0
SEQEND
  5
140
330
13B
100
AcDbEntity
  8
_____1
  0
SPLINE
  5
141
330
3C
100
AcDbEntity
  8
_____1
 62
     7
100
AcDbSpline
210
0.0
220
0.0
230
1.0
 70
    11
 71
     3
 72
    23
 73
    19
 74
     0
 42
0.0000000001
 43
0.0000000001
 40
0.0
 40
0.0
 40
0.0
 40
0.0
 40
1.0
 40
1.0
 40
1.0
 40
2.0
 40
2.0
 40
2.0
 40
3.0
 40
3.0
 40
3.0
 40
4.0
 40
4.0
 40
4.0
 40
5.0
 40
5.0
 40
5.0
 40
6.0
 40
6.0
 40
6.0
 40
6.0
 10
35.85399364154678
 20
139.7472899637337
 30
0.0
 10
35.85399364154678
 20
141.3616627731146
 30
0.0
 10
34.55071315970988
 20
142.6701109015884
 30
0.0
 10
32.94305829095705
 20
142.6701109015884
 30
0.0
 10
31.33540342220423
 20
142.6701109015884
 30
0.0
 10
30.03212294036733
 20
141.3616627731146
 30
0.0
 10
30.03212294036733
 20
139.7472899637337
 30
0.0
 10
30.03212294036733
 20
138.1332616641287
 30
0.0
 10
31.33540342220423
 20
136.8248135356548
 30
0.0
 10
32.94305829095705
 20
136.8248135356548
 30
0.0
 10
34.55071315970988
 20
136.8248135356548
 30
0.0
 10
35.85399364154678
 20
138.1332616641287
 30
0.0
 10
35.85399364154678
 20
139.7472899637337
 30
0.0
 10
35.85399364154678
 20
139.7472899637337
 30
0.0
 10
35.85399364154678
 20
139.7472899637337
 30
0.0
 10
35.85399364154678
 20
139.7472899637337
 30
0.0
 10
35.85399364154678
 20
139.7472899637337
 30
0.0
 10
35.85399364154678
 20
139.7472899637337
 30
0.0
 10
35.85399364154678
 20
139.7472899637337
 30
0.0
  0
POLYLINE
  5
142
330
3C
100
AcDbEntity
  8
_____1
 62
     7
100
AcDb2dPolyline
 66
     1
 10
0.0
 20
0.0
 30
0.0
  0
VERTEX
  5
143
330
142
100
AcDbEntity
  8
_____1
 62
     7
100
AcDbVertex
100
AcDb2dVertex
 10
31.72246015531123
 20
140.8607455591069
 30
0.0
  0
VERTEX
  5
144
330
142
100
AcDbEntity
  8
_____1
 62
     7
100
AcDbVertex
100
AcDb2dVertex
 10
33.93938056255958
 20
138.6341788781363
 30
0.0
  0
SEQEND
  5
145
330
142
100
AcDbEntity
  8
_____1
  0
POLYLINE
  5
146
330
3C
100
AcDbEntity
  8
_____1
 62
     7
100
AcDb2dPolyline
 66
     1
 10
0.0
 20
0.0
 30
0.0
  0
VERTEX
  5
147
330
146
100
AcDbEntity
  8
_____1
 62
     7
100
AcDbVertex
100
AcDb2dVertex
 10
34.36123278302198
 20
141.2834590540088
 30
0.0
  0
VERTEX
  5
148
330
146
100
AcDbEntity
  8
_____1
 62
     7
100
AcDbVertex
100
AcDb2dVertex
 10
31.29991891529723
 20
138.2097428343554
 30
0.0
  0
SEQEND
  5
149
330
146
100
AcDbEntity
  8
_____1
  0
POLYLINE
  5
14A
330
3C
100
AcDbEntity
  8
_____1
 62
     7
100
AcDb2dPolyline
 66
     1
 10
0.0
 20
0.0
 30
0.0
  0
VERTEX
  5
14B
330
14A
100
AcDbEntity
  8
_____1
 62
     7
100
AcDbVertex
100
AcDb2dVertex
 10
32.41974794152267
 20
134.2010270831912
 30
0.0
  0
VERTEX
  5
14C
330
14A
100
AcDbEntity
  8
_____1
 62
     7
100
AcDbVertex
100
AcDb2dVertex
 10
32.41974794152267
 20
135.4750242340854
 30
0.0
  0
SEQEND
  5
14D
330
14A
100
AcDbEntity
  8
_____1
  0
POLYLINE
  5
14E
330
3C
100
AcDbEntity
  8
_____1
 62
     7
100
AcDb2dPolyline
 66
     1
 10
0.0
 20
0.0
 30
0.0
  0
VERTEX
  5
14F
330
14E
100
AcDbEntity
  8
_____1
 62
     7
100
AcDbVertex
100
AcDb2dVertex
 10
33.24054248235704
 20
134.2010270831912
 30
0.0
  0
VERTEX
  5
150
330
14E
100
AcDbEntity
  8
_____1
 62
     7
100
AcDbVertex
100
AcDb2dVertex
 10
33.24054248235704
 20
135.4750242340854
 30
0.0
  0
SEQEND
  5
151
330
14E
100
AcDbEntity
  8
_____1
  0
POLYLINE
  5
152
330
3C
100
AcDbEntity
  8
_____1
 62
     7
100
AcDb2dPolyline
 66
     1
 10
0.0
 20
0.0
 30
0.0
  0
VERTEX
  5
153
330
152
100
AcDbEntity
  8
_____1
 62
     7
100
AcDbVertex
100
AcDb2dVertex
 10
21.99591565525799
 20
134.1266129716192
 30
0.0
  0
VERTEX
  5
154
330
152
100
AcDbEntity
  8
_____1
 62
     7
100
AcDbVertex
100
AcDb2dVertex
 10
28.34023543143234
 20
134.1266129716192
 30
0.0
  0
VERTEX
  5
155
330
152
100
AcDbEntity
  8
_____1
 62
     7
100
AcDbVertex
100
AcDb2dVertex
 10
28.34023543143234
 20
144.0205892227094
 30
0.0
  0
VERTEX
  5
156
330
152
100
AcDbEntity
  8
_____1
 62
     7
100
AcDbVertex
100
AcDb2dVertex
 10
21.99591565525799
 20
144.0205892227094
 30
0.0
  0
VERTEX
  5
157
330
152
100
AcDbEntity
  8
_____1
 62
     7
100
AcDbVertex
100
AcDb2dVertex
 10
21.99591565525799
 20
134.1266129716192
 30
0.0
  0
SEQEND
  5
158
330
152
100
AcDbEntity
  8
_____1
  0
POLYLINE
  5
159
330
3C
100
AcDbEntity
  8
_____1
 62
     7
100
AcDb2dPolyline
 66
     1
 10
0.0
 20
0.0
 30
0.0
  0
VERTEX
  5
15A
330
159
100
AcDbEntity
  8
_____1
 62
     7
100
AcDbVertex
100
AcDb2dVertex
 10
21.99591565525799
 20
142.6711444309158
 30
0.0
  0
VERTEX
  5
15B
330
159
100
AcDbEntity
  8
_____1
 62
     7
100
AcDbVertex
100
AcDb2dVertex
 10
28.33989092165654
 20
142.6711444309158
 30
0.0
  0
SEQEND
  5
15C
330
159
100
AcDbEntity
  8
_____1
  0
POLYLINE
  5
15D
330
3C
100
AcDbEntity
  8
_____1
 62
     7
100
AcDb2dPolyline
 66
     1
 10
0.0
 20
0.0
 30
0.0
  0
VERTEX
  5
15E
330
15D
100
AcDbEntity
  8
_____1
 62
     7
100
AcDbVertex
100
AcDb2dVertex
 10
27.35183688467313
 20
142.6697663918126
 30
0.0
  0
VERTEX
  5
15F
330
15D
100
AcDbEntity
  8
_____1
 62
     7
100
AcDbVertex
100
AcDb2dVertex
 10
27.35183688467313
 20
143.5692814164164
 30
0.0
  0
VERTEX
  5
160
330
15D
100
AcDbEntity
  8
_____1
 62
     7
100
AcDbVertex
100
AcDb2dVertex
 10
22.9844864569051
 20
143.5692814164164
 30
0.0
  0
VERTEX
  5
161
330
15D
100
AcDbEntity
  8
_____1
 62
     7
100
AcDbVertex
100
AcDb2dVertex
 10
22.9844864569051
 20
142.745214032712
 30
0.0
  0
SEQEND
  5
162
330
15D
100
AcDbEntity
  8
_____1
  0
POLYLINE
  5
163
330
3C
100
AcDbEntity
  8
_____1
 62
     7
100
AcDb2dPolyline
 66
     1
 10
0.0
 20
0.0
 30
0.0
  0
VERTEX
  5
164
330
163
100
AcDbEntity
  8
_____1
 62
     7
100
AcDbVertex
100
AcDb2dVertex
 10
28.33989092165654
 20
135.4750242340854
 30
0.0
  0
VERTEX
  5
165
330
163
100
AcDbEntity
  8
_____1
 62
     7
100
AcDbVertex
100
AcDb2dVertex
 10
21.99591565525799
 20
135.4750242340854
 30
0.0
  0
SEQEND
  5
166
330
163
100
AcDbEntity
  8
_____1
  0
POLYLINE
  5
167
330
3C
100
AcDbEntity
  8
_____1
 62
     7
100
AcDb2dPolyline
 66
     1
 10
0.0
 20
0.0
 30
0.0
  0
VERTEX
  5
168
330
167
100
AcDbEntity
  8
_____1
 62
     7
100
AcDbVertex
100
AcDb2dVertex
 10
28.33989092165654
 20
136.8248135356548
 30
0.0
  0
VERTEX
  5
169
330
167
100
AcDbEntity
  8
_____1
 62
     7
100
AcDbVertex
100
AcDb2dVertex
 10
21.99591565525799
 20
136.8248135356548
 30
0.0
  0
SEQEND
  5
16A
330
167
100
AcDbEntity
  8
_____1
  0
POLYLINE
  5
16B
330
3C
100
AcDbEntity
  8
_____1
 62
     7
100
AcDb2dPolyline
 66
     1
 10
0.0
 20
0.0
 30
0.0
  0
VERTEX
  5
16C
330
16B
100
AcDbEntity
  8
_____1
 62
     7
100
AcDbVertex
100
AcDb2dVertex
 10
22.9844864569051
 20
136.8248135356548
 30
0.0
  0
VERTEX
  5
16D
330
16B
100
AcDbEntity
  8
_____1
 62
     7
100
AcDbVertex
100
AcDb2dVertex
 10
22.9844864569051
 20
136.2822106387759
 30
0.0
  0
VERTEX
  5
16E
330
16B
100
AcDbEntity
  8
_____1
 62
     7
100
AcDbVertex
100
AcDb2dVertex
 10
27.35183688467313
 20
136.2822106387759
 30
0.0
  0
VERTEX
  5
16F
330
16B
100
AcDbEntity
  8
_____1
 62
     7
100
AcDbVertex
100
AcDb2dVertex
 10
27.35183688467313
 20
136.7500549143071
 30
0.0
  0
SEQEND
  5
170
330
16B
100
AcDbEntity
  8
_____1
  0
SPLINE
  5
171
330
3C
100
AcDbEntity
  8
_____1
 62
     7
100
AcDbSpline
210
0.0
220
0.0
230
1.0
 70
    11
 71
     3
 72
    23
 73
    19
 74
     0
 42
0.0000000001
 43
0.0000000001
 40
0.0
 40
0.0
 40
0.0
 40
0.0
 40
1.0
 40
1.0
 40
1.0
 40
2.0
 40
2.0
 40
2.0
 40
3.0
 40
3.0
 40
3.0
 40
4.0
 40
4.0
 40
4.0
 40
5.0
 40
5.0
 40
5.0
 40
6.0
 40
6.0
 40
6.0
 40
6.0
 10
28.04171771070496
 20
139.7472899637337
 30
0.0
 10
28.04171771070496
 20
141.3616627731146
 30
0.0
 10
26.73826497398015
 20
142.6704554113642
 30
0.0
 10
25.13043785033943
 20
142.6704554113642
 30
0.0
 10
23.52261072669872
 20
142.6704554113642
 30
0.0
 10
22.21933024486181
 20
141.3616627731146
 30
0.0
 10
22.21933024486181
 20
139.7472899637337
 30
0.0
 10
22.21933024486181
 20
138.1329171543529
 30
0.0
 10
23.52261072669872
 20
136.824469025879
 30
0.0
 10
25.13043785033943
 20
136.824469025879
 30
0.0
 10
26.73826497398015
 20
136.824469025879
 30
0.0
 10
28.04171771070496
 20
138.1329171543529
 30
0.0
 10
28.04171771070496
 20
139.7472899637337
 30
0.0
 10
28.04171771070496
 20
139.7472899637337
 30
0.0
 10
28.04171771070496
 20
139.7472899637337
 30
0.0
 10
28.04171771070496
 20
139.7472899637337
 30
0.0
 10
28.04171771070496
 20
139.7472899637337
 30
0.0
 10
28.04171771070496
 20
139.7472899637337
 30
0.0
 10
28.04171771070496
 20
139.7472899637337
 30
0.0
  0
POLYLINE
  5
172
330
3C
100
AcDbEntity
  8
_____1
 62
     7
100
AcDb2dPolyline
 66
     1
 10
0.0
 20
0.0
 30
0.0
  0
VERTEX
  5
173
330
172
100
AcDbEntity
  8
_____1
 62
     7
100
AcDbVertex
100
AcDb2dVertex
 10
23.9101842244694
 20
140.8607455591069
 30
0.0
  0
VERTEX
  5
174
330
172
100
AcDbEntity
  8
_____1
 62
     7
100
AcDbVertex
100
AcDb2dVertex
 10
26.12676012194196
 20
138.6341788781363
 30
0.0
  0
SEQEND
  5
175
330
172
100
AcDbEntity
  8
_____1
  0
POLYLINE
  5
176
330
3C
100
AcDbEntity
  8
_____1
 62
     7
100
AcDb2dPolyline
 66
     1
 10
0.0
 20
0.0
 30
0.0
  0
VERTEX
  5
177
330
176
100
AcDbEntity
  8
_____1
 62
     7
100
AcDbVertex
100
AcDb2dVertex
 10
26.54895685218016
 20
141.2834590540088
 30
0.0
  0
VERTEX
  5
178
330
176
100
AcDbEntity
  8
_____1
 62
     7
100
AcDbVertex
100
AcDb2dVertex
 10
23.4879874942312
 20
138.2097428343554
 30
0.0
  0
SEQEND
  5
179
330
176
100
AcDbEntity
  8
_____1
  0
POLYLINE
  5
17A
330
3C
100
AcDbEntity
  8
_____1
 62
     7
100
AcDb2dPolyline
 66
     1
 10
0.0
 20
0.0
 30
0.0
  0
VERTEX
  5
17B
330
17A
100
AcDbEntity
  8
_____1
 62
     7
100
AcDbVertex
100
AcDb2dVertex
 10
24.60833328512034
 20
134.2010270831912
 30
0.0
  0
VERTEX
  5
17C
330
17A
100
AcDbEntity
  8
_____1
 62
     7
100
AcDbVertex
100
AcDb2dVertex
 10
24.60833328512034
 20
135.4750242340854
 30
0.0
  0
SEQEND
  5
17D
330
17A
100
AcDbEntity
  8
_____1
  0
POLYLINE
  5
17E
330
3C
100
AcDbEntity
  8
_____1
 62
     7
100
AcDb2dPolyline
 66
     1
 10
0.0
 20
0.0
 30
0.0
  0
VERTEX
  5
17F
330
17E
100
AcDbEntity
  8
_____1
 62
     7
100
AcDbVertex
100
AcDb2dVertex
 10
25.42912782595471
 20
134.2010270831912
 30
0.0
  0
VERTEX
  5
180
330
17E
100
AcDbEntity
  8
_____1
 62
     7
100
AcDbVertex
100
AcDb2dVertex
 10
25.42912782595471
 20
135.4750242340854
 30
0.0
  0
SEQEND
  5
181
330
17E
100
AcDbEntity
  8
_____1
  0
POLYLINE
  5
182
330
3C
100
AcDbEntity
  8
_____1
 62
     7
100
AcDb2dPolyline
 66
     1
 10
0.0
 20
0.0
 30
0.0
  0
VERTEX
  5
183
330
182
100
AcDbEntity
  8
_____1
 62
     7
100
AcDbVertex
100
AcDb2dVertex
 10
18.08831352328995
 20
124.2353927987354
 30
0.0
  0
VERTEX
  5
184
330
182
100
AcDbEntity
  8
_____1
 62
     7
100
AcDbVertex
100
AcDb2dVertex
 10
24.43280555435219
 20
124.2353927987354
 30
0.0
  0
VERTEX
  5
185
330
182
100
AcDbEntity
  8
_____1
 62
     7
100
AcDbVertex
100
AcDb2dVertex
 10
24.43280555435219
 20
134.1273019911708
 30
0.0
  0
VERTEX
  5
186
330
182
100
AcDbEntity
  8
_____1
 62
     7
100
AcDbVertex
100
AcDb2dVertex
 10
18.08831352328995
 20
134.1273019911708
 30
0.0
  0
VERTEX
  5
187
330
182
100
AcDbEntity
  8
_____1
 62
     7
100
AcDbVertex
100
AcDb2dVertex
 10
18.08831352328995
 20
124.2353927987354
 30
0.0
  0
SEQEND
  5
188
330
182
100
AcDbEntity
  8
_____1
  0
POLYLINE
  5
189
330
3C
100
AcDbEntity
  8
_____1
 62
     7
100
AcDb2dPolyline
 66
     1
 10
0.0
 20
0.0
 30
0.0
  0
VERTEX
  5
18A
330
189
100
AcDbEntity
  8
_____1
 62
     7
100
AcDbVertex
100
AcDb2dVertex
 10
18.08831352328995
 20
132.778201709153
 30
0.0
  0
VERTEX
  5
18B
330
189
100
AcDbEntity
  8
_____1
 62
     7
100
AcDbVertex
100
AcDb2dVertex
 10
24.43280555435219
 20
132.778201709153
 30
0.0
  0
SEQEND
  5
18C
330
189
100
AcDbEntity
  8
_____1
  0
POLYLINE
  5
18D
330
3C
100
AcDbEntity
  8
_____1
 62
     7
100
AcDb2dPolyline
 66
     1
 10
0.0
 20
0.0
 30
0.0
  0
VERTEX
  5
18E
330
18D
100
AcDbEntity
  8
_____1
 62
     7
100
AcDbVertex
100
AcDb2dVertex
 10
23.44509602714458
 20
132.778201709153
 30
0.0
  0
VERTEX
  5
18F
330
18D
100
AcDbEntity
  8
_____1
 62
     7
100
AcDbVertex
100
AcDb2dVertex
 10
23.44509602714458
 20
133.6770277142052
 30
0.0
  0
VERTEX
  5
190
330
18D
100
AcDbEntity
  8
_____1
 62
     7
100
AcDbVertex
100
AcDb2dVertex
 10
19.07791785426444
 20
133.6770277142052
 30
0.0
  0
VERTEX
  5
191
330
18D
100
AcDbEntity
  8
_____1
 62
     7
100
AcDbVertex
100
AcDb2dVertex
 10
19.07791785426444
 20
132.852615820725
 30
0.0
  0
SEQEND
  5
192
330
18D
100
AcDbEntity
  8
_____1
  0
POLYLINE
  5
193
330
3C
100
AcDbEntity
  8
_____1
 62
     7
100
AcDb2dPolyline
 66
     1
 10
0.0
 20
0.0
 30
0.0
  0
VERTEX
  5
194
330
193
100
AcDbEntity
  8
_____1
 62
     7
100
AcDbVertex
100
AcDb2dVertex
 10
24.43280555435219
 20
125.5827705318742
 30
0.0
  0
VERTEX
  5
195
330
193
100
AcDbEntity
  8
_____1
 62
     7
100
AcDbVertex
100
AcDb2dVertex
 10
18.08831352328995
 20
125.5827705318742
 30
0.0
  0
SEQEND
  5
196
330
193
100
AcDbEntity
  8
_____1
  0
POLYLINE
  5
197
330
3C
100
AcDbEntity
  8
_____1
 62
     7
100
AcDb2dPolyline
 66
     1
 10
0.0
 20
0.0
 30
0.0
  0
VERTEX
  5
198
330
197
100
AcDbEntity
  8
_____1
 62
     7
100
AcDbVertex
100
AcDb2dVertex
 10
24.43280555435219
 20
126.9325598334436
 30
0.0
  0
VERTEX
  5
199
330
197
100
AcDbEntity
  8
_____1
 62
     7
100
AcDbVertex
100
AcDb2dVertex
 10
18.08831352328995
 20
126.9325598334436
 30
0.0
  0
SEQEND
  5
19A
330
197
100
AcDbEntity
  8
_____1
  0
POLYLINE
  5
19B
330
3C
100
AcDbEntity
  8
_____1
 62
     7
100
AcDb2dPolyline
 66
     1
 10
0.0
 20
0.0
 30
0.0
  0
VERTEX
  5
19C
330
19B
100
AcDbEntity
  8
_____1
 62
     7
100
AcDbVertex
100
AcDb2dVertex
 10
19.07791785426444
 20
126.9325598334436
 30
0.0
  0
VERTEX
  5
19D
330
19B
100
AcDbEntity
  8
_____1
 62
     7
100
AcDbVertex
100
AcDb2dVertex
 10
19.07791785426444
 20
126.3896124267889
 30
0.0
  0
VERTEX
  5
19E
330
19B
100
AcDbEntity
  8
_____1
 62
     7
100
AcDbVertex
100
AcDb2dVertex
 10
23.44509602714458
 20
126.3896124267889
 30
0.0
  0
VERTEX
  5
19F
330
19B
100
AcDbEntity
  8
_____1
 62
     7
100
AcDbVertex
100
AcDb2dVertex
 10
23.44509602714458
 20
126.8581457218717
 30
0.0
  0
SEQEND
  5
1A0
330
19B
100
AcDbEntity
  8
_____1
  0
SPLINE
  5
1A1
330
3C
100
AcDbEntity
  8
_____1
 62
     7
100
AcDbSpline
210
0.0
220
0.0
230
1.0
 70
    11
 71
     3
 72
    23
 73
    19
 74
     0
 42
0.0000000001
 43
0.0000000001
 40
0.0
 40
0.0
 40
0.0
 40
0.0
 40
1.0
 40
1.0
 40
1.0
 40
2.0
 40
2.0
 40
2.0
 40
3.0
 40
3.0
 40
3.0
 40
4.0
 40
4.0
 40
4.0
 40
5.0
 40
5.0
 40
5.0
 40
6.0
 40
6.0
 40
6.0
 40
6.0
 10
24.1349768531764
 20
129.8546917517467
 30
0.0
 10
24.1349768531764
 20
131.4690645611276
 30
0.0
 10
22.8316963713395
 20
132.7775126896014
 30
0.0
 10
21.22386924769878
 20
132.7775126896014
 30
0.0
 10
19.61604212405806
 20
132.7775126896014
 30
0.0
 10
18.31258938733325
 20
131.4690645611276
 30
0.0
 10
18.31258938733325
 20
129.8546917517467
 30
0.0
 10
18.31258938733325
 20
128.2403189423659
 30
0.0
 10
19.61604212405806
 20
126.931870813892
 30
0.0
 10
21.22386924769878
 20
126.931870813892
 30
0.0
 10
22.8316963713395
 20
126.931870813892
 30
0.0
 10
24.1349768531764
 20
128.2403189423659
 30
0.0
 10
24.1349768531764
 20
129.8546917517467
 30
0.0
 10
24.1349768531764
 20
129.8546917517467
 30
0.0
 10
24.1349768531764
 20
129.8546917517467
 30
0.0
 10
24.1349768531764
 20
129.8546917517467
 30
0.0
 10
24.1349768531764
 20
129.8546917517467
 30
0.0
 10
24.1349768531764
 20
129.8546917517467
 30
0.0
 10
24.1349768531764
 20
129.8546917517467
 30
0.0
  0
POLYLINE
  5
1A2
330
3C
100
AcDbEntity
  8
_____1
 62
     7
100
AcDb2dPolyline
 66
     1
 10
0.0
 20
0.0
 30
0.0
  0
VERTEX
  5
1A3
330
1A2
100
AcDbEntity
  8
_____1
 62
     7
100
AcDbVertex
100
AcDb2dVertex
 10
20.00413238649244
 20
130.9674583275684
 30
0.0
  0
VERTEX
  5
1A4
330
1A2
100
AcDbEntity
  8
_____1
 62
     7
100
AcDbVertex
100
AcDb2dVertex
 10
22.2205360290771
 20
128.7415806661493
 30
0.0
  0
SEQEND
  5
1A5
330
1A2
100
AcDbEntity
  8
_____1
  0
POLYLINE
  5
1A6
330
3C
100
AcDbEntity
  8
_____1
 62
     7
100
AcDb2dPolyline
 66
     1
 10
0.0
 20
0.0
 30
0.0
  0
VERTEX
  5
1A7
330
1A6
100
AcDbEntity
  8
_____1
 62
     7
100
AcDbVertex
100
AcDb2dVertex
 10
22.6423882495395
 20
131.3918943713493
 30
0.0
  0
VERTEX
  5
1A8
330
1A6
100
AcDbEntity
  8
_____1
 62
     7
100
AcDbVertex
100
AcDb2dVertex
 10
19.58090212692685
 20
128.3181781516958
 30
0.0
  0
SEQEND
  5
1A9
330
1A6
100
AcDbEntity
  8
_____1
  0
POLYLINE
  5
1AA
330
3C
100
AcDbEntity
  8
_____1
 62
     7
100
AcDb2dPolyline
 66
     1
 10
0.0
 20
0.0
 30
0.0
  0
VERTEX
  5
1AB
330
1AA
100
AcDbEntity
  8
_____1
 62
     7
100
AcDbVertex
100
AcDb2dVertex
 10
20.70142017270389
 20
124.30877338098
 30
0.0
  0
VERTEX
  5
1AC
330
1AA
100
AcDbEntity
  8
_____1
 62
     7
100
AcDbVertex
100
AcDb2dVertex
 10
20.70142017270389
 20
125.5827705318742
 30
0.0
  0
SEQEND
  5
1AD
330
1AA
100
AcDbEntity
  8
_____1
  0
POLYLINE
  5
1AE
330
3C
100
AcDbEntity
  8
_____1
 62
     7
100
AcDb2dPolyline
 66
     1
 10
0.0
 20
0.0
 30
0.0
  0
VERTEX
  5
1AF
330
1AE
100
AcDbEntity
  8
_____1
 62
     7
100
AcDbVertex
100
AcDb2dVertex
 10
21.52221471353826
 20
124.30877338098
 30
0.0
  0
VERTEX
  5
1B0
330
1AE
100
AcDbEntity
  8
_____1
 62
     7
100
AcDbVertex
100
AcDb2dVertex
 10
21.52221471353826
 20
125.5827705318742
 30
0.0
  0
SEQEND
  5
1B1
330
1AE
100
AcDbEntity
  8
_____1
  0
POLYLINE
  5
1B2
330
3C
100
AcDbEntity
  8
_____1
 62
     7
100
AcDb2dPolyline
 66
     1
 10
0.0
 20
0.0
 30
0.0
  0
VERTEX
  5
1B3
330
1B2
100
AcDbEntity
  8
_____1
 62
     7
100
AcDbVertex
100
AcDb2dVertex
 10
49.33965656019991
 20
124.2353927987354
 30
0.0
  0
VERTEX
  5
1B4
330
1B2
100
AcDbEntity
  8
_____1
 62
     7
100
AcDbVertex
100
AcDb2dVertex
 10
55.68345957171056
 20
124.2353927987354
 30
0.0
  0
VERTEX
  5
1B5
330
1B2
100
AcDbEntity
  8
_____1
 62
     7
100
AcDbVertex
100
AcDb2dVertex
 10
55.68345957171056
 20
134.1273019911708
 30
0.0
  0
VERTEX
  5
1B6
330
1B2
100
AcDbEntity
  8
_____1
 62
     7
100
AcDbVertex
100
AcDb2dVertex
 10
49.33965656019991
 20
134.1273019911708
 30
0.0
  0
VERTEX
  5
1B7
330
1B2
100
AcDbEntity
  8
_____1
 62
     7
100
AcDbVertex
100
AcDb2dVertex
 10
49.33965656019991
 20
124.2353927987354
 30
0.0
  0
SEQEND
  5
1B8
330
1B2
100
AcDbEntity
  8
_____1
  0
POLYLINE
  5
1B9
330
3C
100
AcDbEntity
  8
_____1
 62
     7
100
AcDb2dPolyline
 66
     1
 10
0.0
 20
0.0
 30
0.0
  0
VERTEX
  5
1BA
330
1B9
100
AcDbEntity
  8
_____1
 62
     7
100
AcDbVertex
100
AcDb2dVertex
 10
49.33965656019991
 20
132.778201709153
 30
0.0
  0
VERTEX
  5
1BB
330
1B9
100
AcDbEntity
  8
_____1
 62
     7
100
AcDbVertex
100
AcDb2dVertex
 10
55.68311506193477
 20
132.778201709153
 30
0.0
  0
SEQEND
  5
1BC
330
1B9
100
AcDbEntity
  8
_____1
  0
POLYLINE
  5
1BD
330
3C
100
AcDbEntity
  8
_____1
 62
     7
100
AcDb2dPolyline
 66
     1
 10
0.0
 20
0.0
 30
0.0
  0
VERTEX
  5
1BE
330
1BD
100
AcDbEntity
  8
_____1
 62
     7
100
AcDbVertex
100
AcDb2dVertex
 10
54.69437200539976
 20
132.778201709153
 30
0.0
  0
VERTEX
  5
1BF
330
1BD
100
AcDbEntity
  8
_____1
 62
     7
100
AcDbVertex
100
AcDb2dVertex
 10
54.69437200539976
 20
133.6770277142052
 30
0.0
  0
VERTEX
  5
1C0
330
1BD
100
AcDbEntity
  8
_____1
 62
     7
100
AcDbVertex
100
AcDb2dVertex
 10
50.32771059718333
 20
133.6770277142052
 30
0.0
  0
VERTEX
  5
1C1
330
1BD
100
AcDbEntity
  8
_____1
 62
     7
100
AcDbVertex
100
AcDb2dVertex
 10
50.32771059718333
 20
132.852615820725
 30
0.0
  0
SEQEND
  5
1C2
330
1BD
100
AcDbEntity
  8
_____1
  0
POLYLINE
  5
1C3
330
3C
100
AcDbEntity
  8
_____1
 62
     7
100
AcDb2dPolyline
 66
     1
 10
0.0
 20
0.0
 30
0.0
  0
VERTEX
  5
1C4
330
1C3
100
AcDbEntity
  8
_____1
 62
     7
100
AcDbVertex
100
AcDb2dVertex
 10
55.68311506193477
 20
125.5827705318742
 30
0.0
  0
VERTEX
  5
1C5
330
1C3
100
AcDbEntity
  8
_____1
 62
     7
100
AcDbVertex
100
AcDb2dVertex
 10
49.33965656019991
 20
125.5827705318742
 30
0.0
  0
SEQEND
  5
1C6
330
1C3
100
AcDbEntity
  8
_____1
  0
POLYLINE
  5
1C7
330
3C
100
AcDbEntity
  8
_____1
 62
     7
100
AcDb2dPolyline
 66
     1
 10
0.0
 20
0.0
 30
0.0
  0
VERTEX
  5
1C8
330
1C7
100
AcDbEntity
  8
_____1
 62
     7
100
AcDbVertex
100
AcDb2dVertex
 10
55.68311506193477
 20
126.9325598334436
 30
0.0
  0
VERTEX
  5
1C9
330
1C7
100
AcDbEntity
  8
_____1
 62
     7
100
AcDbVertex
100
AcDb2dVertex
 10
49.33965656019991
 20
126.9325598334436
 30
0.0
  0
SEQEND
  5
1CA
330
1C7
100
AcDbEntity
  8
_____1
  0
POLYLINE
  5
1CB
330
3C
100
AcDbEntity
  8
_____1
 62
     7
100
AcDb2dPolyline
 66
     1
 10
0.0
 20
0.0
 30
0.0
  0
VERTEX
  5
1CC
330
1CB
100
AcDbEntity
  8
_____1
 62
     7
100
AcDbVertex
100
AcDb2dVertex
 10
50.32771059718333
 20
126.9325598334436
 30
0.0
  0
VERTEX
  5
1CD
330
1CB
100
AcDbEntity
  8
_____1
 62
     7
100
AcDbVertex
100
AcDb2dVertex
 10
50.32771059718333
 20
126.3896124267889
 30
0.0
  0
VERTEX
  5
1CE
330
1CB
100
AcDbEntity
  8
_____1
 62
     7
100
AcDbVertex
100
AcDb2dVertex
 10
54.69437200539976
 20
126.3896124267889
 30
0.0
  0
VERTEX
  5
1CF
330
1CB
100
AcDbEntity
  8
_____1
 62
     7
100
AcDbVertex
100
AcDb2dVertex
 10
54.69437200539976
 20
126.8581457218717
 30
0.0
  0
SEQEND
  5
1D0
330
1CB
100
AcDbEntity
  8
_____1
  0
SPLINE
  5
1D1
330
3C
100
AcDbEntity
  8
_____1
 62
     7
100
AcDbSpline
210
0.0
220
0.0
230
1.0
 70
    11
 71
     3
 72
    23
 73
    19
 74
     0
 42
0.0000000001
 43
0.0000000001
 40
0.0
 40
0.0
 40
0.0
 40
0.0
 40
1.0
 40
1.0
 40
1.0
 40
2.0
 40
2.0
 40
2.0
 40
3.0
 40
3.0
 40
3.0
 40
4.0
 40
4.0
 40
4.0
 40
5.0
 40
5.0
 40
5.0
 40
6.0
 40
6.0
 40
6.0
 40
6.0
 10
55.38459734120739
 20
129.8546917517467
 30
0.0
 10
55.38459734120739
 20
131.4687200513518
 30
0.0
 10
54.08148911425838
 20
132.7771681798257
 30
0.0
 10
52.47400650039346
 20
132.7771681798257
 30
0.0
 10
50.86652388652853
 20
132.7771681798257
 30
0.0
 10
49.56324340469163
 20
131.4687200513518
 30
0.0
 10
49.56324340469163
 20
129.8546917517467
 30
0.0
 10
49.56324340469163
 20
128.2406634521417
 30
0.0
 10
50.86652388652853
 20
126.9322153236678
 30
0.0
 10
52.47400650039346
 20
126.9322153236678
 30
0.0
 10
54.08148911425838
 20
126.9322153236678
 30
0.0
 10
55.38459734120739
 20
128.2406634521417
 30
0.0
 10
55.38459734120739
 20
129.8546917517467
 30
0.0
 10
55.38459734120739
 20
129.8546917517467
 30
0.0
 10
55.38459734120739
 20
129.8546917517467
 30
0.0
 10
55.38459734120739
 20
129.8546917517467
 30
0.0
 10
55.38459734120739
 20
129.8546917517467
 30
0.0
 10
55.38459734120739
 20
129.8546917517467
 30
0.0
 10
55.38459734120739
 20
129.8546917517467
 30
0.0
  0
POLYLINE
  5
1D2
330
3C
100
AcDbEntity
  8
_____1
 62
     7
100
AcDb2dPolyline
 66
     1
 10
0.0
 20
0.0
 30
0.0
  0
VERTEX
  5
1D3
330
1D2
100
AcDbEntity
  8
_____1
 62
     7
100
AcDbVertex
100
AcDb2dVertex
 10
51.25392512941133
 20
130.9674583275684
 30
0.0
  0
VERTEX
  5
1D4
330
1D2
100
AcDbEntity
  8
_____1
 62
     7
100
AcDbVertex
100
AcDb2dVertex
 10
53.47050102688387
 20
128.7415806661493
 30
0.0
  0
SEQEND
  5
1D5
330
1D2
100
AcDbEntity
  8
_____1
  0
POLYLINE
  5
1D6
330
3C
100
AcDbEntity
  8
_____1
 62
     7
100
AcDb2dPolyline
 66
     1
 10
0.0
 20
0.0
 30
0.0
  0
VERTEX
  5
1D7
330
1D6
100
AcDbEntity
  8
_____1
 62
     7
100
AcDbVertex
100
AcDb2dVertex
 10
53.89149197290679
 20
131.3918943713493
 30
0.0
  0
VERTEX
  5
1D8
330
1D6
100
AcDbEntity
  8
_____1
 62
     7
100
AcDbVertex
100
AcDb2dVertex
 10
50.83172839917312
 20
128.3181781516958
 30
0.0
  0
SEQEND
  5
1D9
330
1D6
100
AcDbEntity
  8
_____1
  0
POLYLINE
  5
1DA
330
3C
100
AcDbEntity
  8
_____1
 62
     7
100
AcDb2dPolyline
 66
     1
 10
0.0
 20
0.0
 30
0.0
  0
VERTEX
  5
1DB
330
1DA
100
AcDbEntity
  8
_____1
 62
     7
100
AcDbVertex
100
AcDb2dVertex
 10
51.95155742539857
 20
124.30877338098
 30
0.0
  0
VERTEX
  5
1DC
330
1DA
100
AcDbEntity
  8
_____1
 62
     7
100
AcDbVertex
100
AcDb2dVertex
 10
51.95155742539857
 20
125.5827705318742
 30
0.0
  0
SEQEND
  5
1DD
330
1DA
100
AcDbEntity
  8
_____1
  0
POLYLINE
  5
1DE
330
3C
100
AcDbEntity
  8
_____1
 62
     7
100
AcDb2dPolyline
 66
     1
 10
0.0
 20
0.0
 30
0.0
  0
VERTEX
  5
1DF
330
1DE
100
AcDbEntity
  8
_____1
 62
     7
100
AcDbVertex
100
AcDb2dVertex
 10
52.77166294668135
 20
124.30877338098
 30
0.0
  0
VERTEX
  5
1E0
330
1DE
100
AcDbEntity
  8
_____1
 62
     7
100
AcDbVertex
100
AcDb2dVertex
 10
52.77166294668135
 20
125.5827705318742
 30
0.0
  0
SEQEND
  5
1E1
330
1DE
100
AcDbEntity
  8
_____1
  0
POLYLINE
  5
1E2
330
3C
100
AcDbEntity
  8
_____1
 62
     7
100
AcDb2dPolyline
 66
     1
 10
0.0
 20
0.0
 30
0.0
  0
VERTEX
  5
1E3
330
1E2
100
AcDbEntity
  8
_____1
 62
     7
100
AcDbVertex
100
AcDb2dVertex
 10
41.52738062935809
 20
124.2353927987354
 30
0.0
  0
VERTEX
  5
1E4
330
1E2
100
AcDbEntity
  8
_____1
 62
     7
100
AcDbVertex
100
AcDb2dVertex
 10
47.87101138598084
 20
124.2353927987354
 30
0.0
  0
VERTEX
  5
1E5
330
1E2
100
AcDbEntity
  8
_____1
 62
     7
100
AcDbVertex
100
AcDb2dVertex
 10
47.87101138598084
 20
134.1273019911708
 30
0.0
  0
VERTEX
  5
1E6
330
1E2
100
AcDbEntity
  8
_____1
 62
     7
100
AcDbVertex
100
AcDb2dVertex
 10
41.52738062935809
 20
134.1273019911708
 30
0.0
  0
VERTEX
  5
1E7
330
1E2
100
AcDbEntity
  8
_____1
 62
     7
100
AcDbVertex
100
AcDb2dVertex
 10
41.52738062935809
 20
124.2353927987354
 30
0.0
  0
SEQEND
  5
1E8
330
1E2
100
AcDbEntity
  8
_____1
  0
POLYLINE
  5
1E9
330
3C
100
AcDbEntity
  8
_____1
 62
     7
100
AcDb2dPolyline
 66
     1
 10
0.0
 20
0.0
 30
0.0
  0
VERTEX
  5
1EA
330
1E9
100
AcDbEntity
  8
_____1
 62
     7
100
AcDbVertex
100
AcDb2dVertex
 10
41.52738062935809
 20
132.778201709153
 30
0.0
  0
VERTEX
  5
1EB
330
1E9
100
AcDbEntity
  8
_____1
 62
     7
100
AcDbVertex
100
AcDb2dVertex
 10
47.87101138598084
 20
132.778201709153
 30
0.0
  0
SEQEND
  5
1EC
330
1E9
100
AcDbEntity
  8
_____1
  0
POLYLINE
  5
1ED
330
3C
100
AcDbEntity
  8
_____1
 62
     7
100
AcDb2dPolyline
 66
     1
 10
0.0
 20
0.0
 30
0.0
  0
VERTEX
  5
1EE
330
1ED
100
AcDbEntity
  8
_____1
 62
     7
100
AcDbVertex
100
AcDb2dVertex
 10
46.88209607455794
 20
132.778201709153
 30
0.0
  0
VERTEX
  5
1EF
330
1ED
100
AcDbEntity
  8
_____1
 62
     7
100
AcDbVertex
100
AcDb2dVertex
 10
46.88209607455794
 20
133.6770277142052
 30
0.0
  0
VERTEX
  5
1F0
330
1ED
100
AcDbEntity
  8
_____1
 62
     7
100
AcDbVertex
100
AcDb2dVertex
 10
42.51509015656571
 20
133.6770277142052
 30
0.0
  0
VERTEX
  5
1F1
330
1ED
100
AcDbEntity
  8
_____1
 62
     7
100
AcDbVertex
100
AcDb2dVertex
 10
42.51509015656571
 20
132.852615820725
 30
0.0
  0
SEQEND
  5
1F2
330
1ED
100
AcDbEntity
  8
_____1
  0
POLYLINE
  5
1F3
330
3C
100
AcDbEntity
  8
_____1
 62
     7
100
AcDb2dPolyline
 66
     1
 10
0.0
 20
0.0
 30
0.0
  0
VERTEX
  5
1F4
330
1F3
100
AcDbEntity
  8
_____1
 62
     7
100
AcDbVertex
100
AcDb2dVertex
 10
47.87101138598084
 20
125.5827705318742
 30
0.0
  0
VERTEX
  5
1F5
330
1F3
100
AcDbEntity
  8
_____1
 62
     7
100
AcDbVertex
100
AcDb2dVertex
 10
41.52738062935809
 20
125.5827705318742
 30
0.0
  0
SEQEND
  5
1F6
330
1F3
100
AcDbEntity
  8
_____1
  0
POLYLINE
  5
1F7
330
3C
100
AcDbEntity
  8
_____1
 62
     7
100
AcDb2dPolyline
 66
     1
 10
0.0
 20
0.0
 30
0.0
  0
VERTEX
  5
1F8
330
1F7
100
AcDbEntity
  8
_____1
 62
     7
100
AcDbVertex
100
AcDb2dVertex
 10
47.87101138598084
 20
126.9325598334436
 30
0.0
  0
VERTEX
  5
1F9
330
1F7
100
AcDbEntity
  8
_____1
 62
     7
100
AcDbVertex
100
AcDb2dVertex
 10
41.52738062935809
 20
126.9325598334436
 30
0.0
  0
SEQEND
  5
1FA
330
1F7
100
AcDbEntity
  8
_____1
  0
POLYLINE
  5
1FB
330
3C
100
AcDbEntity
  8
_____1
 62
     7
100
AcDb2dPolyline
 66
     1
 10
0.0
 20
0.0
 30
0.0
  0
VERTEX
  5
1FC
330
1FB
100
AcDbEntity
  8
_____1
 62
     7
100
AcDbVertex
100
AcDb2dVertex
 10
42.51509015656571
 20
126.9325598334436
 30
0.0
  0
VERTEX
  5
1FD
330
1FB
100
AcDbEntity
  8
_____1
 62
     7
100
AcDbVertex
100
AcDb2dVertex
 10
42.51509015656571
 20
126.3896124267889
 30
0.0
  0
VERTEX
  5
1FE
330
1FB
100
AcDbEntity
  8
_____1
 62
     7
100
AcDbVertex
100
AcDb2dVertex
 10
46.88209607455794
 20
126.3896124267889
 30
0.0
  0
VERTEX
  5
1FF
330
1FB
100
AcDbEntity
  8
_____1
 62
     7
100
AcDbVertex
100
AcDb2dVertex
 10
46.88209607455794
 20
126.8581457218717
 30
0.0
  0
SEQEND
  5
200
330
1FB
100
AcDbEntity
  8
_____1
  0
SPLINE
  5
201
330
3C
100
AcDbEntity
  8
_____1
 62
     7
100
AcDbSpline
210
0.0
220
0.0
230
1.0
 70
    11
 71
     3
 72
    23
 73
    19
 74
     0
 42
0.0000000001
 43
0.0000000001
 40
0.0
 40
0.0
 40
0.0
 40
0.0
 40
1.0
 40
1.0
 40
1.0
 40
2.0
 40
2.0
 40
2.0
 40
3.0
 40
3.0
 40
3.0
 40
4.0
 40
4.0
 40
4.0
 40
5.0
 40
5.0
 40
5.0
 40
6.0
 40
6.0
 40
6.0
 40
6.0
 10
47.57214915547767
 20
129.8546917517467
 30
0.0
 10
47.57214915547767
 20
131.4687200513518
 30
0.0
 10
46.26904092852866
 20
132.7768236700499
 30
0.0
 10
44.66155831466374
 20
132.7768236700499
 30
0.0
 10
43.05407570079881
 20
132.7768236700499
 30
0.0
 10
41.75113972873771
 20
131.4687200513518
 30
0.0
 10
41.75113972873771
 20
129.8546917517467
 30
0.0
 10
41.75113972873771
 20
128.2406634521417
 30
0.0
 10
43.05407570079881
 20
126.9325598334436
 30
0.0
 10
44.66155831466374
 20
126.9325598334436
 30
0.0
 10
46.26904092852866
 20
126.9325598334436
 30
0.0
 10
47.57214915547767
 20
128.2406634521417
 30
0.0
 10
47.57214915547767
 20
129.8546917517467
 30
0.0
 10
47.57214915547767
 20
129.8546917517467
 30
0.0
 10
47.57214915547767
 20
129.8546917517467
 30
0.0
 10
47.57214915547767
 20
129.8546917517467
 30
0.0
 10
47.57214915547767
 20
129.8546917517467
 30
0.0
 10
47.57214915547767
 20
129.8546917517467
 30
0.0
 10
47.57214915547767
 20
129.8546917517467
 30
0.0
  0
POLYLINE
  5
202
330
3C
100
AcDbEntity
  8
_____1
 62
     7
100
AcDb2dPolyline
 66
     1
 10
0.0
 20
0.0
 30
0.0
  0
VERTEX
  5
203
330
202
100
AcDbEntity
  8
_____1
 62
     7
100
AcDbVertex
100
AcDb2dVertex
 10
43.44096017901791
 20
130.9674583275684
 30
0.0
  0
VERTEX
  5
204
330
202
100
AcDbEntity
  8
_____1
 62
     7
100
AcDbVertex
100
AcDb2dVertex
 10
45.65701931182677
 20
128.7415806661493
 30
0.0
  0
SEQEND
  5
205
330
202
100
AcDbEntity
  8
_____1
  0
POLYLINE
  5
206
330
3C
100
AcDbEntity
  8
_____1
 62
     7
100
AcDb2dPolyline
 66
     1
 10
0.0
 20
0.0
 30
0.0
  0
VERTEX
  5
207
330
206
100
AcDbEntity
  8
_____1
 62
     7
100
AcDbVertex
100
AcDb2dVertex
 10
46.08007731650446
 20
131.3918943713493
 30
0.0
  0
VERTEX
  5
208
330
206
100
AcDbEntity
  8
_____1
 62
     7
100
AcDbVertex
100
AcDb2dVertex
 10
43.01807442922811
 20
128.3181781516958
 30
0.0
  0
SEQEND
  5
209
330
206
100
AcDbEntity
  8
_____1
  0
POLYLINE
  5
20A
330
3C
100
AcDbEntity
  8
_____1
 62
     7
100
AcDb2dPolyline
 66
     1
 10
0.0
 20
0.0
 30
0.0
  0
VERTEX
  5
20B
330
20A
100
AcDbEntity
  8
_____1
 62
     7
100
AcDbVertex
100
AcDb2dVertex
 10
44.13859247500515
 20
124.30877338098
 30
0.0
  0
VERTEX
  5
20C
330
20A
100
AcDbEntity
  8
_____1
 62
     7
100
AcDbVertex
100
AcDb2dVertex
 10
44.13859247500515
 20
125.5827705318742
 30
0.0
  0
SEQEND
  5
20D
330
20A
100
AcDbEntity
  8
_____1
  0
POLYLINE
  5
20E
330
3C
100
AcDbEntity
  8
_____1
 62
     7
100
AcDb2dPolyline
 66
     1
 10
0.0
 20
0.0
 30
0.0
  0
VERTEX
  5
20F
330
20E
100
AcDbEntity
  8
_____1
 62
     7
100
AcDbVertex
100
AcDb2dVertex
 10
44.95938701583952
 20
124.30877338098
 30
0.0
  0
VERTEX
  5
210
330
20E
100
AcDbEntity
  8
_____1
 62
     7
100
AcDbVertex
100
AcDb2dVertex
 10
44.95938701583952
 20
125.5827705318742
 30
0.0
  0
SEQEND
  5
211
330
20E
100
AcDbEntity
  8
_____1
  0
POLYLINE
  5
212
330
3C
100
AcDbEntity
  8
_____1
 62
     7
100
AcDb2dPolyline
 66
     1
 10
0.0
 20
0.0
 30
0.0
  0
VERTEX
  5
213
330
212
100
AcDbEntity
  8
_____1
 62
     7
100
AcDbVertex
100
AcDb2dVertex
 10
33.71424342407678
 20
124.2353927987354
 30
0.0
  0
VERTEX
  5
214
330
212
100
AcDbEntity
  8
_____1
 62
     7
100
AcDbVertex
100
AcDb2dVertex
 10
40.05907996491482
 20
124.2353927987354
 30
0.0
  0
VERTEX
  5
215
330
212
100
AcDbEntity
  8
_____1
 62
     7
100
AcDbVertex
100
AcDb2dVertex
 10
40.05907996491482
 20
134.1273019911708
 30
0.0
  0
VERTEX
  5
216
330
212
100
AcDbEntity
  8
_____1
 62
     7
100
AcDbVertex
100
AcDb2dVertex
 10
33.71424342407678
 20
134.1273019911708
 30
0.0
  0
VERTEX
  5
217
330
212
100
AcDbEntity
  8
_____1
 62
     7
100
AcDbVertex
100
AcDb2dVertex
 10
33.71424342407678
 20
124.2353927987354
 30
0.0
  0
SEQEND
  5
218
330
212
100
AcDbEntity
  8
_____1
  0
POLYLINE
  5
219
330
3C
100
AcDbEntity
  8
_____1
 62
     7
100
AcDb2dPolyline
 66
     1
 10
0.0
 20
0.0
 30
0.0
  0
VERTEX
  5
21A
330
219
100
AcDbEntity
  8
_____1
 62
     7
100
AcDbVertex
100
AcDb2dVertex
 10
33.71424342407678
 20
132.778201709153
 30
0.0
  0
VERTEX
  5
21B
330
219
100
AcDbEntity
  8
_____1
 62
     7
100
AcDbVertex
100
AcDb2dVertex
 10
40.05873545513902
 20
132.778201709153
 30
0.0
  0
SEQEND
  5
21C
330
219
100
AcDbEntity
  8
_____1
  0
POLYLINE
  5
21D
330
3C
100
AcDbEntity
  8
_____1
 62
     7
100
AcDb2dPolyline
 66
     1
 10
0.0
 20
0.0
 30
0.0
  0
VERTEX
  5
21E
330
21D
100
AcDbEntity
  8
_____1
 62
     7
100
AcDbVertex
100
AcDb2dVertex
 10
39.07016465349191
 20
132.778201709153
 30
0.0
  0
VERTEX
  5
21F
330
21D
100
AcDbEntity
  8
_____1
 62
     7
100
AcDbVertex
100
AcDb2dVertex
 10
39.07016465349191
 20
133.6770277142052
 30
0.0
  0
VERTEX
  5
220
330
21D
100
AcDbEntity
  8
_____1
 62
     7
100
AcDbVertex
100
AcDb2dVertex
 10
34.70298648061178
 20
133.6770277142052
 30
0.0
  0
VERTEX
  5
221
330
21D
100
AcDbEntity
  8
_____1
 62
     7
100
AcDbVertex
100
AcDb2dVertex
 10
34.70298648061178
 20
132.852615820725
 30
0.0
  0
SEQEND
  5
222
330
21D
100
AcDbEntity
  8
_____1
  0
POLYLINE
  5
223
330
3C
100
AcDbEntity
  8
_____1
 62
     7
100
AcDb2dPolyline
 66
     1
 10
0.0
 20
0.0
 30
0.0
  0
VERTEX
  5
224
330
223
100
AcDbEntity
  8
_____1
 62
     7
100
AcDbVertex
100
AcDb2dVertex
 10
40.05873545513902
 20
125.5827705318742
 30
0.0
  0
VERTEX
  5
225
330
223
100
AcDbEntity
  8
_____1
 62
     7
100
AcDbVertex
100
AcDb2dVertex
 10
33.71424342407678
 20
125.5827705318742
 30
0.0
  0
SEQEND
  5
226
330
223
100
AcDbEntity
  8
_____1
  0
POLYLINE
  5
227
330
3C
100
AcDbEntity
  8
_____1
 62
     7
100
AcDb2dPolyline
 66
     1
 10
0.0
 20
0.0
 30
0.0
  0
VERTEX
  5
228
330
227
100
AcDbEntity
  8
_____1
 62
     7
100
AcDbVertex
100
AcDb2dVertex
 10
40.05873545513902
 20
126.9325598334436
 30
0.0
  0
VERTEX
  5
229
330
227
100
AcDbEntity
  8
_____1
 62
     7
100
AcDbVertex
100
AcDb2dVertex
 10
33.71424342407678
 20
126.9325598334436
 30
0.0
  0
SEQEND
  5
22A
330
227
100
AcDbEntity
  8
_____1
  0
POLYLINE
  5
22B
330
3C
100
AcDbEntity
  8
_____1
 62
     7
100
AcDb2dPolyline
 66
     1
 10
0.0
 20
0.0
 30
0.0
  0
VERTEX
  5
22C
330
22B
100
AcDbEntity
  8
_____1
 62
     7
100
AcDbVertex
100
AcDb2dVertex
 10
34.70298648061178
 20
126.9325598334436
 30
0.0
  0
VERTEX
  5
22D
330
22B
100
AcDbEntity
  8
_____1
 62
     7
100
AcDbVertex
100
AcDb2dVertex
 10
34.70298648061178
 20
126.3896124267889
 30
0.0
  0
VERTEX
  5
22E
330
22B
100
AcDbEntity
  8
_____1
 62
     7
100
AcDbVertex
100
AcDb2dVertex
 10
39.07016465349191
 20
126.3896124267889
 30
0.0
  0
VERTEX
  5
22F
330
22B
100
AcDbEntity
  8
_____1
 62
     7
100
AcDbVertex
100
AcDb2dVertex
 10
39.07016465349191
 20
126.8581457218717
 30
0.0
  0
SEQEND
  5
230
330
22B
100
AcDbEntity
  8
_____1
  0
SPLINE
  5
231
330
3C
100
AcDbEntity
  8
_____1
 62
     7
100
AcDbSpline
210
0.0
220
0.0
230
1.0
 70
    11
 71
     3
 72
    23
 73
    19
 74
     0
 42
0.0000000001
 43
0.0000000001
 40
0.0
 40
0.0
 40
0.0
 40
0.0
 40
1.0
 40
1.0
 40
1.0
 40
2.0
 40
2.0
 40
2.0
 40
3.0
 40
3.0
 40
3.0
 40
4.0
 40
4.0
 40
4.0
 40
5.0
 40
5.0
 40
5.0
 40
6.0
 40
6.0
 40
6.0
 40
6.0
 10
39.75987322463585
 20
129.8546917517467
 30
0.0
 10
39.75987322463585
 20
131.4687200513518
 30
0.0
 10
38.45676499768684
 20
132.7771681798257
 30
0.0
 10
36.84928238382192
 20
132.7771681798257
 30
0.0
 10
35.24179976995699
 20
132.7771681798257
 30
0.0
 10
33.93869154300798
 20
131.4687200513518
 30
0.0
 10
33.93869154300798
 20
129.8546917517467
 30
0.0
 10
33.93869154300798
 20
128.2406634521417
 30
0.0
 10
35.24179976995699
 20
126.9322153236678
 30
0.0
 10
36.84928238382192
 20
126.9322153236678
 30
0.0
 10
38.45676499768684
 20
126.9322153236678
 30
0.0
 10
39.75987322463585
 20
128.2406634521417
 30
0.0
 10
39.75987322463585
 20
129.8546917517467
 30
0.0
 10
39.75987322463585
 20
129.8546917517467
 30
0.0
 10
39.75987322463585
 20
129.8546917517467
 30
0.0
 10
39.75987322463585
 20
129.8546917517467
 30
0.0
 10
39.75987322463585
 20
129.8546917517467
 30
0.0
 10
39.75987322463585
 20
129.8546917517467
 30
0.0
 10
39.75987322463585
 20
129.8546917517467
 30
0.0
  0
POLYLINE
  5
232
330
3C
100
AcDbEntity
  8
_____1
 62
     7
100
AcDb2dPolyline
 66
     1
 10
0.0
 20
0.0
 30
0.0
  0
VERTEX
  5
233
330
232
100
AcDbEntity
  8
_____1
 62
     7
100
AcDbVertex
100
AcDb2dVertex
 10
35.62902875795189
 20
130.9674583275684
 30
0.0
  0
VERTEX
  5
234
330
232
100
AcDbEntity
  8
_____1
 62
     7
100
AcDbVertex
100
AcDb2dVertex
 10
37.84560465542443
 20
128.7415806661493
 30
0.0
  0
SEQEND
  5
235
330
232
100
AcDbEntity
  8
_____1
  0
POLYLINE
  5
236
330
3C
100
AcDbEntity
  8
_____1
 62
     7
100
AcDb2dPolyline
 66
     1
 10
0.0
 20
0.0
 30
0.0
  0
VERTEX
  5
237
330
236
100
AcDbEntity
  8
_____1
 62
     7
100
AcDbVertex
100
AcDb2dVertex
 10
38.26797364055054
 20
131.3918943713493
 30
0.0
  0
VERTEX
  5
238
330
236
100
AcDbEntity
  8
_____1
 62
     7
100
AcDbVertex
100
AcDb2dVertex
 10
35.20648751793788
 20
128.3181781516958
 30
0.0
  0
SEQEND
  5
239
330
236
100
AcDbEntity
  8
_____1
  0
POLYLINE
  5
23A
330
3C
100
AcDbEntity
  8
_____1
 62
     7
100
AcDb2dPolyline
 66
     1
 10
0.0
 20
0.0
 30
0.0
  0
VERTEX
  5
23B
330
23A
100
AcDbEntity
  8
_____1
 62
     7
100
AcDbVertex
100
AcDb2dVertex
 10
36.32666105393913
 20
124.30877338098
 30
0.0
  0
VERTEX
  5
23C
330
23A
100
AcDbEntity
  8
_____1
 62
     7
100
AcDbVertex
100
AcDb2dVertex
 10
36.32666105393913
 20
125.5827705318742
 30
0.0
  0
SEQEND
  5
23D
330
23A
100
AcDbEntity
  8
_____1
  0
POLYLINE
  5
23E
330
3C
100
AcDbEntity
  8
_____1
 62
     7
100
AcDb2dPolyline
 66
     1
 10
0.0
 20
0.0
 30
0.0
  0
VERTEX
  5
23F
330
23E
100
AcDbEntity
  8
_____1
 62
     7
100
AcDbVertex
100
AcDb2dVertex
 10
37.14814461432509
 20
124.30877338098
 30
0.0
  0
VERTEX
  5
240
330
23E
100
AcDbEntity
  8
_____1
 62
     7
100
AcDbVertex
100
AcDb2dVertex
 10
37.14814461432509
 20
125.5827705318742
 30
0.0
  0
SEQEND
  5
241
330
23E
100
AcDbEntity
  8
_____1
  0
POLYLINE
  5
242
330
3C
100
AcDbEntity
  8
_____1
 62
     7
100
AcDb2dPolyline
 66
     1
 10
0.0
 20
0.0
 30
0.0
  0
VERTEX
  5
243
330
242
100
AcDbEntity
  8
_____1
 62
     7
100
AcDbVertex
100
AcDb2dVertex
 10
114.4725025173357
 20
134.1266129716192
 30
0.0
  0
VERTEX
  5
244
330
242
100
AcDbEntity
  8
_____1
 62
     7
100
AcDbVertex
100
AcDb2dVertex
 10
120.8159610190706
 20
134.1266129716192
 30
0.0
  0
VERTEX
  5
245
330
242
100
AcDbEntity
  8
_____1
 62
     7
100
AcDbVertex
100
AcDb2dVertex
 10
120.8159610190706
 20
144.0205892227094
 30
0.0
  0
VERTEX
  5
246
330
242
100
AcDbEntity
  8
_____1
 62
     7
100
AcDbVertex
100
AcDb2dVertex
 10
114.4725025173357
 20
144.0205892227094
 30
0.0
  0
VERTEX
  5
247
330
242
100
AcDbEntity
  8
_____1
 62
     7
100
AcDbVertex
100
AcDb2dVertex
 10
114.4725025173357
 20
134.1266129716192
 30
0.0
  0
SEQEND
  5
248
330
242
100
AcDbEntity
  8
_____1
  0
POLYLINE
  5
249
330
3C
100
AcDbEntity
  8
_____1
 62
     7
100
AcDb2dPolyline
 66
     1
 10
0.0
 20
0.0
 30
0.0
  0
VERTEX
  5
24A
330
249
100
AcDbEntity
  8
_____1
 62
     7
100
AcDbVertex
100
AcDb2dVertex
 10
114.4725025173357
 20
142.6711444309158
 30
0.0
  0
VERTEX
  5
24B
330
249
100
AcDbEntity
  8
_____1
 62
     7
100
AcDbVertex
100
AcDb2dVertex
 10
120.8159610190706
 20
142.6711444309158
 30
0.0
  0
SEQEND
  5
24C
330
249
100
AcDbEntity
  8
_____1
  0
POLYLINE
  5
24D
330
3C
100
AcDbEntity
  8
_____1
 62
     7
100
AcDb2dPolyline
 66
     1
 10
0.0
 20
0.0
 30
0.0
  0
VERTEX
  5
24E
330
24D
100
AcDbEntity
  8
_____1
 62
     7
100
AcDbVertex
100
AcDb2dVertex
 10
119.8272179625356
 20
142.6697663918126
 30
0.0
  0
VERTEX
  5
24F
330
24D
100
AcDbEntity
  8
_____1
 62
     7
100
AcDbVertex
100
AcDb2dVertex
 10
119.8272179625356
 20
143.5692814164164
 30
0.0
  0
VERTEX
  5
250
330
24D
100
AcDbEntity
  8
_____1
 62
     7
100
AcDbVertex
100
AcDb2dVertex
 10
115.4609010640949
 20
143.5692814164164
 30
0.0
  0
VERTEX
  5
251
330
24D
100
AcDbEntity
  8
_____1
 62
     7
100
AcDbVertex
100
AcDb2dVertex
 10
115.4609010640949
 20
142.745214032712
 30
0.0
  0
SEQEND
  5
252
330
24D
100
AcDbEntity
  8
_____1
  0
POLYLINE
  5
253
330
3C
100
AcDbEntity
  8
_____1
 62
     7
100
AcDb2dPolyline
 66
     1
 10
0.0
 20
0.0
 30
0.0
  0
VERTEX
  5
254
330
253
100
AcDbEntity
  8
_____1
 62
     7
100
AcDbVertex
100
AcDb2dVertex
 10
120.8159610190706
 20
135.4750242340854
 30
0.0
  0
VERTEX
  5
255
330
253
100
AcDbEntity
  8
_____1
 62
     7
100
AcDbVertex
100
AcDb2dVertex
 10
114.4725025173357
 20
135.4750242340854
 30
0.0
  0
SEQEND
  5
256
330
253
100
AcDbEntity
  8
_____1
  0
POLYLINE
  5
257
330
3C
100
AcDbEntity
  8
_____1
 62
     7
100
AcDb2dPolyline
 66
     1
 10
0.0
 20
0.0
 30
0.0
  0
VERTEX
  5
258
330
257
100
AcDbEntity
  8
_____1
 62
     7
100
AcDbVertex
100
AcDb2dVertex
 10
120.8159610190706
 20
136.8248135356548
 30
0.0
  0
VERTEX
  5
259
330
257
100
AcDbEntity
  8
_____1
 62
     7
100
AcDbVertex
100
AcDb2dVertex
 10
114.4725025173357
 20
136.8248135356548
 30
0.0
  0
SEQEND
  5
25A
330
257
100
AcDbEntity
  8
_____1
  0
POLYLINE
  5
25B
330
3C
100
AcDbEntity
  8
_____1
 62
     7
100
AcDb2dPolyline
 66
     1
 10
0.0
 20
0.0
 30
0.0
  0
VERTEX
  5
25C
330
25B
100
AcDbEntity
  8
_____1
 62
     7
100
AcDbVertex
100
AcDb2dVertex
 10
115.4609010640949
 20
136.8248135356548
 30
0.0
  0
VERTEX
  5
25D
330
25B
100
AcDbEntity
  8
_____1
 62
     7
100
AcDbVertex
100
AcDb2dVertex
 10
115.4609010640949
 20
136.2822106387759
 30
0.0
  0
VERTEX
  5
25E
330
25B
100
AcDbEntity
  8
_____1
 62
     7
100
AcDbVertex
100
AcDb2dVertex
 10
119.8272179625356
 20
136.2822106387759
 30
0.0
  0
VERTEX
  5
25F
330
25B
100
AcDbEntity
  8
_____1
 62
     7
100
AcDbVertex
100
AcDb2dVertex
 10
119.8272179625356
 20
136.7500549143071
 30
0.0
  0
SEQEND
  5
260
330
25B
100
AcDbEntity
  8
_____1
  0
SPLINE
  5
261
330
3C
100
AcDbEntity
  8
_____1
 62
     7
100
AcDbSpline
210
0.0
220
0.0
230
1.0
 70
    11
 71
     3
 72
    23
 73
    19
 74
     0
 42
0.0000000001
 43
0.0000000001
 40
0.0
 40
0.0
 40
0.0
 40
0.0
 40
1.0
 40
1.0
 40
1.0
 40
2.0
 40
2.0
 40
2.0
 40
3.0
 40
3.0
 40
3.0
 40
4.0
 40
4.0
 40
4.0
 40
5.0
 40
5.0
 40
5.0
 40
6.0
 40
6.0
 40
6.0
 40
6.0
 10
120.5183045727827
 20
139.7472899637337
 30
0.0
 10
120.5183045727827
 20
141.3616627731146
 30
0.0
 10
119.2150240909458
 20
142.6701109015884
 30
0.0
 10
117.6075414770808
 20
142.6701109015884
 30
0.0
 10
115.9997143534401
 20
142.6701109015884
 30
0.0
 10
114.6964338716032
 20
141.3616627731146
 30
0.0
 10
114.6964338716032
 20
139.7472899637337
 30
0.0
 10
114.6964338716032
 20
138.1332616641287
 30
0.0
 10
115.9997143534401
 20
136.8248135356548
 30
0.0
 10
117.6075414770808
 20
136.8248135356548
 30
0.0
 10
119.2150240909458
 20
136.8248135356548
 30
0.0
 10
120.5183045727827
 20
138.1332616641287
 30
0.0
 10
120.5183045727827
 20
139.7472899637337
 30
0.0
 10
120.5183045727827
 20
139.7472899637337
 30
0.0
 10
120.5183045727827
 20
139.7472899637337
 30
0.0
 10
120.5183045727827
 20
139.7472899637337
 30
0.0
 10
120.5183045727827
 20
139.7472899637337
 30
0.0
 10
120.5183045727827
 20
139.7472899637337
 30
0.0
 10
120.5183045727827
 20
139.7472899637337
 30
0.0
  0
POLYLINE
  5
262
330
3C
100
AcDbEntity
  8
_____1
 62
     7
100
AcDb2dPolyline
 66
     1
 10
0.0
 20
0.0
 30
0.0
  0
VERTEX
  5
263
330
262
100
AcDbEntity
  8
_____1
 62
     7
100
AcDbVertex
100
AcDb2dVertex
 10
116.386943341435
 20
140.8607455591069
 30
0.0
  0
VERTEX
  5
264
330
262
100
AcDbEntity
  8
_____1
 62
     7
100
AcDbVertex
100
AcDb2dVertex
 10
118.6038637486834
 20
138.6341788781363
 30
0.0
  0
SEQEND
  5
265
330
262
100
AcDbEntity
  8
_____1
  0
POLYLINE
  5
266
330
3C
100
AcDbEntity
  8
_____1
 62
     7
100
AcDb2dPolyline
 66
     1
 10
0.0
 20
0.0
 30
0.0
  0
VERTEX
  5
267
330
266
100
AcDbEntity
  8
_____1
 62
     7
100
AcDbVertex
100
AcDb2dVertex
 10
119.0248546947063
 20
141.2834590540088
 30
0.0
  0
VERTEX
  5
268
330
266
100
AcDbEntity
  8
_____1
 62
     7
100
AcDbVertex
100
AcDb2dVertex
 10
115.9645743563089
 20
138.2097428343554
 30
0.0
  0
SEQEND
  5
269
330
266
100
AcDbEntity
  8
_____1
  0
POLYLINE
  5
26A
330
3C
100
AcDbEntity
  8
_____1
 62
     7
100
AcDb2dPolyline
 66
     1
 10
0.0
 20
0.0
 30
0.0
  0
VERTEX
  5
26B
330
26A
100
AcDbEntity
  8
_____1
 62
     7
100
AcDbVertex
100
AcDb2dVertex
 10
117.0845756374222
 20
134.2010270831912
 30
0.0
  0
VERTEX
  5
26C
330
26A
100
AcDbEntity
  8
_____1
 62
     7
100
AcDbVertex
100
AcDb2dVertex
 10
117.0845756374222
 20
135.4750242340854
 30
0.0
  0
SEQEND
  5
26D
330
26A
100
AcDbEntity
  8
_____1
  0
POLYLINE
  5
26E
330
3C
100
AcDbEntity
  8
_____1
 62
     7
100
AcDb2dPolyline
 66
     1
 10
0.0
 20
0.0
 30
0.0
  0
VERTEX
  5
26F
330
26E
100
AcDbEntity
  8
_____1
 62
     7
100
AcDbVertex
100
AcDb2dVertex
 10
117.9065759624719
 20
134.2010270831912
 30
0.0
  0
VERTEX
  5
270
330
26E
100
AcDbEntity
  8
_____1
 62
     7
100
AcDbVertex
100
AcDb2dVertex
 10
117.9065759624719
 20
135.4750242340854
 30
0.0
  0
SEQEND
  5
271
330
26E
100
AcDbEntity
  8
_____1
  0
POLYLINE
  5
272
330
3C
100
AcDbEntity
  8
_____1
 62
     7
100
AcDb2dPolyline
 66
     1
 10
0.0
 20
0.0
 30
0.0
  0
VERTEX
  5
273
330
272
100
AcDbEntity
  8
_____1
 62
     7
100
AcDbVertex
100
AcDb2dVertex
 10
106.6607433511576
 20
134.1266129716192
 30
0.0
  0
VERTEX
  5
274
330
272
100
AcDbEntity
  8
_____1
 62
     7
100
AcDbVertex
100
AcDb2dVertex
 10
113.0042018528924
 20
134.1266129716192
 30
0.0
  0
VERTEX
  5
275
330
272
100
AcDbEntity
  8
_____1
 62
     7
100
AcDbVertex
100
AcDb2dVertex
 10
113.0042018528924
 20
144.0205892227094
 30
0.0
  0
VERTEX
  5
276
330
272
100
AcDbEntity
  8
_____1
 62
     7
100
AcDbVertex
100
AcDb2dVertex
 10
106.6607433511576
 20
144.0205892227094
 30
0.0
  0
VERTEX
  5
277
330
272
100
AcDbEntity
  8
_____1
 62
     7
100
AcDbVertex
100
AcDb2dVertex
 10
106.6607433511576
 20
134.1266129716192
 30
0.0
  0
SEQEND
  5
278
330
272
100
AcDbEntity
  8
_____1
  0
POLYLINE
  5
279
330
3C
100
AcDbEntity
  8
_____1
 62
     7
100
AcDb2dPolyline
 66
     1
 10
0.0
 20
0.0
 30
0.0
  0
VERTEX
  5
27A
330
279
100
AcDbEntity
  8
_____1
 62
     7
100
AcDbVertex
100
AcDb2dVertex
 10
106.6607433511576
 20
142.6711444309158
 30
0.0
  0
VERTEX
  5
27B
330
279
100
AcDbEntity
  8
_____1
 62
     7
100
AcDbVertex
100
AcDb2dVertex
 10
113.004890872444
 20
142.6711444309158
 30
0.0
  0
SEQEND
  5
27C
330
279
100
AcDbEntity
  8
_____1
  0
POLYLINE
  5
27D
330
3C
100
AcDbEntity
  8
_____1
 62
     7
100
AcDb2dPolyline
 66
     1
 10
0.0
 20
0.0
 30
0.0
  0
VERTEX
  5
27E
330
27D
100
AcDbEntity
  8
_____1
 62
     7
100
AcDbVertex
100
AcDb2dVertex
 10
112.0151142865816
 20
142.6697663918126
 30
0.0
  0
VERTEX
  5
27F
330
27D
100
AcDbEntity
  8
_____1
 62
     7
100
AcDbVertex
100
AcDb2dVertex
 10
112.0151142865816
 20
143.5692814164164
 30
0.0
  0
VERTEX
  5
280
330
27D
100
AcDbEntity
  8
_____1
 62
     7
100
AcDbVertex
100
AcDb2dVertex
 10
107.648797388141
 20
143.5692814164164
 30
0.0
  0
VERTEX
  5
281
330
27D
100
AcDbEntity
  8
_____1
 62
     7
100
AcDbVertex
100
AcDb2dVertex
 10
107.648797388141
 20
142.745214032712
 30
0.0
  0
SEQEND
  5
282
330
27D
100
AcDbEntity
  8
_____1
  0
POLYLINE
  5
283
330
3C
100
AcDbEntity
  8
_____1
 62
     7
100
AcDb2dPolyline
 66
     1
 10
0.0
 20
0.0
 30
0.0
  0
VERTEX
  5
284
330
283
100
AcDbEntity
  8
_____1
 62
     7
100
AcDbVertex
100
AcDb2dVertex
 10
113.004890872444
 20
135.4750242340854
 30
0.0
  0
VERTEX
  5
285
330
283
100
AcDbEntity
  8
_____1
 62
     7
100
AcDbVertex
100
AcDb2dVertex
 10
106.6607433511576
 20
135.4750242340854
 30
0.0
  0
SEQEND
  5
286
330
283
100
AcDbEntity
  8
_____1
  0
POLYLINE
  5
287
330
3C
100
AcDbEntity
  8
_____1
 62
     7
100
AcDb2dPolyline
 66
     1
 10
0.0
 20
0.0
 30
0.0
  0
VERTEX
  5
288
330
287
100
AcDbEntity
  8
_____1
 62
     7
100
AcDbVertex
100
AcDb2dVertex
 10
113.004890872444
 20
136.8248135356548
 30
0.0
  0
VERTEX
  5
289
330
287
100
AcDbEntity
  8
_____1
 62
     7
100
AcDbVertex
100
AcDb2dVertex
 10
106.6607433511576
 20
136.8248135356548
 30
0.0
  0
SEQEND
  5
28A
330
287
100
AcDbEntity
  8
_____1
  0
POLYLINE
  5
28B
330
3C
100
AcDbEntity
  8
_____1
 62
     7
100
AcDb2dPolyline
 66
     1
 10
0.0
 20
0.0
 30
0.0
  0
VERTEX
  5
28C
330
28B
100
AcDbEntity
  8
_____1
 62
     7
100
AcDbVertex
100
AcDb2dVertex
 10
107.648797388141
 20
136.8248135356548
 30
0.0
  0
VERTEX
  5
28D
330
28B
100
AcDbEntity
  8
_____1
 62
     7
100
AcDbVertex
100
AcDb2dVertex
 10
107.648797388141
 20
136.2822106387759
 30
0.0
  0
VERTEX
  5
28E
330
28B
100
AcDbEntity
  8
_____1
 62
     7
100
AcDbVertex
100
AcDb2dVertex
 10
112.0151142865816
 20
136.2822106387759
 30
0.0
  0
VERTEX
  5
28F
330
28B
100
AcDbEntity
  8
_____1
 62
     7
100
AcDbVertex
100
AcDb2dVertex
 10
112.0151142865816
 20
136.7500549143071
 30
0.0
  0
SEQEND
  5
290
330
28B
100
AcDbEntity
  8
_____1
  0
SPLINE
  5
291
330
3C
100
AcDbEntity
  8
_____1
 62
     7
100
AcDbSpline
210
0.0
220
0.0
230
1.0
 70
    11
 71
     3
 72
    23
 73
    19
 74
     0
 42
0.0000000001
 43
0.0000000001
 40
0.0
 40
0.0
 40
0.0
 40
0.0
 40
1.0
 40
1.0
 40
1.0
 40
2.0
 40
2.0
 40
2.0
 40
3.0
 40
3.0
 40
3.0
 40
4.0
 40
4.0
 40
4.0
 40
5.0
 40
5.0
 40
5.0
 40
6.0
 40
6.0
 40
6.0
 40
6.0
 10
112.7058563870529
 20
139.7472899637337
 30
0.0
 10
112.7058563870529
 20
141.3616627731146
 30
0.0
 10
111.402575905216
 20
142.6701109015884
 30
0.0
 10
109.7947487815753
 20
142.6701109015884
 30
0.0
 10
108.1872661677104
 20
142.6701109015884
 30
0.0
 10
106.8839856858735
 20
141.3616627731146
 30
0.0
 10
106.8839856858735
 20
139.7472899637337
 30
0.0
 10
106.8839856858735
 20
138.1332616641287
 30
0.0
 10
108.1872661677104
 20
136.8248135356548
 30
0.0
 10
109.7947487815753
 20
136.8248135356548
 30
0.0
 10
111.402575905216
 20
136.8248135356548
 30
0.0
 10
112.7058563870529
 20
138.1332616641287
 30
0.0
 10
112.7058563870529
 20
139.7472899637337
 30
0.0
 10
112.7058563870529
 20
139.7472899637337
 30
0.0
 10
112.7058563870529
 20
139.7472899637337
 30
0.0
 10
112.7058563870529
 20
139.7472899637337
 30
0.0
 10
112.7058563870529
 20
139.7472899637337
 30
0.0
 10
112.7058563870529
 20
139.7472899637337
 30
0.0
 10
112.7058563870529
 20
139.7472899637337
 30
0.0
  0
POLYLINE
  5
292
330
3C
100
AcDbEntity
  8
_____1
 62
     7
100
AcDb2dPolyline
 66
     1
 10
0.0
 20
0.0
 30
0.0
  0
VERTEX
  5
293
330
292
100
AcDbEntity
  8
_____1
 62
     7
100
AcDbVertex
100
AcDb2dVertex
 10
108.5744951557053
 20
140.8607455591069
 30
0.0
  0
VERTEX
  5
294
330
292
100
AcDbEntity
  8
_____1
 62
     7
100
AcDbVertex
100
AcDb2dVertex
 10
110.7921045825052
 20
138.6341788781363
 30
0.0
  0
SEQEND
  5
295
330
292
100
AcDbEntity
  8
_____1
  0
POLYLINE
  5
296
330
3C
100
AcDbEntity
  8
_____1
 62
     7
100
AcDb2dPolyline
 66
     1
 10
0.0
 20
0.0
 30
0.0
  0
VERTEX
  5
297
330
296
100
AcDbEntity
  8
_____1
 62
     7
100
AcDbVertex
100
AcDb2dVertex
 10
111.2144735676313
 20
141.2834590540088
 30
0.0
  0
VERTEX
  5
298
330
296
100
AcDbEntity
  8
_____1
 62
     7
100
AcDbVertex
100
AcDb2dVertex
 10
108.1521261705792
 20
138.2097428343554
 30
0.0
  0
SEQEND
  5
299
330
296
100
AcDbEntity
  8
_____1
  0
POLYLINE
  5
29A
330
3C
100
AcDbEntity
  8
_____1
 62
     7
100
AcDb2dPolyline
 66
     1
 10
0.0
 20
0.0
 30
0.0
  0
VERTEX
  5
29B
330
29A
100
AcDbEntity
  8
_____1
 62
     7
100
AcDbVertex
100
AcDb2dVertex
 10
109.2724719614683
 20
134.2010270831912
 30
0.0
  0
VERTEX
  5
29C
330
29A
100
AcDbEntity
  8
_____1
 62
     7
100
AcDbVertex
100
AcDb2dVertex
 10
109.2724719614683
 20
135.4750242340854
 30
0.0
  0
SEQEND
  5
29D
330
29A
100
AcDbEntity
  8
_____1
  0
POLYLINE
  5
29E
330
3C
100
AcDbEntity
  8
_____1
 62
     7
100
AcDb2dPolyline
 66
     1
 10
0.0
 20
0.0
 30
0.0
  0
VERTEX
  5
29F
330
29E
100
AcDbEntity
  8
_____1
 62
     7
100
AcDbVertex
100
AcDb2dVertex
 10
110.0930942474148
 20
134.2010270831912
 30
0.0
  0
VERTEX
  5
2A0
330
29E
100
AcDbEntity
  8
_____1
 62
     7
100
AcDbVertex
100
AcDb2dVertex
 10
110.0930942474148
 20
135.4750242340854
 30
0.0
  0
SEQEND
  5
2A1
330
29E
100
AcDbEntity
  8
_____1
  0
POLYLINE
  5
2A2
330
3C
100
AcDbEntity
  8
_____1
 62
     7
100
AcDb2dPolyline
 66
     1
 10
0.0
 20
0.0
 30
0.0
  0
VERTEX
  5
2A3
330
2A2
100
AcDbEntity
  8
_____1
 62
     7
100
AcDbVertex
100
AcDb2dVertex
 10
98.84726163610046
 20
134.1266129716192
 30
0.0
  0
VERTEX
  5
2A4
330
2A2
100
AcDbEntity
  8
_____1
 62
     7
100
AcDbVertex
100
AcDb2dVertex
 10
105.1924426867143
 20
134.1266129716192
 30
0.0
  0
VERTEX
  5
2A5
330
2A2
100
AcDbEntity
  8
_____1
 62
     7
100
AcDbVertex
100
AcDb2dVertex
 10
105.1924426867143
 20
144.0205892227094
 30
0.0
  0
VERTEX
  5
2A6
330
2A2
100
AcDbEntity
  8
_____1
 62
     7
100
AcDbVertex
100
AcDb2dVertex
 10
98.84726163610046
 20
144.0205892227094
 30
0.0
  0
VERTEX
  5
2A7
330
2A2
100
AcDbEntity
  8
_____1
 62
     7
100
AcDbVertex
100
AcDb2dVertex
 10
98.84726163610046
 20
134.1266129716192
 30
0.0
  0
SEQEND
  5
2A8
330
2A2
100
AcDbEntity
  8
_____1
  0
POLYLINE
  5
2A9
330
3C
100
AcDbEntity
  8
_____1
 62
     7
100
AcDb2dPolyline
 66
     1
 10
0.0
 20
0.0
 30
0.0
  0
VERTEX
  5
2AA
330
2A9
100
AcDbEntity
  8
_____1
 62
     7
100
AcDbVertex
100
AcDb2dVertex
 10
98.84726163610046
 20
142.6711444309158
 30
0.0
  0
VERTEX
  5
2AB
330
2A9
100
AcDbEntity
  8
_____1
 62
     7
100
AcDbVertex
100
AcDb2dVertex
 10
105.1924426867143
 20
142.6711444309158
 30
0.0
  0
SEQEND
  5
2AC
330
2A9
100
AcDbEntity
  8
_____1
  0
POLYLINE
  5
2AD
330
3C
100
AcDbEntity
  8
_____1
 62
     7
100
AcDb2dPolyline
 66
     1
 10
0.0
 20
0.0
 30
0.0
  0
VERTEX
  5
2AE
330
2AD
100
AcDbEntity
  8
_____1
 62
     7
100
AcDbVertex
100
AcDb2dVertex
 10
104.2035273752914
 20
142.6697663918126
 30
0.0
  0
VERTEX
  5
2AF
330
2AD
100
AcDbEntity
  8
_____1
 62
     7
100
AcDbVertex
100
AcDb2dVertex
 10
104.2035273752914
 20
143.5692814164164
 30
0.0
  0
VERTEX
  5
2B0
330
2AD
100
AcDbEntity
  8
_____1
 62
     7
100
AcDbVertex
100
AcDb2dVertex
 10
99.83686596707496
 20
143.5692814164164
 30
0.0
  0
VERTEX
  5
2B1
330
2AD
100
AcDbEntity
  8
_____1
 62
     7
100
AcDbVertex
100
AcDb2dVertex
 10
99.83686596707496
 20
142.745214032712
 30
0.0
  0
SEQEND
  5
2B2
330
2AD
100
AcDbEntity
  8
_____1
  0
POLYLINE
  5
2B3
330
3C
100
AcDbEntity
  8
_____1
 62
     7
100
AcDb2dPolyline
 66
     1
 10
0.0
 20
0.0
 30
0.0
  0
VERTEX
  5
2B4
330
2B3
100
AcDbEntity
  8
_____1
 62
     7
100
AcDbVertex
100
AcDb2dVertex
 10
105.1924426867143
 20
135.4750242340854
 30
0.0
  0
VERTEX
  5
2B5
330
2B3
100
AcDbEntity
  8
_____1
 62
     7
100
AcDbVertex
100
AcDb2dVertex
 10
98.84726163610046
 20
135.4750242340854
 30
0.0
  0
SEQEND
  5
2B6
330
2B3
100
AcDbEntity
  8
_____1
  0
POLYLINE
  5
2B7
330
3C
100
AcDbEntity
  8
_____1
 62
     7
100
AcDb2dPolyline
 66
     1
 10
0.0
 20
0.0
 30
0.0
  0
VERTEX
  5
2B8
330
2B7
100
AcDbEntity
  8
_____1
 62
     7
100
AcDbVertex
100
AcDb2dVertex
 10
105.1924426867143
 20
136.8248135356548
 30
0.0
  0
VERTEX
  5
2B9
330
2B7
100
AcDbEntity
  8
_____1
 62
     7
100
AcDbVertex
100
AcDb2dVertex
 10
98.84726163610046
 20
136.8248135356548
 30
0.0
  0
SEQEND
  5
2BA
330
2B7
100
AcDbEntity
  8
_____1
  0
POLYLINE
  5
2BB
330
3C
100
AcDbEntity
  8
_____1
 62
     7
100
AcDb2dPolyline
 66
     1
 10
0.0
 20
0.0
 30
0.0
  0
VERTEX
  5
2BC
330
2BB
100
AcDbEntity
  8
_____1
 62
     7
100
AcDbVertex
100
AcDb2dVertex
 10
99.83686596707496
 20
136.8248135356548
 30
0.0
  0
VERTEX
  5
2BD
330
2BB
100
AcDbEntity
  8
_____1
 62
     7
100
AcDbVertex
100
AcDb2dVertex
 10
99.83686596707496
 20
136.2822106387759
 30
0.0
  0
VERTEX
  5
2BE
330
2BB
100
AcDbEntity
  8
_____1
 62
     7
100
AcDbVertex
100
AcDb2dVertex
 10
104.2035273752914
 20
136.2822106387759
 30
0.0
  0
VERTEX
  5
2BF
330
2BB
100
AcDbEntity
  8
_____1
 62
     7
100
AcDbVertex
100
AcDb2dVertex
 10
104.2035273752914
 20
136.7500549143071
 30
0.0
  0
SEQEND
  5
2C0
330
2BB
100
AcDbEntity
  8
_____1
  0
SPLINE
  5
2C1
330
3C
100
AcDbEntity
  8
_____1
 62
     7
100
AcDbSpline
210
0.0
220
0.0
230
1.0
 70
    11
 71
     3
 72
    23
 73
    19
 74
     0
 42
0.0000000001
 43
0.0000000001
 40
0.0
 40
0.0
 40
0.0
 40
0.0
 40
1.0
 40
1.0
 40
1.0
 40
2.0
 40
2.0
 40
2.0
 40
3.0
 40
3.0
 40
3.0
 40
4.0
 40
4.0
 40
4.0
 40
5.0
 40
5.0
 40
5.0
 40
6.0
 40
6.0
 40
6.0
 40
6.0
 10
104.8939249659869
 20
139.7472899637337
 30
0.0
 10
104.8939249659869
 20
141.3616627731146
 30
0.0
 10
103.59064448415
 20
142.6704554113642
 30
0.0
 10
101.9828173605093
 20
142.6704554113642
 30
0.0
 10
100.3749902368686
 20
142.6704554113642
 30
0.0
 10
99.07153750014376
 20
141.3616627731146
 30
0.0
 10
99.07153750014376
 20
139.7472899637337
 30
0.0
 10
99.07153750014376
 20
138.1329171543529
 30
0.0
 10
100.3749902368686
 20
136.824469025879
 30
0.0
 10
101.9828173605093
 20
136.824469025879
 30
0.0
 10
103.59064448415
 20
136.824469025879
 30
0.0
 10
104.8939249659869
 20
138.1329171543529
 30
0.0
 10
104.8939249659869
 20
139.7472899637337
 30
0.0
 10
104.8939249659869
 20
139.7472899637337
 30
0.0
 10
104.8939249659869
 20
139.7472899637337
 30
0.0
 10
104.8939249659869
 20
139.7472899637337
 30
0.0
 10
104.8939249659869
 20
139.7472899637337
 30
0.0
 10
104.8939249659869
 20
139.7472899637337
 30
0.0
 10
104.8939249659869
 20
139.7472899637337
 30
0.0
  0
POLYLINE
  5
2C2
330
3C
100
AcDbEntity
  8
_____1
 62
     7
100
AcDb2dPolyline
 66
     1
 10
0.0
 20
0.0
 30
0.0
  0
VERTEX
  5
2C3
330
2C2
100
AcDbEntity
  8
_____1
 62
     7
100
AcDbVertex
100
AcDb2dVertex
 10
100.7620469699756
 20
140.8607455591069
 30
0.0
  0
VERTEX
  5
2C4
330
2C2
100
AcDbEntity
  8
_____1
 62
     7
100
AcDbVertex
100
AcDb2dVertex
 10
102.9782783576723
 20
138.6341788781363
 30
0.0
  0
SEQEND
  5
2C5
330
2C2
100
AcDbEntity
  8
_____1
  0
POLYLINE
  5
2C6
330
3C
100
AcDbEntity
  8
_____1
 62
     7
100
AcDb2dPolyline
 66
     1
 10
0.0
 20
0.0
 30
0.0
  0
VERTEX
  5
2C7
330
2C6
100
AcDbEntity
  8
_____1
 62
     7
100
AcDbVertex
100
AcDb2dVertex
 10
103.40133636235
 20
141.2834590540088
 30
0.0
  0
VERTEX
  5
2C8
330
2C6
100
AcDbEntity
  8
_____1
 62
     7
100
AcDbVertex
100
AcDb2dVertex
 10
100.3393334750737
 20
138.2097428343554
 30
0.0
  0
SEQEND
  5
2C9
330
2C6
100
AcDbEntity
  8
_____1
  0
POLYLINE
  5
2CA
330
3C
100
AcDbEntity
  8
_____1
 62
     7
100
AcDb2dPolyline
 66
     1
 10
0.0
 20
0.0
 30
0.0
  0
VERTEX
  5
2CB
330
2CA
100
AcDbEntity
  8
_____1
 62
     7
100
AcDbVertex
100
AcDb2dVertex
 10
101.4596792659628
 20
134.2010270831912
 30
0.0
  0
VERTEX
  5
2CC
330
2CA
100
AcDbEntity
  8
_____1
 62
     7
100
AcDbVertex
100
AcDb2dVertex
 10
101.4596792659628
 20
135.4750242340854
 30
0.0
  0
SEQEND
  5
2CD
330
2CA
100
AcDbEntity
  8
_____1
  0
POLYLINE
  5
2CE
330
3C
100
AcDbEntity
  8
_____1
 62
     7
100
AcDb2dPolyline
 66
     1
 10
0.0
 20
0.0
 30
0.0
  0
VERTEX
  5
2CF
330
2CE
100
AcDbEntity
  8
_____1
 62
     7
100
AcDbVertex
100
AcDb2dVertex
 10
102.2811628263488
 20
134.2010270831912
 30
0.0
  0
VERTEX
  5
2D0
330
2CE
100
AcDbEntity
  8
_____1
 62
     7
100
AcDbVertex
100
AcDb2dVertex
 10
102.2811628263488
 20
135.4750242340854
 30
0.0
  0
SEQEND
  5
2D1
330
2CE
100
AcDbEntity
  8
_____1
  0
POLYLINE
  5
2D2
330
3C
100
AcDbEntity
  8
_____1
 62
     7
100
AcDb2dPolyline
 66
     1
 10
0.0
 20
0.0
 30
0.0
  0
VERTEX
  5
2D3
330
2D2
100
AcDbEntity
  8
_____1
 62
     7
100
AcDbVertex
100
AcDb2dVertex
 10
91.03550246992234
 20
134.1266129716192
 30
0.0
  0
VERTEX
  5
2D4
330
2D2
100
AcDbEntity
  8
_____1
 62
     7
100
AcDbVertex
100
AcDb2dVertex
 10
97.37982224609668
 20
134.1266129716192
 30
0.0
  0
VERTEX
  5
2D5
330
2D2
100
AcDbEntity
  8
_____1
 62
     7
100
AcDbVertex
100
AcDb2dVertex
 10
97.37982224609668
 20
144.0205892227094
 30
0.0
  0
VERTEX
  5
2D6
330
2D2
100
AcDbEntity
  8
_____1
 62
     7
100
AcDbVertex
100
AcDb2dVertex
 10
91.03550246992234
 20
144.0205892227094
 30
0.0
  0
VERTEX
  5
2D7
330
2D2
100
AcDbEntity
  8
_____1
 62
     7
100
AcDbVertex
100
AcDb2dVertex
 10
91.03550246992234
 20
134.1266129716192
 30
0.0
  0
SEQEND
  5
2D8
330
2D2
100
AcDbEntity
  8
_____1
  0
POLYLINE
  5
2D9
330
3C
100
AcDbEntity
  8
_____1
 62
     7
100
AcDb2dPolyline
 66
     1
 10
0.0
 20
0.0
 30
0.0
  0
VERTEX
  5
2DA
330
2D9
100
AcDbEntity
  8
_____1
 62
     7
100
AcDbVertex
100
AcDb2dVertex
 10
91.03550246992234
 20
142.6711444309158
 30
0.0
  0
VERTEX
  5
2DB
330
2D9
100
AcDbEntity
  8
_____1
 62
     7
100
AcDbVertex
100
AcDb2dVertex
 10
97.37947773632088
 20
142.6711444309158
 30
0.0
  0
SEQEND
  5
2DC
330
2D9
100
AcDbEntity
  8
_____1
  0
POLYLINE
  5
2DD
330
3C
100
AcDbEntity
  8
_____1
 62
     7
100
AcDb2dPolyline
 66
     1
 10
0.0
 20
0.0
 30
0.0
  0
VERTEX
  5
2DE
330
2DD
100
AcDbEntity
  8
_____1
 62
     7
100
AcDbVertex
100
AcDb2dVertex
 10
96.39090693467378
 20
142.6697663918126
 30
0.0
  0
VERTEX
  5
2DF
330
2DD
100
AcDbEntity
  8
_____1
 62
     7
100
AcDbVertex
100
AcDb2dVertex
 10
96.39090693467378
 20
143.5692814164164
 30
0.0
  0
VERTEX
  5
2E0
330
2DD
100
AcDbEntity
  8
_____1
 62
     7
100
AcDbVertex
100
AcDb2dVertex
 10
92.02407327156944
 20
143.5692814164164
 30
0.0
  0
VERTEX
  5
2E1
330
2DD
100
AcDbEntity
  8
_____1
 62
     7
100
AcDbVertex
100
AcDb2dVertex
 10
92.02407327156944
 20
142.745214032712
 30
0.0
  0
SEQEND
  5
2E2
330
2DD
100
AcDbEntity
  8
_____1
  0
POLYLINE
  5
2E3
330
3C
100
AcDbEntity
  8
_____1
 62
     7
100
AcDb2dPolyline
 66
     1
 10
0.0
 20
0.0
 30
0.0
  0
VERTEX
  5
2E4
330
2E3
100
AcDbEntity
  8
_____1
 62
     7
100
AcDbVertex
100
AcDb2dVertex
 10
97.37947773632088
 20
135.4750242340854
 30
0.0
  0
VERTEX
  5
2E5
330
2E3
100
AcDbEntity
  8
_____1
 62
     7
100
AcDbVertex
100
AcDb2dVertex
 10
91.03550246992234
 20
135.4750242340854
 30
0.0
  0
SEQEND
  5
2E6
330
2E3
100
AcDbEntity
  8
_____1
  0
POLYLINE
  5
2E7
330
3C
100
AcDbEntity
  8
_____1
 62
     7
100
AcDb2dPolyline
 66
     1
 10
0.0
 20
0.0
 30
0.0
  0
VERTEX
  5
2E8
330
2E7
100
AcDbEntity
  8
_____1
 62
     7
100
AcDbVertex
100
AcDb2dVertex
 10
97.37947773632088
 20
136.8248135356548
 30
0.0
  0
VERTEX
  5
2E9
330
2E7
100
AcDbEntity
  8
_____1
 62
     7
100
AcDbVertex
100
AcDb2dVertex
 10
91.03550246992234
 20
136.8248135356548
 30
0.0
  0
SEQEND
  5
2EA
330
2E7
100
AcDbEntity
  8
_____1
  0
POLYLINE
  5
2EB
330
3C
100
AcDbEntity
  8
_____1
 62
     7
100
AcDb2dPolyline
 66
     1
 10
0.0
 20
0.0
 30
0.0
  0
VERTEX
  5
2EC
330
2EB
100
AcDbEntity
  8
_____1
 62
     7
100
AcDbVertex
100
AcDb2dVertex
 10
92.02407327156944
 20
136.8248135356548
 30
0.0
  0
VERTEX
  5
2ED
330
2EB
100
AcDbEntity
  8
_____1
 62
     7
100
AcDbVertex
100
AcDb2dVertex
 10
92.02407327156944
 20
136.2822106387759
 30
0.0
  0
VERTEX
  5
2EE
330
2EB
100
AcDbEntity
  8
_____1
 62
     7
100
AcDbVertex
100
AcDb2dVertex
 10
96.39090693467378
 20
136.2822106387759
 30
0.0
  0
VERTEX
  5
2EF
330
2EB
100
AcDbEntity
  8
_____1
 62
     7
100
AcDbVertex
100
AcDb2dVertex
 10
96.39090693467378
 20
136.7500549143071
 30
0.0
  0
SEQEND
  5
2F0
330
2EB
100
AcDbEntity
  8
_____1
  0
SPLINE
  5
2F1
330
3C
100
AcDbEntity
  8
_____1
 62
     7
100
AcDbSpline
210
0.0
220
0.0
230
1.0
 70
    11
 71
     3
 72
    23
 73
    19
 74
     0
 42
0.0000000001
 43
0.0000000001
 40
0.0
 40
0.0
 40
0.0
 40
0.0
 40
1.0
 40
1.0
 40
1.0
 40
2.0
 40
2.0
 40
2.0
 40
3.0
 40
3.0
 40
3.0
 40
4.0
 40
4.0
 40
4.0
 40
5.0
 40
5.0
 40
5.0
 40
6.0
 40
6.0
 40
6.0
 40
6.0
 10
97.08113227048141
 20
139.7472899637337
 30
0.0
 10
97.08113227048141
 20
141.3616627731146
 30
0.0
 10
95.7776795337566
 20
142.6701109015884
 30
0.0
 10
94.17002466500378
 20
142.6701109015884
 30
0.0
 10
92.56219754136305
 20
142.6701109015884
 30
0.0
 10
91.25891705952614
 20
141.3616627731146
 30
0.0
 10
91.25891705952614
 20
139.7472899637337
 30
0.0
 10
91.25891705952614
 20
138.1329171543529
 30
0.0
 10
92.56219754136305
 20
136.824469025879
 30
0.0
 10
94.17002466500378
 20
136.824469025879
 30
0.0
 10
95.7776795337566
 20
136.824469025879
 30
0.0
 10
97.08113227048141
 20
138.1329171543529
 30
0.0
 10
97.08113227048141
 20
139.7472899637337
 30
0.0
 10
97.08113227048141
 20
139.7472899637337
 30
0.0
 10
97.08113227048141
 20
139.7472899637337
 30
0.0
 10
97.08113227048141
 20
139.7472899637337
 30
0.0
 10
97.08113227048141
 20
139.7472899637337
 30
0.0
 10
97.08113227048141
 20
139.7472899637337
 30
0.0
 10
97.08113227048141
 20
139.7472899637337
 30
0.0
  0
POLYLINE
  5
2F2
330
3C
100
AcDbEntity
  8
_____1
 62
     7
100
AcDb2dPolyline
 66
     1
 10
0.0
 20
0.0
 30
0.0
  0
VERTEX
  5
2F3
330
2F2
100
AcDbEntity
  8
_____1
 62
     7
100
AcDbVertex
100
AcDb2dVertex
 10
92.94908201958215
 20
140.8607455591069
 30
0.0
  0
VERTEX
  5
2F4
330
2F2
100
AcDbEntity
  8
_____1
 62
     7
100
AcDbVertex
100
AcDb2dVertex
 10
95.16703595615789
 20
138.6341788781363
 30
0.0
  0
SEQEND
  5
2F5
330
2F2
100
AcDbEntity
  8
_____1
  0
POLYLINE
  5
2F6
330
3C
100
AcDbEntity
  8
_____1
 62
     7
100
AcDb2dPolyline
 66
     1
 10
0.0
 20
0.0
 30
0.0
  0
VERTEX
  5
2F7
330
2F6
100
AcDbEntity
  8
_____1
 62
     7
100
AcDbVertex
100
AcDb2dVertex
 10
95.58906043150819
 20
141.2834590540088
 30
0.0
  0
VERTEX
  5
2F8
330
2F6
100
AcDbEntity
  8
_____1
 62
     7
100
AcDbVertex
100
AcDb2dVertex
 10
92.52809107355924
 20
138.2097428343554
 30
0.0
  0
SEQEND
  5
2F9
330
2F6
100
AcDbEntity
  8
_____1
  0
POLYLINE
  5
2FA
330
3C
100
AcDbEntity
  8
_____1
 62
     7
100
AcDb2dPolyline
 66
     1
 10
0.0
 20
0.0
 30
0.0
  0
VERTEX
  5
2FB
330
2FA
100
AcDbEntity
  8
_____1
 62
     7
100
AcDbVertex
100
AcDb2dVertex
 10
93.64792009978469
 20
134.2010270831912
 30
0.0
  0
VERTEX
  5
2FC
330
2FA
100
AcDbEntity
  8
_____1
 62
     7
100
AcDbVertex
100
AcDb2dVertex
 10
93.64792009978469
 20
135.4750242340854
 30
0.0
  0
SEQEND
  5
2FD
330
2FA
100
AcDbEntity
  8
_____1
  0
POLYLINE
  5
2FE
330
3C
100
AcDbEntity
  8
_____1
 62
     7
100
AcDb2dPolyline
 66
     1
 10
0.0
 20
0.0
 30
0.0
  0
VERTEX
  5
2FF
330
2FE
100
AcDbEntity
  8
_____1
 62
     7
100
AcDbVertex
100
AcDb2dVertex
 10
94.46854238573116
 20
134.2010270831912
 30
0.0
  0
VERTEX
  5
300
330
2FE
100
AcDbEntity
  8
_____1
 62
     7
100
AcDbVertex
100
AcDb2dVertex
 10
94.46854238573116
 20
135.4750242340854
 30
0.0
  0
SEQEND
  5
301
330
2FE
100
AcDbEntity
  8
_____1
  0
POLYLINE
  5
302
330
3C
100
AcDbEntity
  8
_____1
 62
     7
100
AcDb2dPolyline
 66
     1
 10
0.0
 20
0.0
 30
0.0
  0
VERTEX
  5
303
330
302
100
AcDbEntity
  8
_____1
 62
     7
100
AcDbVertex
100
AcDb2dVertex
 10
83.22270977441681
 20
134.1266129716192
 30
0.0
  0
VERTEX
  5
304
330
302
100
AcDbEntity
  8
_____1
 62
     7
100
AcDbVertex
100
AcDb2dVertex
 10
89.56754631525486
 20
134.1266129716192
 30
0.0
  0
VERTEX
  5
305
330
302
100
AcDbEntity
  8
_____1
 62
     7
100
AcDbVertex
100
AcDb2dVertex
 10
89.56754631525486
 20
144.0205892227094
 30
0.0
  0
VERTEX
  5
306
330
302
100
AcDbEntity
  8
_____1
 62
     7
100
AcDbVertex
100
AcDb2dVertex
 10
83.22270977441681
 20
144.0205892227094
 30
0.0
  0
VERTEX
  5
307
330
302
100
AcDbEntity
  8
_____1
 62
     7
100
AcDbVertex
100
AcDb2dVertex
 10
83.22270977441681
 20
134.1266129716192
 30
0.0
  0
SEQEND
  5
308
330
302
100
AcDbEntity
  8
_____1
  0
POLYLINE
  5
309
330
3C
100
AcDbEntity
  8
_____1
 62
     7
100
AcDb2dPolyline
 66
     1
 10
0.0
 20
0.0
 30
0.0
  0
VERTEX
  5
30A
330
309
100
AcDbEntity
  8
_____1
 62
     7
100
AcDbVertex
100
AcDb2dVertex
 10
83.22270977441681
 20
142.6711444309158
 30
0.0
  0
VERTEX
  5
30B
330
309
100
AcDbEntity
  8
_____1
 62
     7
100
AcDbVertex
100
AcDb2dVertex
 10
89.56754631525486
 20
142.6711444309158
 30
0.0
  0
SEQEND
  5
30C
330
309
100
AcDbEntity
  8
_____1
  0
POLYLINE
  5
30D
330
3C
100
AcDbEntity
  8
_____1
 62
     7
100
AcDb2dPolyline
 66
     1
 10
0.0
 20
0.0
 30
0.0
  0
VERTEX
  5
30E
330
30D
100
AcDbEntity
  8
_____1
 62
     7
100
AcDbVertex
100
AcDb2dVertex
 10
88.57794198428036
 20
142.6697663918126
 30
0.0
  0
VERTEX
  5
30F
330
30D
100
AcDbEntity
  8
_____1
 62
     7
100
AcDbVertex
100
AcDb2dVertex
 10
88.57794198428036
 20
143.5692814164164
 30
0.0
  0
VERTEX
  5
310
330
30D
100
AcDbEntity
  8
_____1
 62
     7
100
AcDbVertex
100
AcDb2dVertex
 10
84.21214185050341
 20
143.5692814164164
 30
0.0
  0
VERTEX
  5
311
330
30D
100
AcDbEntity
  8
_____1
 62
     7
100
AcDbVertex
100
AcDb2dVertex
 10
84.21214185050341
 20
142.745214032712
 30
0.0
  0
SEQEND
  5
312
330
30D
100
AcDbEntity
  8
_____1
  0
POLYLINE
  5
313
330
3C
100
AcDbEntity
  8
_____1
 62
     7
100
AcDb2dPolyline
 66
     1
 10
0.0
 20
0.0
 30
0.0
  0
VERTEX
  5
314
330
313
100
AcDbEntity
  8
_____1
 62
     7
100
AcDbVertex
100
AcDb2dVertex
 10
89.56754631525486
 20
135.4750242340854
 30
0.0
  0
VERTEX
  5
315
330
313
100
AcDbEntity
  8
_____1
 62
     7
100
AcDbVertex
100
AcDb2dVertex
 10
83.22270977441681
 20
135.4750242340854
 30
0.0
  0
SEQEND
  5
316
330
313
100
AcDbEntity
  8
_____1
  0
POLYLINE
  5
317
330
3C
100
AcDbEntity
  8
_____1
 62
     7
100
AcDb2dPolyline
 66
     1
 10
0.0
 20
0.0
 30
0.0
  0
VERTEX
  5
318
330
317
100
AcDbEntity
  8
_____1
 62
     7
100
AcDbVertex
100
AcDb2dVertex
 10
89.56754631525486
 20
136.8248135356548
 30
0.0
  0
VERTEX
  5
319
330
317
100
AcDbEntity
  8
_____1
 62
     7
100
AcDbVertex
100
AcDb2dVertex
 10
83.22270977441681
 20
136.8248135356548
 30
0.0
  0
SEQEND
  5
31A
330
317
100
AcDbEntity
  8
_____1
  0
POLYLINE
  5
31B
330
3C
100
AcDbEntity
  8
_____1
 62
     7
100
AcDb2dPolyline
 66
     1
 10
0.0
 20
0.0
 30
0.0
  0
VERTEX
  5
31C
330
31B
100
AcDbEntity
  8
_____1
 62
     7
100
AcDbVertex
100
AcDb2dVertex
 10
84.21214185050341
 20
136.8248135356548
 30
0.0
  0
VERTEX
  5
31D
330
31B
100
AcDbEntity
  8
_____1
 62
     7
100
AcDbVertex
100
AcDb2dVertex
 10
84.21214185050341
 20
136.2822106387759
 30
0.0
  0
VERTEX
  5
31E
330
31B
100
AcDbEntity
  8
_____1
 62
     7
100
AcDbVertex
100
AcDb2dVertex
 10
88.57794198428036
 20
136.2822106387759
 30
0.0
  0
VERTEX
  5
31F
330
31B
100
AcDbEntity
  8
_____1
 62
     7
100
AcDbVertex
100
AcDb2dVertex
 10
88.57794198428036
 20
136.7500549143071
 30
0.0
  0
SEQEND
  5
320
330
31B
100
AcDbEntity
  8
_____1
  0
SPLINE
  5
321
330
3C
100
AcDbEntity
  8
_____1
 62
     7
100
AcDbSpline
210
0.0
220
0.0
230
1.0
 70
    11
 71
     3
 72
    23
 73
    19
 74
     0
 42
0.0000000001
 43
0.0000000001
 40
0.0
 40
0.0
 40
0.0
 40
0.0
 40
1.0
 40
1.0
 40
1.0
 40
2.0
 40
2.0
 40
2.0
 40
3.0
 40
3.0
 40
3.0
 40
4.0
 40
4.0
 40
4.0
 40
5.0
 40
5.0
 40
5.0
 40
6.0
 40
6.0
 40
6.0
 40
6.0
 10
89.26885633963958
 20
139.7472899637337
 30
0.0
 10
89.26885633963958
 20
141.3616627731146
 30
0.0
 10
87.96540360291478
 20
142.6704554113642
 30
0.0
 10
86.35757647927406
 20
142.6704554113642
 30
0.0
 10
84.74974935563333
 20
142.6704554113642
 30
0.0
 10
83.44629661890853
 20
141.3616627731146
 30
0.0
 10
83.44629661890853
 20
139.7472899637337
 30
0.0
 10
83.44629661890853
 20
138.1329171543529
 30
0.0
 10
84.74974935563333
 20
136.824469025879
 30
0.0
 10
86.35757647927406
 20
136.824469025879
 30
0.0
 10
87.96540360291478
 20
136.824469025879
 30
0.0
 10
89.26885633963958
 20
138.1329171543529
 30
0.0
 10
89.26885633963958
 20
139.7472899637337
 30
0.0
 10
89.26885633963958
 20
139.7472899637337
 30
0.0
 10
89.26885633963958
 20
139.7472899637337
 30
0.0
 10
89.26885633963958
 20
139.7472899637337
 30
0.0
 10
89.26885633963958
 20
139.7472899637337
 30
0.0
 10
89.26885633963958
 20
139.7472899637337
 30
0.0
 10
89.26885633963958
 20
139.7472899637337
 30
0.0
  0
POLYLINE
  5
322
330
3C
100
AcDbEntity
  8
_____1
 62
     7
100
AcDb2dPolyline
 66
     1
 10
0.0
 20
0.0
 30
0.0
  0
VERTEX
  5
323
330
322
100
AcDbEntity
  8
_____1
 62
     7
100
AcDbVertex
100
AcDb2dVertex
 10
85.13680608874033
 20
140.8607455591069
 30
0.0
  0
VERTEX
  5
324
330
322
100
AcDbEntity
  8
_____1
 62
     7
100
AcDbVertex
100
AcDb2dVertex
 10
87.35338198621288
 20
138.6341788781363
 30
0.0
  0
SEQEND
  5
325
330
322
100
AcDbEntity
  8
_____1
  0
POLYLINE
  5
326
330
3C
100
AcDbEntity
  8
_____1
 62
     7
100
AcDb2dPolyline
 66
     1
 10
0.0
 20
0.0
 30
0.0
  0
VERTEX
  5
327
330
326
100
AcDbEntity
  8
_____1
 62
     7
100
AcDbVertex
100
AcDb2dVertex
 10
87.77609548111478
 20
141.2834590540088
 30
0.0
  0
VERTEX
  5
328
330
326
100
AcDbEntity
  8
_____1
 62
     7
100
AcDbVertex
100
AcDb2dVertex
 10
84.71460935850212
 20
138.2097428343554
 30
0.0
  0
SEQEND
  5
329
330
326
100
AcDbEntity
  8
_____1
  0
POLYLINE
  5
32A
330
3C
100
AcDbEntity
  8
_____1
 62
     7
100
AcDb2dPolyline
 66
     1
 10
0.0
 20
0.0
 30
0.0
  0
VERTEX
  5
32B
330
32A
100
AcDbEntity
  8
_____1
 62
     7
100
AcDbVertex
100
AcDb2dVertex
 10
85.83495514939126
 20
134.2010270831912
 30
0.0
  0
VERTEX
  5
32C
330
32A
100
AcDbEntity
  8
_____1
 62
     7
100
AcDbVertex
100
AcDb2dVertex
 10
85.83495514939126
 20
135.4750242340854
 30
0.0
  0
SEQEND
  5
32D
330
32A
100
AcDbEntity
  8
_____1
  0
POLYLINE
  5
32E
330
3C
100
AcDbEntity
  8
_____1
 62
     7
100
AcDb2dPolyline
 66
     1
 10
0.0
 20
0.0
 30
0.0
  0
VERTEX
  5
32F
330
32E
100
AcDbEntity
  8
_____1
 62
     7
100
AcDbVertex
100
AcDb2dVertex
 10
86.65592194511353
 20
134.2010270831912
 30
0.0
  0
VERTEX
  5
330
330
32E
100
AcDbEntity
  8
_____1
 62
     7
100
AcDbVertex
100
AcDb2dVertex
 10
86.65592194511353
 20
135.4750242340854
 30
0.0
  0
SEQEND
  5
331
330
32E
100
AcDbEntity
  8
_____1
  0
POLYLINE
  5
332
330
3C
100
AcDbEntity
  8
_____1
 62
     7
100
AcDb2dPolyline
 66
     1
 10
0.0
 20
0.0
 30
0.0
  0
VERTEX
  5
333
330
332
100
AcDbEntity
  8
_____1
 62
     7
100
AcDbVertex
100
AcDb2dVertex
 10
75.41043384357499
 20
134.1266129716192
 30
0.0
  0
VERTEX
  5
334
330
332
100
AcDbEntity
  8
_____1
 62
     7
100
AcDbVertex
100
AcDb2dVertex
 10
81.75458136486144
 20
134.1266129716192
 30
0.0
  0
VERTEX
  5
335
330
332
100
AcDbEntity
  8
_____1
 62
     7
100
AcDbVertex
100
AcDb2dVertex
 10
81.75458136486144
 20
144.0205892227094
 30
0.0
  0
VERTEX
  5
336
330
332
100
AcDbEntity
  8
_____1
 62
     7
100
AcDbVertex
100
AcDb2dVertex
 10
75.41043384357499
 20
144.0205892227094
 30
0.0
  0
VERTEX
  5
337
330
332
100
AcDbEntity
  8
_____1
 62
     7
100
AcDbVertex
100
AcDb2dVertex
 10
75.41043384357499
 20
134.1266129716192
 30
0.0
  0
SEQEND
  5
338
330
332
100
AcDbEntity
  8
_____1
  0
POLYLINE
  5
339
330
3C
100
AcDbEntity
  8
_____1
 62
     7
100
AcDb2dPolyline
 66
     1
 10
0.0
 20
0.0
 30
0.0
  0
VERTEX
  5
33A
330
339
100
AcDbEntity
  8
_____1
 62
     7
100
AcDbVertex
100
AcDb2dVertex
 10
75.41043384357499
 20
142.6711444309158
 30
0.0
  0
VERTEX
  5
33B
330
339
100
AcDbEntity
  8
_____1
 62
     7
100
AcDbVertex
100
AcDb2dVertex
 10
81.75458136486144
 20
142.6711444309158
 30
0.0
  0
SEQEND
  5
33C
330
339
100
AcDbEntity
  8
_____1
  0
POLYLINE
  5
33D
330
3C
100
AcDbEntity
  8
_____1
 62
     7
100
AcDb2dPolyline
 66
     1
 10
0.0
 20
0.0
 30
0.0
  0
VERTEX
  5
33E
330
33D
100
AcDbEntity
  8
_____1
 62
     7
100
AcDbVertex
100
AcDb2dVertex
 10
80.76566605343854
 20
142.6697663918126
 30
0.0
  0
VERTEX
  5
33F
330
33D
100
AcDbEntity
  8
_____1
 62
     7
100
AcDbVertex
100
AcDb2dVertex
 10
80.76566605343854
 20
143.5692814164164
 30
0.0
  0
VERTEX
  5
340
330
33D
100
AcDbEntity
  8
_____1
 62
     7
100
AcDbVertex
100
AcDb2dVertex
 10
76.39934915499789
 20
143.5692814164164
 30
0.0
  0
VERTEX
  5
341
330
33D
100
AcDbEntity
  8
_____1
 62
     7
100
AcDbVertex
100
AcDb2dVertex
 10
76.39934915499789
 20
142.745214032712
 30
0.0
  0
SEQEND
  5
342
330
33D
100
AcDbEntity
  8
_____1
  0
POLYLINE
  5
343
330
3C
100
AcDbEntity
  8
_____1
 62
     7
100
AcDb2dPolyline
 66
     1
 10
0.0
 20
0.0
 30
0.0
  0
VERTEX
  5
344
330
343
100
AcDbEntity
  8
_____1
 62
     7
100
AcDbVertex
100
AcDb2dVertex
 10
81.75458136486144
 20
135.4750242340854
 30
0.0
  0
VERTEX
  5
345
330
343
100
AcDbEntity
  8
_____1
 62
     7
100
AcDbVertex
100
AcDb2dVertex
 10
75.41043384357499
 20
135.4750242340854
 30
0.0
  0
SEQEND
  5
346
330
343
100
AcDbEntity
  8
_____1
  0
POLYLINE
  5
347
330
3C
100
AcDbEntity
  8
_____1
 62
     7
100
AcDb2dPolyline
 66
     1
 10
0.0
 20
0.0
 30
0.0
  0
VERTEX
  5
348
330
347
100
AcDbEntity
  8
_____1
 62
     7
100
AcDbVertex
100
AcDb2dVertex
 10
81.75458136486144
 20
136.8248135356548
 30
0.0
  0
VERTEX
  5
349
330
347
100
AcDbEntity
  8
_____1
 62
     7
100
AcDbVertex
100
AcDb2dVertex
 10
75.41043384357499
 20
136.8248135356548
 30
0.0
  0
SEQEND
  5
34A
330
347
100
AcDbEntity
  8
_____1
  0
POLYLINE
  5
34B
330
3C
100
AcDbEntity
  8
_____1
 62
     7
100
AcDb2dPolyline
 66
     1
 10
0.0
 20
0.0
 30
0.0
  0
VERTEX
  5
34C
330
34B
100
AcDbEntity
  8
_____1
 62
     7
100
AcDbVertex
100
AcDb2dVertex
 10
76.39934915499789
 20
136.8248135356548
 30
0.0
  0
VERTEX
  5
34D
330
34B
100
AcDbEntity
  8
_____1
 62
     7
100
AcDbVertex
100
AcDb2dVertex
 10
76.39934915499789
 20
136.2822106387759
 30
0.0
  0
VERTEX
  5
34E
330
34B
100
AcDbEntity
  8
_____1
 62
     7
100
AcDbVertex
100
AcDb2dVertex
 10
80.76566605343854
 20
136.2822106387759
 30
0.0
  0
VERTEX
  5
34F
330
34B
100
AcDbEntity
  8
_____1
 62
     7
100
AcDbVertex
100
AcDb2dVertex
 10
80.76566605343854
 20
136.7500549143071
 30
0.0
  0
SEQEND
  5
350
330
34B
100
AcDbEntity
  8
_____1
  0
SPLINE
  5
351
330
3C
100
AcDbEntity
  8
_____1
 62
     7
100
AcDbSpline
210
0.0
220
0.0
230
1.0
 70
    11
 71
     3
 72
    23
 73
    19
 74
     0
 42
0.0000000001
 43
0.0000000001
 40
0.0
 40
0.0
 40
0.0
 40
0.0
 40
1.0
 40
1.0
 40
1.0
 40
2.0
 40
2.0
 40
2.0
 40
3.0
 40
3.0
 40
3.0
 40
4.0
 40
4.0
 40
4.0
 40
5.0
 40
5.0
 40
5.0
 40
6.0
 40
6.0
 40
6.0
 40
6.0
 10
81.45623589902196
 20
139.7472899637337
 30
0.0
 10
81.45623589902196
 20
141.3616627731146
 30
0.0
 10
80.15278316229716
 20
142.6704554113642
 30
0.0
 10
78.54512829354434
 20
142.6704554113642
 30
0.0
 10
76.93730116990361
 20
142.6704554113642
 30
0.0
 10
75.63384843317881
 20
141.3616627731146
 30
0.0
 10
75.63384843317881
 20
139.7472899637337
 30
0.0
 10
75.63384843317881
 20
138.1329171543529
 30
0.0
 10
76.93730116990361
 20
136.824469025879
 30
0.0
 10
78.54512829354434
 20
136.824469025879
 30
0.0
 10
80.15278316229716
 20
136.824469025879
 30
0.0
 10
81.45623589902196
 20
138.1329171543529
 30
0.0
 10
81.45623589902196
 20
139.7472899637337
 30
0.0
 10
81.45623589902196
 20
139.7472899637337
 30
0.0
 10
81.45623589902196
 20
139.7472899637337
 30
0.0
 10
81.45623589902196
 20
139.7472899637337
 30
0.0
 10
81.45623589902196
 20
139.7472899637337
 30
0.0
 10
81.45623589902196
 20
139.7472899637337
 30
0.0
 10
81.45623589902196
 20
139.7472899637337
 30
0.0
  0
POLYLINE
  5
352
330
3C
100
AcDbEntity
  8
_____1
 62
     7
100
AcDb2dPolyline
 66
     1
 10
0.0
 20
0.0
 30
0.0
  0
VERTEX
  5
353
330
352
100
AcDbEntity
  8
_____1
 62
     7
100
AcDbVertex
100
AcDb2dVertex
 10
77.3255636872259
 20
140.8607455591069
 30
0.0
  0
VERTEX
  5
354
330
352
100
AcDbEntity
  8
_____1
 62
     7
100
AcDbVertex
100
AcDb2dVertex
 10
79.54145056514685
 20
138.6341788781363
 30
0.0
  0
SEQEND
  5
355
330
352
100
AcDbEntity
  8
_____1
  0
POLYLINE
  5
356
330
3C
100
AcDbEntity
  8
_____1
 62
     7
100
AcDb2dPolyline
 66
     1
 10
0.0
 20
0.0
 30
0.0
  0
VERTEX
  5
357
330
356
100
AcDbEntity
  8
_____1
 62
     7
100
AcDbVertex
100
AcDb2dVertex
 10
79.96381955027296
 20
141.2834590540088
 30
0.0
  0
VERTEX
  5
358
330
356
100
AcDbEntity
  8
_____1
 62
     7
100
AcDbVertex
100
AcDb2dVertex
 10
76.90216117277241
 20
138.2097428343554
 30
0.0
  0
SEQEND
  5
359
330
356
100
AcDbEntity
  8
_____1
  0
POLYLINE
  5
35A
330
3C
100
AcDbEntity
  8
_____1
 62
     7
100
AcDb2dPolyline
 66
     1
 10
0.0
 20
0.0
 30
0.0
  0
VERTEX
  5
35B
330
35A
100
AcDbEntity
  8
_____1
 62
     7
100
AcDbVertex
100
AcDb2dVertex
 10
78.02302372832524
 20
134.2010270831912
 30
0.0
  0
VERTEX
  5
35C
330
35A
100
AcDbEntity
  8
_____1
 62
     7
100
AcDbVertex
100
AcDb2dVertex
 10
78.02302372832524
 20
135.4750242340854
 30
0.0
  0
SEQEND
  5
35D
330
35A
100
AcDbEntity
  8
_____1
  0
POLYLINE
  5
35E
330
3C
100
AcDbEntity
  8
_____1
 62
     7
100
AcDb2dPolyline
 66
     1
 10
0.0
 20
0.0
 30
0.0
  0
VERTEX
  5
35F
330
35E
100
AcDbEntity
  8
_____1
 62
     7
100
AcDbVertex
100
AcDb2dVertex
 10
78.84399052404751
 20
134.2010270831912
 30
0.0
  0
VERTEX
  5
360
330
35E
100
AcDbEntity
  8
_____1
 62
     7
100
AcDbVertex
100
AcDb2dVertex
 10
78.84399052404751
 20
135.4750242340854
 30
0.0
  0
SEQEND
  5
361
330
35E
100
AcDbEntity
  8
_____1
  0
POLYLINE
  5
362
330
3C
100
AcDbEntity
  8
_____1
 62
     7
100
AcDb2dPolyline
 66
     1
 10
0.0
 20
0.0
 30
0.0
  0
VERTEX
  5
363
330
362
100
AcDbEntity
  8
_____1
 62
     7
100
AcDbVertex
100
AcDb2dVertex
 10
67.59712438340578
 20
134.1266129716192
 30
0.0
  0
VERTEX
  5
364
330
362
100
AcDbEntity
  8
_____1
 62
     7
100
AcDbVertex
100
AcDb2dVertex
 10
73.94213317913172
 20
134.1266129716192
 30
0.0
  0
VERTEX
  5
365
330
362
100
AcDbEntity
  8
_____1
 62
     7
100
AcDbVertex
100
AcDb2dVertex
 10
73.94213317913172
 20
144.0205892227094
 30
0.0
  0
VERTEX
  5
366
330
362
100
AcDbEntity
  8
_____1
 62
     7
100
AcDbVertex
100
AcDb2dVertex
 10
67.59712438340578
 20
144.0205892227094
 30
0.0
  0
VERTEX
  5
367
330
362
100
AcDbEntity
  8
_____1
 62
     7
100
AcDbVertex
100
AcDb2dVertex
 10
67.59712438340578
 20
134.1266129716192
 30
0.0
  0
SEQEND
  5
368
330
362
100
AcDbEntity
  8
_____1
  0
POLYLINE
  5
369
330
3C
100
AcDbEntity
  8
_____1
 62
     7
100
AcDb2dPolyline
 66
     1
 10
0.0
 20
0.0
 30
0.0
  0
VERTEX
  5
36A
330
369
100
AcDbEntity
  8
_____1
 62
     7
100
AcDbVertex
100
AcDb2dVertex
 10
67.59712438340578
 20
142.6711444309158
 30
0.0
  0
VERTEX
  5
36B
330
369
100
AcDbEntity
  8
_____1
 62
     7
100
AcDbVertex
100
AcDb2dVertex
 10
73.94178866935593
 20
142.6711444309158
 30
0.0
  0
SEQEND
  5
36C
330
369
100
AcDbEntity
  8
_____1
  0
POLYLINE
  5
36D
330
3C
100
AcDbEntity
  8
_____1
 62
     7
100
AcDb2dPolyline
 66
     1
 10
0.0
 20
0.0
 30
0.0
  0
VERTEX
  5
36E
330
36D
100
AcDbEntity
  8
_____1
 62
     7
100
AcDbVertex
100
AcDb2dVertex
 10
72.95373463237252
 20
142.6697663918126
 30
0.0
  0
VERTEX
  5
36F
330
36D
100
AcDbEntity
  8
_____1
 62
     7
100
AcDbVertex
100
AcDb2dVertex
 10
72.95373463237252
 20
143.5692814164164
 30
0.0
  0
VERTEX
  5
370
330
36D
100
AcDbEntity
  8
_____1
 62
     7
100
AcDbVertex
100
AcDb2dVertex
 10
68.58638420460449
 20
143.5692814164164
 30
0.0
  0
VERTEX
  5
371
330
36D
100
AcDbEntity
  8
_____1
 62
     7
100
AcDbVertex
100
AcDb2dVertex
 10
68.58638420460449
 20
142.745214032712
 30
0.0
  0
SEQEND
  5
372
330
36D
100
AcDbEntity
  8
_____1
  0
POLYLINE
  5
373
330
3C
100
AcDbEntity
  8
_____1
 62
     7
100
AcDb2dPolyline
 66
     1
 10
0.0
 20
0.0
 30
0.0
  0
VERTEX
  5
374
330
373
100
AcDbEntity
  8
_____1
 62
     7
100
AcDbVertex
100
AcDb2dVertex
 10
73.94178866935593
 20
135.4750242340854
 30
0.0
  0
VERTEX
  5
375
330
373
100
AcDbEntity
  8
_____1
 62
     7
100
AcDbVertex
100
AcDb2dVertex
 10
67.59712438340578
 20
135.4750242340854
 30
0.0
  0
SEQEND
  5
376
330
373
100
AcDbEntity
  8
_____1
  0
POLYLINE
  5
377
330
3C
100
AcDbEntity
  8
_____1
 62
     7
100
AcDb2dPolyline
 66
     1
 10
0.0
 20
0.0
 30
0.0
  0
VERTEX
  5
378
330
377
100
AcDbEntity
  8
_____1
 62
     7
100
AcDbVertex
100
AcDb2dVertex
 10
73.94178866935593
 20
136.8248135356548
 30
0.0
  0
VERTEX
  5
379
330
377
100
AcDbEntity
  8
_____1
 62
     7
100
AcDbVertex
100
AcDb2dVertex
 10
67.59712438340578
 20
136.8248135356548
 30
0.0
  0
SEQEND
  5
37A
330
377
100
AcDbEntity
  8
_____1
  0
POLYLINE
  5
37B
330
3C
100
AcDbEntity
  8
_____1
 62
     7
100
AcDb2dPolyline
 66
     1
 10
0.0
 20
0.0
 30
0.0
  0
VERTEX
  5
37C
330
37B
100
AcDbEntity
  8
_____1
 62
     7
100
AcDbVertex
100
AcDb2dVertex
 10
68.58638420460449
 20
136.8248135356548
 30
0.0
  0
VERTEX
  5
37D
330
37B
100
AcDbEntity
  8
_____1
 62
     7
100
AcDbVertex
100
AcDb2dVertex
 10
68.58638420460449
 20
136.2822106387759
 30
0.0
  0
VERTEX
  5
37E
330
37B
100
AcDbEntity
  8
_____1
 62
     7
100
AcDbVertex
100
AcDb2dVertex
 10
72.95373463237252
 20
136.2822106387759
 30
0.0
  0
VERTEX
  5
37F
330
37B
100
AcDbEntity
  8
_____1
 62
     7
100
AcDbVertex
100
AcDb2dVertex
 10
72.95373463237252
 20
136.7500549143071
 30
0.0
  0
SEQEND
  5
380
330
37B
100
AcDbEntity
  8
_____1
  0
SPLINE
  5
381
330
3C
100
AcDbEntity
  8
_____1
 62
     7
100
AcDbSpline
210
0.0
220
0.0
230
1.0
 70
    11
 71
     3
 72
    23
 73
    19
 74
     0
 42
0.0000000001
 43
0.0000000001
 40
0.0
 40
0.0
 40
0.0
 40
0.0
 40
1.0
 40
1.0
 40
1.0
 40
2.0
 40
2.0
 40
2.0
 40
3.0
 40
3.0
 40
3.0
 40
4.0
 40
4.0
 40
4.0
 40
5.0
 40
5.0
 40
5.0
 40
6.0
 40
6.0
 40
6.0
 40
6.0
 10
73.64327094862854
 20
139.7472899637337
 30
0.0
 10
73.64327094862854
 20
141.3613182633388
 30
0.0
 10
72.34033497656743
 20
142.6694218820368
 30
0.0
 10
70.7330246175904
 20
142.6694218820368
 30
0.0
 10
69.12571425861339
 20
142.6694218820368
 30
0.0
 10
67.82260603166438
 20
141.3613182633388
 30
0.0
 10
67.82260603166438
 20
139.7472899637337
 30
0.0
 10
67.82260603166438
 20
138.1336061739045
 30
0.0
 10
69.12571425861339
 20
136.8255025552064
 30
0.0
 10
70.7330246175904
 20
136.8255025552064
 30
0.0
 10
72.34033497656743
 20
136.8255025552064
 30
0.0
 10
73.64327094862854
 20
138.1336061739045
 30
0.0
 10
73.64327094862854
 20
139.7472899637337
 30
0.0
 10
73.64327094862854
 20
139.7472899637337
 30
0.0
 10
73.64327094862854
 20
139.7472899637337
 30
0.0
 10
73.64327094862854
 20
139.7472899637337
 30
0.0
 10
73.64327094862854
 20
139.7472899637337
 30
0.0
 10
73.64327094862854
 20
139.7472899637337
 30
0.0
 10
73.64327094862854
 20
139.7472899637337
 30
0.0
  0
POLYLINE
  5
382
330
3C
100
AcDbEntity
  8
_____1
 62
     7
100
AcDb2dPolyline
 66
     1
 10
0.0
 20
0.0
 30
0.0
  0
VERTEX
  5
383
330
382
100
AcDbEntity
  8
_____1
 62
     7
100
AcDbVertex
100
AcDb2dVertex
 10
69.51259873683247
 20
140.8607455591069
 30
0.0
  0
VERTEX
  5
384
330
382
100
AcDbEntity
  8
_____1
 62
     7
100
AcDbVertex
100
AcDb2dVertex
 10
71.72934688919293
 20
138.6341788781363
 30
0.0
  0
SEQEND
  5
385
330
382
100
AcDbEntity
  8
_____1
  0
POLYLINE
  5
386
330
3C
100
AcDbEntity
  8
_____1
 62
     7
100
AcDb2dPolyline
 66
     1
 10
0.0
 20
0.0
 30
0.0
  0
VERTEX
  5
387
330
386
100
AcDbEntity
  8
_____1
 62
     7
100
AcDbVertex
100
AcDb2dVertex
 10
72.15085459987954
 20
141.2834590540088
 30
0.0
  0
VERTEX
  5
388
330
386
100
AcDbEntity
  8
_____1
 62
     7
100
AcDbVertex
100
AcDb2dVertex
 10
69.09022975170637
 20
138.2097428343554
 30
0.0
  0
SEQEND
  5
389
330
386
100
AcDbEntity
  8
_____1
  0
POLYLINE
  5
38A
330
3C
100
AcDbEntity
  8
_____1
 62
     7
100
AcDb2dPolyline
 66
     1
 10
0.0
 20
0.0
 30
0.0
  0
VERTEX
  5
38B
330
38A
100
AcDbEntity
  8
_____1
 62
     7
100
AcDbVertex
100
AcDb2dVertex
 10
70.21074779748342
 20
134.2010270831912
 30
0.0
  0
VERTEX
  5
38C
330
38A
100
AcDbEntity
  8
_____1
 62
     7
100
AcDbVertex
100
AcDb2dVertex
 10
70.21074779748342
 20
135.4750242340854
 30
0.0
  0
SEQEND
  5
38D
330
38A
100
AcDbEntity
  8
_____1
  0
POLYLINE
  5
38E
330
3C
100
AcDbEntity
  8
_____1
 62
     7
100
AcDb2dPolyline
 66
     1
 10
0.0
 20
0.0
 30
0.0
  0
VERTEX
  5
38F
330
38E
100
AcDbEntity
  8
_____1
 62
     7
100
AcDbVertex
100
AcDb2dVertex
 10
71.03102557365409
 20
134.2010270831912
 30
0.0
  0
VERTEX
  5
390
330
38E
100
AcDbEntity
  8
_____1
 62
     7
100
AcDbVertex
100
AcDb2dVertex
 10
71.03102557365409
 20
135.4750242340854
 30
0.0
  0
SEQEND
  5
391
330
38E
100
AcDbEntity
  8
_____1
  0
POLYLINE
  5
392
330
3C
100
AcDbEntity
  8
_____1
 62
     7
100
AcDb2dPolyline
 66
     1
 10
0.0
 20
0.0
 30
0.0
  0
VERTEX
  5
393
330
392
100
AcDbEntity
  8
_____1
 62
     7
100
AcDbVertex
100
AcDb2dVertex
 10
59.78484845256396
 20
134.1266129716192
 30
0.0
  0
VERTEX
  5
394
330
392
100
AcDbEntity
  8
_____1
 62
     7
100
AcDbVertex
100
AcDb2dVertex
 10
66.1298572482899
 20
134.1266129716192
 30
0.0
  0
VERTEX
  5
395
330
392
100
AcDbEntity
  8
_____1
 62
     7
100
AcDbVertex
100
AcDb2dVertex
 10
66.1298572482899
 20
144.0205892227094
 30
0.0
  0
VERTEX
  5
396
330
392
100
AcDbEntity
  8
_____1
 62
     7
100
AcDbVertex
100
AcDb2dVertex
 10
59.78484845256396
 20
144.0205892227094
 30
0.0
  0
VERTEX
  5
397
330
392
100
AcDbEntity
  8
_____1
 62
     7
100
AcDbVertex
100
AcDb2dVertex
 10
59.78484845256396
 20
134.1266129716192
 30
0.0
  0
SEQEND
  5
398
330
392
100
AcDbEntity
  8
_____1
  0
POLYLINE
  5
399
330
3C
100
AcDbEntity
  8
_____1
 62
     7
100
AcDb2dPolyline
 66
     1
 10
0.0
 20
0.0
 30
0.0
  0
VERTEX
  5
39A
330
399
100
AcDbEntity
  8
_____1
 62
     7
100
AcDbVertex
100
AcDb2dVertex
 10
59.78484845256396
 20
142.6711444309158
 30
0.0
  0
VERTEX
  5
39B
330
399
100
AcDbEntity
  8
_____1
 62
     7
100
AcDbVertex
100
AcDb2dVertex
 10
66.1303740129536
 20
142.6711444309158
 30
0.0
  0
SEQEND
  5
39C
330
399
100
AcDbEntity
  8
_____1
  0
POLYLINE
  5
39D
330
3C
100
AcDbEntity
  8
_____1
 62
     7
100
AcDb2dPolyline
 66
     1
 10
0.0
 20
0.0
 30
0.0
  0
VERTEX
  5
39E
330
39D
100
AcDbEntity
  8
_____1
 62
     7
100
AcDbVertex
100
AcDb2dVertex
 10
65.14076968197909
 20
142.6697663918126
 30
0.0
  0
VERTEX
  5
39F
330
39D
100
AcDbEntity
  8
_____1
 62
     7
100
AcDbVertex
100
AcDb2dVertex
 10
65.14076968197909
 20
143.5692814164164
 30
0.0
  0
VERTEX
  5
3A0
330
39D
100
AcDbEntity
  8
_____1
 62
     7
100
AcDbVertex
100
AcDb2dVertex
 10
60.77445278353845
 20
143.5692814164164
 30
0.0
  0
VERTEX
  5
3A1
330
39D
100
AcDbEntity
  8
_____1
 62
     7
100
AcDbVertex
100
AcDb2dVertex
 10
60.77445278353845
 20
142.745214032712
 30
0.0
  0
SEQEND
  5
3A2
330
39D
100
AcDbEntity
  8
_____1
  0
POLYLINE
  5
3A3
330
3C
100
AcDbEntity
  8
_____1
 62
     7
100
AcDb2dPolyline
 66
     1
 10
0.0
 20
0.0
 30
0.0
  0
VERTEX
  5
3A4
330
3A3
100
AcDbEntity
  8
_____1
 62
     7
100
AcDbVertex
100
AcDb2dVertex
 10
66.1303740129536
 20
135.4750242340854
 30
0.0
  0
VERTEX
  5
3A5
330
3A3
100
AcDbEntity
  8
_____1
 62
     7
100
AcDbVertex
100
AcDb2dVertex
 10
59.78484845256396
 20
135.4750242340854
 30
0.0
  0
SEQEND
  5
3A6
330
3A3
100
AcDbEntity
  8
_____1
  0
POLYLINE
  5
3A7
330
3C
100
AcDbEntity
  8
_____1
 62
     7
100
AcDb2dPolyline
 66
     1
 10
0.0
 20
0.0
 30
0.0
  0
VERTEX
  5
3A8
330
3A7
100
AcDbEntity
  8
_____1
 62
     7
100
AcDbVertex
100
AcDb2dVertex
 10
66.1303740129536
 20
136.8248135356548
 30
0.0
  0
VERTEX
  5
3A9
330
3A7
100
AcDbEntity
  8
_____1
 62
     7
100
AcDbVertex
100
AcDb2dVertex
 10
59.78484845256396
 20
136.8248135356548
 30
0.0
  0
SEQEND
  5
3AA
330
3A7
100
AcDbEntity
  8
_____1
  0
POLYLINE
  5
3AB
330
3C
100
AcDbEntity
  8
_____1
 62
     7
100
AcDb2dPolyline
 66
     1
 10
0.0
 20
0.0
 30
0.0
  0
VERTEX
  5
3AC
330
3AB
100
AcDbEntity
  8
_____1
 62
     7
100
AcDbVertex
100
AcDb2dVertex
 10
60.77445278353845
 20
136.8248135356548
 30
0.0
  0
VERTEX
  5
3AD
330
3AB
100
AcDbEntity
  8
_____1
 62
     7
100
AcDbVertex
100
AcDb2dVertex
 10
60.77445278353845
 20
136.2822106387759
 30
0.0
  0
VERTEX
  5
3AE
330
3AB
100
AcDbEntity
  8
_____1
 62
     7
100
AcDbVertex
100
AcDb2dVertex
 10
65.14076968197909
 20
136.2822106387759
 30
0.0
  0
VERTEX
  5
3AF
330
3AB
100
AcDbEntity
  8
_____1
 62
     7
100
AcDbVertex
100
AcDb2dVertex
 10
65.14076968197909
 20
136.7500549143071
 30
0.0
  0
SEQEND
  5
3B0
330
3AB
100
AcDbEntity
  8
_____1
  0
SPLINE
  5
3B1
330
3C
100
AcDbEntity
  8
_____1
 62
     7
100
AcDbSpline
210
0.0
220
0.0
230
1.0
 70
    11
 71
     3
 72
    23
 73
    19
 74
     0
 42
0.0000000001
 43
0.0000000001
 40
0.0
 40
0.0
 40
0.0
 40
0.0
 40
1.0
 40
1.0
 40
1.0
 40
2.0
 40
2.0
 40
2.0
 40
3.0
 40
3.0
 40
3.0
 40
4.0
 40
4.0
 40
4.0
 40
5.0
 40
5.0
 40
5.0
 40
6.0
 40
6.0
 40
6.0
 40
6.0
 10
65.83151178245042
 20
139.7472899637337
 30
0.0
 10
65.83151178245042
 20
141.3616627731146
 30
0.0
 10
64.52823130061351
 20
142.6701109015884
 30
0.0
 10
62.92057643186069
 20
142.6701109015884
 30
0.0
 10
61.31292156310786
 20
142.6701109015884
 30
0.0
 10
60.00964108127096
 20
141.3616627731146
 30
0.0
 10
60.00964108127096
 20
139.7472899637337
 30
0.0
 10
60.00964108127096
 20
138.1332616641287
 30
0.0
 10
61.31292156310786
 20
136.8248135356548
 30
0.0
 10
62.92057643186069
 20
136.8248135356548
 30
0.0
 10
64.52823130061351
 20
136.8248135356548
 30
0.0
 10
65.83151178245042
 20
138.1332616641287
 30
0.0
 10
65.83151178245042
 20
139.7472899637337
 30
0.0
 10
65.83151178245042
 20
139.7472899637337
 30
0.0
 10
65.83151178245042
 20
139.7472899637337
 30
0.0
 10
65.83151178245042
 20
139.7472899637337
 30
0.0
 10
65.83151178245042
 20
139.7472899637337
 30
0.0
 10
65.83151178245042
 20
139.7472899637337
 30
0.0
 10
65.83151178245042
 20
139.7472899637337
 30
0.0
  0
POLYLINE
  5
3B2
330
3C
100
AcDbEntity
  8
_____1
 62
     7
100
AcDb2dPolyline
 66
     1
 10
0.0
 20
0.0
 30
0.0
  0
VERTEX
  5
3B3
330
3B2
100
AcDbEntity
  8
_____1
 62
     7
100
AcDbVertex
100
AcDb2dVertex
 10
61.69997829621486
 20
140.8607455591069
 30
0.0
  0
VERTEX
  5
3B4
330
3B2
100
AcDbEntity
  8
_____1
 62
     7
100
AcDbVertex
100
AcDb2dVertex
 10
63.91638193879951
 20
138.6341788781363
 30
0.0
  0
SEQEND
  5
3B5
330
3B2
100
AcDbEntity
  8
_____1
  0
POLYLINE
  5
3B6
330
3C
100
AcDbEntity
  8
_____1
 62
     7
100
AcDb2dPolyline
 66
     1
 10
0.0
 20
0.0
 30
0.0
  0
VERTEX
  5
3B7
330
3B6
100
AcDbEntity
  8
_____1
 62
     7
100
AcDbVertex
100
AcDb2dVertex
 10
64.33875092392562
 20
141.2834590540088
 30
0.0
  0
VERTEX
  5
3B8
330
3B6
100
AcDbEntity
  8
_____1
 62
     7
100
AcDbVertex
100
AcDb2dVertex
 10
61.27743705620086
 20
138.2097428343554
 30
0.0
  0
SEQEND
  5
3B9
330
3B6
100
AcDbEntity
  8
_____1
  0
POLYLINE
  5
3BA
330
3C
100
AcDbEntity
  8
_____1
 62
     7
100
AcDb2dPolyline
 66
     1
 10
0.0
 20
0.0
 30
0.0
  0
VERTEX
  5
3BB
330
3BA
100
AcDbEntity
  8
_____1
 62
     7
100
AcDbVertex
100
AcDb2dVertex
 10
118.3785543553127
 20
124.2353927987354
 30
0.0
  0
VERTEX
  5
3BC
330
3BA
100
AcDbEntity
  8
_____1
 62
     7
100
AcDbVertex
100
AcDb2dVertex
 10
124.7227018765991
 20
124.2353927987354
 30
0.0
  0
VERTEX
  5
3BD
330
3BA
100
AcDbEntity
  8
_____1
 62
     7
100
AcDbVertex
100
AcDb2dVertex
 10
124.7227018765991
 20
134.1273019911708
 30
0.0
  0
VERTEX
  5
3BE
330
3BA
100
AcDbEntity
  8
_____1
 62
     7
100
AcDbVertex
100
AcDb2dVertex
 10
118.3785543553127
 20
134.1273019911708
 30
0.0
  0
VERTEX
  5
3BF
330
3BA
100
AcDbEntity
  8
_____1
 62
     7
100
AcDbVertex
100
AcDb2dVertex
 10
118.3785543553127
 20
124.2353927987354
 30
0.0
  0
SEQEND
  5
3C0
330
3BA
100
AcDbEntity
  8
_____1
  0
POLYLINE
  5
3C1
330
3C
100
AcDbEntity
  8
_____1
 62
     7
100
AcDb2dPolyline
 66
     1
 10
0.0
 20
0.0
 30
0.0
  0
VERTEX
  5
3C2
330
3C1
100
AcDbEntity
  8
_____1
 62
     7
100
AcDbVertex
100
AcDb2dVertex
 10
118.3785543553127
 20
132.778201709153
 30
0.0
  0
VERTEX
  5
3C3
330
3C1
100
AcDbEntity
  8
_____1
 62
     7
100
AcDbVertex
100
AcDb2dVertex
 10
124.7227018765991
 20
132.778201709153
 30
0.0
  0
SEQEND
  5
3C4
330
3C1
100
AcDbEntity
  8
_____1
  0
POLYLINE
  5
3C5
330
3C
100
AcDbEntity
  8
_____1
 62
     7
100
AcDb2dPolyline
 66
     1
 10
0.0
 20
0.0
 30
0.0
  0
VERTEX
  5
3C6
330
3C5
100
AcDbEntity
  8
_____1
 62
     7
100
AcDbVertex
100
AcDb2dVertex
 10
123.7336143102883
 20
132.778201709153
 30
0.0
  0
VERTEX
  5
3C7
330
3C5
100
AcDbEntity
  8
_____1
 62
     7
100
AcDbVertex
100
AcDb2dVertex
 10
123.7336143102883
 20
133.6770277142052
 30
0.0
  0
VERTEX
  5
3C8
330
3C5
100
AcDbEntity
  8
_____1
 62
     7
100
AcDbVertex
100
AcDb2dVertex
 10
119.3669529020719
 20
133.6770277142052
 30
0.0
  0
VERTEX
  5
3C9
330
3C5
100
AcDbEntity
  8
_____1
 62
     7
100
AcDbVertex
100
AcDb2dVertex
 10
119.3669529020719
 20
132.852615820725
 30
0.0
  0
SEQEND
  5
3CA
330
3C5
100
AcDbEntity
  8
_____1
  0
POLYLINE
  5
3CB
330
3C
100
AcDbEntity
  8
_____1
 62
     7
100
AcDb2dPolyline
 66
     1
 10
0.0
 20
0.0
 30
0.0
  0
VERTEX
  5
3CC
330
3CB
100
AcDbEntity
  8
_____1
 62
     7
100
AcDbVertex
100
AcDb2dVertex
 10
124.7227018765991
 20
125.5827705318742
 30
0.0
  0
VERTEX
  5
3CD
330
3CB
100
AcDbEntity
  8
_____1
 62
     7
100
AcDbVertex
100
AcDb2dVertex
 10
118.3785543553127
 20
125.5827705318742
 30
0.0
  0
SEQEND
  5
3CE
330
3CB
100
AcDbEntity
  8
_____1
  0
POLYLINE
  5
3CF
330
3C
100
AcDbEntity
  8
_____1
 62
     7
100
AcDb2dPolyline
 66
     1
 10
0.0
 20
0.0
 30
0.0
  0
VERTEX
  5
3D0
330
3CF
100
AcDbEntity
  8
_____1
 62
     7
100
AcDbVertex
100
AcDb2dVertex
 10
124.7227018765991
 20
126.9325598334436
 30
0.0
  0
VERTEX
  5
3D1
330
3CF
100
AcDbEntity
  8
_____1
 62
     7
100
AcDbVertex
100
AcDb2dVertex
 10
118.3785543553127
 20
126.9325598334436
 30
0.0
  0
SEQEND
  5
3D2
330
3CF
100
AcDbEntity
  8
_____1
  0
POLYLINE
  5
3D3
330
3C
100
AcDbEntity
  8
_____1
 62
     7
100
AcDb2dPolyline
 66
     1
 10
0.0
 20
0.0
 30
0.0
  0
VERTEX
  5
3D4
330
3D3
100
AcDbEntity
  8
_____1
 62
     7
100
AcDbVertex
100
AcDb2dVertex
 10
119.3669529020719
 20
126.9325598334436
 30
0.0
  0
VERTEX
  5
3D5
330
3D3
100
AcDbEntity
  8
_____1
 62
     7
100
AcDbVertex
100
AcDb2dVertex
 10
119.3669529020719
 20
126.3896124267889
 30
0.0
  0
VERTEX
  5
3D6
330
3D3
100
AcDbEntity
  8
_____1
 62
     7
100
AcDbVertex
100
AcDb2dVertex
 10
123.7336143102883
 20
126.3896124267889
 30
0.0
  0
VERTEX
  5
3D7
330
3D3
100
AcDbEntity
  8
_____1
 62
     7
100
AcDbVertex
100
AcDb2dVertex
 10
123.7336143102883
 20
126.8581457218717
 30
0.0
  0
SEQEND
  5
3D8
330
3D3
100
AcDbEntity
  8
_____1
  0
SPLINE
  5
3D9
330
3C
100
AcDbEntity
  8
_____1
 62
     7
100
AcDbSpline
210
0.0
220
0.0
230
1.0
 70
    11
 71
     3
 72
    23
 73
    19
 74
     0
 42
0.0000000001
 43
0.0000000001
 40
0.0
 40
0.0
 40
0.0
 40
0.0
 40
1.0
 40
1.0
 40
1.0
 40
2.0
 40
2.0
 40
2.0
 40
3.0
 40
3.0
 40
3.0
 40
4.0
 40
4.0
 40
4.0
 40
5.0
 40
5.0
 40
5.0
 40
6.0
 40
6.0
 40
6.0
 40
6.0
 10
124.4243564107596
 20
129.8546917517467
 30
0.0
 10
124.4243564107596
 20
131.4687200513518
 30
0.0
 10
123.1210759289227
 20
132.7771681798257
 30
0.0
 10
121.513248805282
 20
132.7771681798257
 30
0.0
 10
119.9057661914171
 20
132.7771681798257
 30
0.0
 10
118.6024857095802
 20
131.4687200513518
 30
0.0
 10
118.6024857095802
 20
129.8546917517467
 30
0.0
 10
118.6024857095802
 20
128.2406634521417
 30
0.0
 10
119.9057661914171
 20
126.9322153236678
 30
0.0
 10
121.513248805282
 20
126.9322153236678
 30
0.0
 10
123.1210759289227
 20
126.9322153236678
 30
0.0
 10
124.4243564107596
 20
128.2406634521417
 30
0.0
 10
124.4243564107596
 20
129.8546917517467
 30
0.0
 10
124.4243564107596
 20
129.8546917517467
 30
0.0
 10
124.4243564107596
 20
129.8546917517467
 30
0.0
 10
124.4243564107596
 20
129.8546917517467
 30
0.0
 10
124.4243564107596
 20
129.8546917517467
 30
0.0
 10
124.4243564107596
 20
129.8546917517467
 30
0.0
 10
124.4243564107596
 20
129.8546917517467
 30
0.0
  0
POLYLINE
  5
3DA
330
3C
100
AcDbEntity
  8
_____1
 62
     7
100
AcDb2dPolyline
 66
     1
 10
0.0
 20
0.0
 30
0.0
  0
VERTEX
  5
3DB
330
3DA
100
AcDbEntity
  8
_____1
 62
     7
100
AcDbVertex
100
AcDb2dVertex
 10
120.292995179412
 20
130.9674583275684
 30
0.0
  0
VERTEX
  5
3DC
330
3DA
100
AcDbEntity
  8
_____1
 62
     7
100
AcDbVertex
100
AcDb2dVertex
 10
122.5106046062119
 20
128.7415806661493
 30
0.0
  0
SEQEND
  5
3DD
330
3DA
100
AcDbEntity
  8
_____1
  0
POLYLINE
  5
3DE
330
3C
100
AcDbEntity
  8
_____1
 62
     7
100
AcDb2dPolyline
 66
     1
 10
0.0
 20
0.0
 30
0.0
  0
VERTEX
  5
3DF
330
3DE
100
AcDbEntity
  8
_____1
 62
     7
100
AcDbVertex
100
AcDb2dVertex
 10
122.9315955522348
 20
131.3918943713493
 30
0.0
  0
VERTEX
  5
3E0
330
3DE
100
AcDbEntity
  8
_____1
 62
     7
100
AcDbVertex
100
AcDb2dVertex
 10
119.8713152138375
 20
128.3181781516958
 30
0.0
  0
SEQEND
  5
3E1
330
3DE
100
AcDbEntity
  8
_____1
  0
POLYLINE
  5
3E2
330
3C
100
AcDbEntity
  8
_____1
 62
     7
100
AcDb2dPolyline
 66
     1
 10
0.0
 20
0.0
 30
0.0
  0
VERTEX
  5
3E3
330
3E2
100
AcDbEntity
  8
_____1
 62
     7
100
AcDbVertex
100
AcDb2dVertex
 10
120.9902829656234
 20
124.30877338098
 30
0.0
  0
VERTEX
  5
3E4
330
3E2
100
AcDbEntity
  8
_____1
 62
     7
100
AcDbVertex
100
AcDb2dVertex
 10
120.9902829656234
 20
125.5827705318742
 30
0.0
  0
SEQEND
  5
3E5
330
3E2
100
AcDbEntity
  8
_____1
  0
POLYLINE
  5
3E6
330
3C
100
AcDbEntity
  8
_____1
 62
     7
100
AcDb2dPolyline
 66
     1
 10
0.0
 20
0.0
 30
0.0
  0
VERTEX
  5
3E7
330
3E6
100
AcDbEntity
  8
_____1
 62
     7
100
AcDbVertex
100
AcDb2dVertex
 10
121.8133168200005
 20
124.30877338098
 30
0.0
  0
VERTEX
  5
3E8
330
3E6
100
AcDbEntity
  8
_____1
 62
     7
100
AcDbVertex
100
AcDb2dVertex
 10
121.8133168200005
 20
125.5827705318742
 30
0.0
  0
SEQEND
  5
3E9
330
3E6
100
AcDbEntity
  8
_____1
  0
POLYLINE
  5
3EA
330
3C
100
AcDbEntity
  8
_____1
 62
     7
100
AcDb2dPolyline
 66
     1
 10
0.0
 20
0.0
 30
0.0
  0
VERTEX
  5
3EB
330
3EA
100
AcDbEntity
  8
_____1
 62
     7
100
AcDbVertex
100
AcDb2dVertex
 10
110.5667951891345
 20
124.2353927987354
 30
0.0
  0
VERTEX
  5
3EC
330
3EA
100
AcDbEntity
  8
_____1
 62
     7
100
AcDbVertex
100
AcDb2dVertex
 10
116.9105982006452
 20
124.2353927987354
 30
0.0
  0
VERTEX
  5
3ED
330
3EA
100
AcDbEntity
  8
_____1
 62
     7
100
AcDbVertex
100
AcDb2dVertex
 10
116.9105982006452
 20
134.1273019911708
 30
0.0
  0
VERTEX
  5
3EE
330
3EA
100
AcDbEntity
  8
_____1
 62
     7
100
AcDbVertex
100
AcDb2dVertex
 10
110.5667951891345
 20
134.1273019911708
 30
0.0
  0
VERTEX
  5
3EF
330
3EA
100
AcDbEntity
  8
_____1
 62
     7
100
AcDbVertex
100
AcDb2dVertex
 10
110.5667951891345
 20
124.2353927987354
 30
0.0
  0
SEQEND
  5
3F0
330
3EA
100
AcDbEntity
  8
_____1
  0
POLYLINE
  5
3F1
330
3C
100
AcDbEntity
  8
_____1
 62
     7
100
AcDb2dPolyline
 66
     1
 10
0.0
 20
0.0
 30
0.0
  0
VERTEX
  5
3F2
330
3F1
100
AcDbEntity
  8
_____1
 62
     7
100
AcDbVertex
100
AcDb2dVertex
 10
110.5667951891345
 20
132.778201709153
 30
0.0
  0
VERTEX
  5
3F3
330
3F1
100
AcDbEntity
  8
_____1
 62
     7
100
AcDbVertex
100
AcDb2dVertex
 10
116.9105982006452
 20
132.778201709153
 30
0.0
  0
SEQEND
  5
3F4
330
3F1
100
AcDbEntity
  8
_____1
  0
POLYLINE
  5
3F5
330
3C
100
AcDbEntity
  8
_____1
 62
     7
100
AcDb2dPolyline
 66
     1
 10
0.0
 20
0.0
 30
0.0
  0
VERTEX
  5
3F6
330
3F5
100
AcDbEntity
  8
_____1
 62
     7
100
AcDbVertex
100
AcDb2dVertex
 10
115.9218551441102
 20
132.778201709153
 30
0.0
  0
VERTEX
  5
3F7
330
3F5
100
AcDbEntity
  8
_____1
 62
     7
100
AcDbVertex
100
AcDb2dVertex
 10
115.9218551441102
 20
133.6770277142052
 30
0.0
  0
VERTEX
  5
3F8
330
3F5
100
AcDbEntity
  8
_____1
 62
     7
100
AcDbVertex
100
AcDb2dVertex
 10
111.5548492261179
 20
133.6770277142052
 30
0.0
  0
VERTEX
  5
3F9
330
3F5
100
AcDbEntity
  8
_____1
 62
     7
100
AcDbVertex
100
AcDb2dVertex
 10
111.5548492261179
 20
132.852615820725
 30
0.0
  0
SEQEND
  5
3FA
330
3F5
100
AcDbEntity
  8
_____1
  0
POLYLINE
  5
3FB
330
3C
100
AcDbEntity
  8
_____1
 62
     7
100
AcDb2dPolyline
 66
     1
 10
0.0
 20
0.0
 30
0.0
  0
VERTEX
  5
3FC
330
3FB
100
AcDbEntity
  8
_____1
 62
     7
100
AcDbVertex
100
AcDb2dVertex
 10
116.9105982006452
 20
125.5827705318742
 30
0.0
  0
VERTEX
  5
3FD
330
3FB
100
AcDbEntity
  8
_____1
 62
     7
100
AcDbVertex
100
AcDb2dVertex
 10
110.5667951891345
 20
125.5827705318742
 30
0.0
  0
SEQEND
  5
3FE
330
3FB
100
AcDbEntity
  8
_____1
  0
POLYLINE
  5
3FF
330
3C
100
AcDbEntity
  8
_____1
 62
     7
100
AcDb2dPolyline
 66
     1
 10
0.0
 20
0.0
 30
0.0
  0
VERTEX
  5
400
330
3FF
100
AcDbEntity
  8
_____1
 62
     7
100
AcDbVertex
100
AcDb2dVertex
 10
116.9105982006452
 20
126.9325598334436
 30
0.0
  0
VERTEX
  5
401
330
3FF
100
AcDbEntity
  8
_____1
 62
     7
100
AcDbVertex
100
AcDb2dVertex
 10
110.5667951891345
 20
126.9325598334436
 30
0.0
  0
SEQEND
  5
402
330
3FF
100
AcDbEntity
  8
_____1
  0
POLYLINE
  5
403
330
3C
100
AcDbEntity
  8
_____1
 62
     7
100
AcDb2dPolyline
 66
     1
 10
0.0
 20
0.0
 30
0.0
  0
VERTEX
  5
404
330
403
100
AcDbEntity
  8
_____1
 62
     7
100
AcDbVertex
100
AcDb2dVertex
 10
111.5548492261179
 20
126.9325598334436
 30
0.0
  0
VERTEX
  5
405
330
403
100
AcDbEntity
  8
_____1
 62
     7
100
AcDbVertex
100
AcDb2dVertex
 10
111.5548492261179
 20
126.3896124267889
 30
0.0
  0
VERTEX
  5
406
330
403
100
AcDbEntity
  8
_____1
 62
     7
100
AcDbVertex
100
AcDb2dVertex
 10
115.9218551441102
 20
126.3896124267889
 30
0.0
  0
VERTEX
  5
407
330
403
100
AcDbEntity
  8
_____1
 62
     7
100
AcDbVertex
100
AcDb2dVertex
 10
115.9218551441102
 20
126.8581457218717
 30
0.0
  0
SEQEND
  5
408
330
403
100
AcDbEntity
  8
_____1
  0
SPLINE
  5
409
330
3C
100
AcDbEntity
  8
_____1
 62
     7
100
AcDbSpline
210
0.0
220
0.0
230
1.0
 70
    11
 71
     3
 72
    23
 73
    19
 74
     0
 42
0.0000000001
 43
0.0000000001
 40
0.0
 40
0.0
 40
0.0
 40
0.0
 40
1.0
 40
1.0
 40
1.0
 40
2.0
 40
2.0
 40
2.0
 40
3.0
 40
3.0
 40
3.0
 40
4.0
 40
4.0
 40
4.0
 40
5.0
 40
5.0
 40
5.0
 40
6.0
 40
6.0
 40
6.0
 40
6.0
 10
116.6115637152541
 20
129.8546917517467
 30
0.0
 10
116.6115637152541
 20
131.4687200513518
 30
0.0
 10
115.308627743193
 20
132.7768236700499
 30
0.0
 10
113.7011451293281
 20
132.7768236700499
 30
0.0
 10
112.0936625154632
 20
132.7768236700499
 30
0.0
 10
110.790726543402
 20
131.4687200513518
 30
0.0
 10
110.790726543402
 20
129.8546917517467
 30
0.0
 10
110.790726543402
 20
128.2406634521417
 30
0.0
 10
112.0936625154632
 20
126.9325598334436
 30
0.0
 10
113.7011451293281
 20
126.9325598334436
 30
0.0
 10
115.308627743193
 20
126.9325598334436
 30
0.0
 10
116.6115637152541
 20
128.2406634521417
 30
0.0
 10
116.6115637152541
 20
129.8546917517467
 30
0.0
 10
116.6115637152541
 20
129.8546917517467
 30
0.0
 10
116.6115637152541
 20
129.8546917517467
 30
0.0
 10
116.6115637152541
 20
129.8546917517467
 30
0.0
 10
116.6115637152541
 20
129.8546917517467
 30
0.0
 10
116.6115637152541
 20
129.8546917517467
 30
0.0
 10
116.6115637152541
 20
129.8546917517467
 30
0.0
  0
POLYLINE
  5
40A
330
3C
100
AcDbEntity
  8
_____1
 62
     7
100
AcDb2dPolyline
 66
     1
 10
0.0
 20
0.0
 30
0.0
  0
VERTEX
  5
40B
330
40A
100
AcDbEntity
  8
_____1
 62
     7
100
AcDbVertex
100
AcDb2dVertex
 10
112.4812360132338
 20
130.9674583275684
 30
0.0
  0
VERTEX
  5
40C
330
40A
100
AcDbEntity
  8
_____1
 62
     7
100
AcDbVertex
100
AcDb2dVertex
 10
114.6971228911548
 20
128.7415806661493
 30
0.0
  0
SEQEND
  5
40D
330
40A
100
AcDbEntity
  8
_____1
  0
POLYLINE
  5
40E
330
3C
100
AcDbEntity
  8
_____1
 62
     7
100
AcDb2dPolyline
 66
     1
 10
0.0
 20
0.0
 30
0.0
  0
VERTEX
  5
40F
330
40E
100
AcDbEntity
  8
_____1
 62
     7
100
AcDbVertex
100
AcDb2dVertex
 10
115.1198363860567
 20
131.3918943713493
 30
0.0
  0
VERTEX
  5
410
330
40E
100
AcDbEntity
  8
_____1
 62
     7
100
AcDbVertex
100
AcDb2dVertex
 10
112.0578334987804
 20
128.3181781516958
 30
0.0
  0
SEQEND
  5
411
330
40E
100
AcDbEntity
  8
_____1
  0
POLYLINE
  5
412
330
3C
100
AcDbEntity
  8
_____1
 62
     7
100
AcDb2dPolyline
 66
     1
 10
0.0
 20
0.0
 30
0.0
  0
VERTEX
  5
413
330
412
100
AcDbEntity
  8
_____1
 62
     7
100
AcDbVertex
100
AcDb2dVertex
 10
113.1785237994453
 20
124.30877338098
 30
0.0
  0
VERTEX
  5
414
330
412
100
AcDbEntity
  8
_____1
 62
     7
100
AcDbVertex
100
AcDb2dVertex
 10
113.1785237994453
 20
125.5827705318742
 30
0.0
  0
SEQEND
  5
415
330
412
100
AcDbEntity
  8
_____1
  0
POLYLINE
  5
416
330
3C
100
AcDbEntity
  8
_____1
 62
     7
100
AcDb2dPolyline
 66
     1
 10
0.0
 20
0.0
 30
0.0
  0
VERTEX
  5
417
330
416
100
AcDbEntity
  8
_____1
 62
     7
100
AcDbVertex
100
AcDb2dVertex
 10
113.9998351049434
 20
124.30877338098
 30
0.0
  0
VERTEX
  5
418
330
416
100
AcDbEntity
  8
_____1
 62
     7
100
AcDbVertex
100
AcDb2dVertex
 10
113.9998351049434
 20
125.5827705318742
 30
0.0
  0
SEQEND
  5
419
330
416
100
AcDbEntity
  8
_____1
  0
POLYLINE
  5
41A
330
3C
100
AcDbEntity
  8
_____1
 62
     7
100
AcDb2dPolyline
 66
     1
 10
0.0
 20
0.0
 30
0.0
  0
VERTEX
  5
41B
330
41A
100
AcDbEntity
  8
_____1
 62
     7
100
AcDbVertex
100
AcDb2dVertex
 10
102.7543470034048
 20
124.2353927987354
 30
0.0
  0
VERTEX
  5
41C
330
41A
100
AcDbEntity
  8
_____1
 62
     7
100
AcDbVertex
100
AcDb2dVertex
 10
109.0974609953639
 20
124.2353927987354
 30
0.0
  0
VERTEX
  5
41D
330
41A
100
AcDbEntity
  8
_____1
 62
     7
100
AcDbVertex
100
AcDb2dVertex
 10
109.0974609953639
 20
134.1273019911708
 30
0.0
  0
VERTEX
  5
41E
330
41A
100
AcDbEntity
  8
_____1
 62
     7
100
AcDbVertex
100
AcDb2dVertex
 10
102.7543470034048
 20
134.1273019911708
 30
0.0
  0
VERTEX
  5
41F
330
41A
100
AcDbEntity
  8
_____1
 62
     7
100
AcDbVertex
100
AcDb2dVertex
 10
102.7543470034048
 20
124.2353927987354
 30
0.0
  0
SEQEND
  5
420
330
41A
100
AcDbEntity
  8
_____1
  0
POLYLINE
  5
421
330
3C
100
AcDbEntity
  8
_____1
 62
     7
100
AcDb2dPolyline
 66
     1
 10
0.0
 20
0.0
 30
0.0
  0
VERTEX
  5
422
330
421
100
AcDbEntity
  8
_____1
 62
     7
100
AcDbVertex
100
AcDb2dVertex
 10
102.7543470034048
 20
132.778201709153
 30
0.0
  0
VERTEX
  5
423
330
421
100
AcDbEntity
  8
_____1
 62
     7
100
AcDbVertex
100
AcDb2dVertex
 10
109.0974609953639
 20
132.778201709153
 30
0.0
  0
SEQEND
  5
424
330
421
100
AcDbEntity
  8
_____1
  0
POLYLINE
  5
425
330
3C
100
AcDbEntity
  8
_____1
 62
     7
100
AcDb2dPolyline
 66
     1
 10
0.0
 20
0.0
 30
0.0
  0
VERTEX
  5
426
330
425
100
AcDbEntity
  8
_____1
 62
     7
100
AcDbVertex
100
AcDb2dVertex
 10
108.1094069583805
 20
132.778201709153
 30
0.0
  0
VERTEX
  5
427
330
425
100
AcDbEntity
  8
_____1
 62
     7
100
AcDbVertex
100
AcDb2dVertex
 10
108.1094069583805
 20
133.6770277142052
 30
0.0
  0
VERTEX
  5
428
330
425
100
AcDbEntity
  8
_____1
 62
     7
100
AcDbVertex
100
AcDb2dVertex
 10
103.7430900599398
 20
133.6770277142052
 30
0.0
  0
VERTEX
  5
429
330
425
100
AcDbEntity
  8
_____1
 62
     7
100
AcDbVertex
100
AcDb2dVertex
 10
103.7430900599398
 20
132.852615820725
 30
0.0
  0
SEQEND
  5
42A
330
425
100
AcDbEntity
  8
_____1
  0
POLYLINE
  5
42B
330
3C
100
AcDbEntity
  8
_____1
 62
     7
100
AcDb2dPolyline
 66
     1
 10
0.0
 20
0.0
 30
0.0
  0
VERTEX
  5
42C
330
42B
100
AcDbEntity
  8
_____1
 62
     7
100
AcDbVertex
100
AcDb2dVertex
 10
109.0974609953639
 20
125.5827705318742
 30
0.0
  0
VERTEX
  5
42D
330
42B
100
AcDbEntity
  8
_____1
 62
     7
100
AcDbVertex
100
AcDb2dVertex
 10
102.7543470034048
 20
125.5827705318742
 30
0.0
  0
SEQEND
  5
42E
330
42B
100
AcDbEntity
  8
_____1
  0
POLYLINE
  5
42F
330
3C
100
AcDbEntity
  8
_____1
 62
     7
100
AcDb2dPolyline
 66
     1
 10
0.0
 20
0.0
 30
0.0
  0
VERTEX
  5
430
330
42F
100
AcDbEntity
  8
_____1
 62
     7
100
AcDbVertex
100
AcDb2dVertex
 10
109.0974609953639
 20
126.9325598334436
 30
0.0
  0
VERTEX
  5
431
330
42F
100
AcDbEntity
  8
_____1
 62
     7
100
AcDbVertex
100
AcDb2dVertex
 10
102.7543470034048
 20
126.9325598334436
 30
0.0
  0
SEQEND
  5
432
330
42F
100
AcDbEntity
  8
_____1
  0
POLYLINE
  5
433
330
3C
100
AcDbEntity
  8
_____1
 62
     7
100
AcDb2dPolyline
 66
     1
 10
0.0
 20
0.0
 30
0.0
  0
VERTEX
  5
434
330
433
100
AcDbEntity
  8
_____1
 62
     7
100
AcDbVertex
100
AcDb2dVertex
 10
103.7430900599398
 20
126.9325598334436
 30
0.0
  0
VERTEX
  5
435
330
433
100
AcDbEntity
  8
_____1
 62
     7
100
AcDbVertex
100
AcDb2dVertex
 10
103.7430900599398
 20
126.3896124267889
 30
0.0
  0
VERTEX
  5
436
330
433
100
AcDbEntity
  8
_____1
 62
     7
100
AcDbVertex
100
AcDb2dVertex
 10
108.1094069583805
 20
126.3896124267889
 30
0.0
  0
VERTEX
  5
437
330
433
100
AcDbEntity
  8
_____1
 62
     7
100
AcDbVertex
100
AcDb2dVertex
 10
108.1094069583805
 20
126.8581457218717
 30
0.0
  0
SEQEND
  5
438
330
433
100
AcDbEntity
  8
_____1
  0
SPLINE
  5
439
330
3C
100
AcDbEntity
  8
_____1
 62
     7
100
AcDbSpline
210
0.0
220
0.0
230
1.0
 70
    11
 71
     3
 72
    23
 73
    19
 74
     0
 42
0.0000000001
 43
0.0000000001
 40
0.0
 40
0.0
 40
0.0
 40
0.0
 40
1.0
 40
1.0
 40
1.0
 40
2.0
 40
2.0
 40
2.0
 40
3.0
 40
3.0
 40
3.0
 40
4.0
 40
4.0
 40
4.0
 40
5.0
 40
5.0
 40
5.0
 40
6.0
 40
6.0
 40
6.0
 40
6.0
 10
108.799804549076
 20
129.8546917517467
 30
0.0
 10
108.799804549076
 20
131.4690645611276
 30
0.0
 10
107.4961795574633
 20
132.7778571993772
 30
0.0
 10
105.8883524338226
 20
132.7778571993772
 30
0.0
 10
104.2803530552939
 20
132.7778571993772
 30
0.0
 10
102.9769003185691
 20
131.4690645611276
 30
0.0
 10
102.9769003185691
 20
129.8546917517467
 30
0.0
 10
102.9769003185691
 20
128.2403189423659
 30
0.0
 10
104.2803530552939
 20
126.9315263041162
 30
0.0
 10
105.8883524338226
 20
126.9315263041162
 30
0.0
 10
107.4961795574633
 20
126.9315263041162
 30
0.0
 10
108.799804549076
 20
128.2403189423659
 30
0.0
 10
108.799804549076
 20
129.8546917517467
 30
0.0
 10
108.799804549076
 20
129.8546917517467
 30
0.0
 10
108.799804549076
 20
129.8546917517467
 30
0.0
 10
108.799804549076
 20
129.8546917517467
 30
0.0
 10
108.799804549076
 20
129.8546917517467
 30
0.0
 10
108.799804549076
 20
129.8546917517467
 30
0.0
 10
108.799804549076
 20
129.8546917517467
 30
0.0
  0
POLYLINE
  5
43A
330
3C
100
AcDbEntity
  8
_____1
 62
     7
100
AcDb2dPolyline
 66
     1
 10
0.0
 20
0.0
 30
0.0
  0
VERTEX
  5
43B
330
43A
100
AcDbEntity
  8
_____1
 62
     7
100
AcDbVertex
100
AcDb2dVertex
 10
104.6668930237372
 20
130.9674583275684
 30
0.0
  0
VERTEX
  5
43C
330
43A
100
AcDbEntity
  8
_____1
 62
     7
100
AcDbVertex
100
AcDb2dVertex
 10
106.8853637249767
 20
128.7415806661493
 30
0.0
  0
SEQEND
  5
43D
330
43A
100
AcDbEntity
  8
_____1
  0
POLYLINE
  5
43E
330
3C
100
AcDbEntity
  8
_____1
 62
     7
100
AcDb2dPolyline
 66
     1
 10
0.0
 20
0.0
 30
0.0
  0
VERTEX
  5
43F
330
43E
100
AcDbEntity
  8
_____1
 62
     7
100
AcDbVertex
100
AcDb2dVertex
 10
107.3077327101028
 20
131.3918943713493
 30
0.0
  0
VERTEX
  5
440
330
43E
100
AcDbEntity
  8
_____1
 62
     7
100
AcDbVertex
100
AcDb2dVertex
 10
104.2452130581627
 20
128.3181781516958
 30
0.0
  0
SEQEND
  5
441
330
43E
100
AcDbEntity
  8
_____1
  0
POLYLINE
  5
442
330
3C
100
AcDbEntity
  8
_____1
 62
     7
100
AcDb2dPolyline
 66
     1
 10
0.0
 20
0.0
 30
0.0
  0
VERTEX
  5
443
330
442
100
AcDbEntity
  8
_____1
 62
     7
100
AcDbVertex
100
AcDb2dVertex
 10
105.3664201234914
 20
124.30877338098
 30
0.0
  0
VERTEX
  5
444
330
442
100
AcDbEntity
  8
_____1
 62
     7
100
AcDbVertex
100
AcDb2dVertex
 10
105.3664201234914
 20
125.5827705318742
 30
0.0
  0
SEQEND
  5
445
330
442
100
AcDbEntity
  8
_____1
  0
POLYLINE
  5
446
330
3C
100
AcDbEntity
  8
_____1
 62
     7
100
AcDb2dPolyline
 66
     1
 10
0.0
 20
0.0
 30
0.0
  0
VERTEX
  5
447
330
446
100
AcDbEntity
  8
_____1
 62
     7
100
AcDbVertex
100
AcDb2dVertex
 10
106.1873869192136
 20
124.30877338098
 30
0.0
  0
VERTEX
  5
448
330
446
100
AcDbEntity
  8
_____1
 62
     7
100
AcDbVertex
100
AcDb2dVertex
 10
106.1873869192136
 20
125.5827705318742
 30
0.0
  0
SEQEND
  5
449
330
446
100
AcDbEntity
  8
_____1
  0
POLYLINE
  5
44A
330
3C
100
AcDbEntity
  8
_____1
 62
     7
100
AcDb2dPolyline
 66
     1
 10
0.0
 20
0.0
 30
0.0
  0
VERTEX
  5
44B
330
44A
100
AcDbEntity
  8
_____1
 62
     7
100
AcDbVertex
100
AcDb2dVertex
 10
94.9413820530114
 20
124.2353927987354
 30
0.0
  0
VERTEX
  5
44C
330
44A
100
AcDbEntity
  8
_____1
 62
     7
100
AcDbVertex
100
AcDb2dVertex
 10
101.2857018291857
 20
124.2353927987354
 30
0.0
  0
VERTEX
  5
44D
330
44A
100
AcDbEntity
  8
_____1
 62
     7
100
AcDbVertex
100
AcDb2dVertex
 10
101.2857018291857
 20
134.1273019911708
 30
0.0
  0
VERTEX
  5
44E
330
44A
100
AcDbEntity
  8
_____1
 62
     7
100
AcDbVertex
100
AcDb2dVertex
 10
94.9413820530114
 20
134.1273019911708
 30
0.0
  0
VERTEX
  5
44F
330
44A
100
AcDbEntity
  8
_____1
 62
     7
100
AcDbVertex
100
AcDb2dVertex
 10
94.9413820530114
 20
124.2353927987354
 30
0.0
  0
SEQEND
  5
450
330
44A
100
AcDbEntity
  8
_____1
  0
POLYLINE
  5
451
330
3C
100
AcDbEntity
  8
_____1
 62
     7
100
AcDb2dPolyline
 66
     1
 10
0.0
 20
0.0
 30
0.0
  0
VERTEX
  5
452
330
451
100
AcDbEntity
  8
_____1
 62
     7
100
AcDbVertex
100
AcDb2dVertex
 10
94.9413820530114
 20
132.778201709153
 30
0.0
  0
VERTEX
  5
453
330
451
100
AcDbEntity
  8
_____1
 62
     7
100
AcDbVertex
100
AcDb2dVertex
 10
101.2857018291857
 20
132.778201709153
 30
0.0
  0
SEQEND
  5
454
330
451
100
AcDbEntity
  8
_____1
  0
POLYLINE
  5
455
330
3C
100
AcDbEntity
  8
_____1
 62
     7
100
AcDb2dPolyline
 66
     1
 10
0.0
 20
0.0
 30
0.0
  0
VERTEX
  5
456
330
455
100
AcDbEntity
  8
_____1
 62
     7
100
AcDbVertex
100
AcDb2dVertex
 10
100.2967865177628
 20
132.778201709153
 30
0.0
  0
VERTEX
  5
457
330
455
100
AcDbEntity
  8
_____1
 62
     7
100
AcDbVertex
100
AcDb2dVertex
 10
100.2967865177628
 20
133.6770277142052
 30
0.0
  0
VERTEX
  5
458
330
455
100
AcDbEntity
  8
_____1
 62
     7
100
AcDbVertex
100
AcDb2dVertex
 10
95.9309863839859
 20
133.6770277142052
 30
0.0
  0
VERTEX
  5
459
330
455
100
AcDbEntity
  8
_____1
 62
     7
100
AcDbVertex
100
AcDb2dVertex
 10
95.9309863839859
 20
132.852615820725
 30
0.0
  0
SEQEND
  5
45A
330
455
100
AcDbEntity
  8
_____1
  0
POLYLINE
  5
45B
330
3C
100
AcDbEntity
  8
_____1
 62
     7
100
AcDb2dPolyline
 66
     1
 10
0.0
 20
0.0
 30
0.0
  0
VERTEX
  5
45C
330
45B
100
AcDbEntity
  8
_____1
 62
     7
100
AcDbVertex
100
AcDb2dVertex
 10
101.2857018291857
 20
125.5827705318742
 30
0.0
  0
VERTEX
  5
45D
330
45B
100
AcDbEntity
  8
_____1
 62
     7
100
AcDbVertex
100
AcDb2dVertex
 10
94.9413820530114
 20
125.5827705318742
 30
0.0
  0
SEQEND
  5
45E
330
45B
100
AcDbEntity
  8
_____1
  0
POLYLINE
  5
45F
330
3C
100
AcDbEntity
  8
_____1
 62
     7
100
AcDb2dPolyline
 66
     1
 10
0.0
 20
0.0
 30
0.0
  0
VERTEX
  5
460
330
45F
100
AcDbEntity
  8
_____1
 62
     7
100
AcDbVertex
100
AcDb2dVertex
 10
101.2857018291857
 20
126.9325598334436
 30
0.0
  0
VERTEX
  5
461
330
45F
100
AcDbEntity
  8
_____1
 62
     7
100
AcDbVertex
100
AcDb2dVertex
 10
94.9413820530114
 20
126.9325598334436
 30
0.0
  0
SEQEND
  5
462
330
45F
100
AcDbEntity
  8
_____1
  0
POLYLINE
  5
463
330
3C
100
AcDbEntity
  8
_____1
 62
     7
100
AcDb2dPolyline
 66
     1
 10
0.0
 20
0.0
 30
0.0
  0
VERTEX
  5
464
330
463
100
AcDbEntity
  8
_____1
 62
     7
100
AcDbVertex
100
AcDb2dVertex
 10
95.9309863839859
 20
126.9325598334436
 30
0.0
  0
VERTEX
  5
465
330
463
100
AcDbEntity
  8
_____1
 62
     7
100
AcDbVertex
100
AcDb2dVertex
 10
95.9309863839859
 20
126.3896124267889
 30
0.0
  0
VERTEX
  5
466
330
463
100
AcDbEntity
  8
_____1
 62
     7
100
AcDbVertex
100
AcDb2dVertex
 10
100.2967865177628
 20
126.3896124267889
 30
0.0
  0
VERTEX
  5
467
330
463
100
AcDbEntity
  8
_____1
 62
     7
100
AcDbVertex
100
AcDb2dVertex
 10
100.2967865177628
 20
126.8581457218717
 30
0.0
  0
SEQEND
  5
468
330
463
100
AcDbEntity
  8
_____1
  0
SPLINE
  5
469
330
3C
100
AcDbEntity
  8
_____1
 62
     7
100
AcDbSpline
210
0.0
220
0.0
230
1.0
 70
    11
 71
     3
 72
    23
 73
    19
 74
     0
 42
0.0000000001
 43
0.0000000001
 40
0.0
 40
0.0
 40
0.0
 40
0.0
 40
1.0
 40
1.0
 40
1.0
 40
2.0
 40
2.0
 40
2.0
 40
3.0
 40
3.0
 40
3.0
 40
4.0
 40
4.0
 40
4.0
 40
5.0
 40
5.0
 40
5.0
 40
6.0
 40
6.0
 40
6.0
 40
6.0
 10
100.9863228340189
 20
129.8546917517467
 30
0.0
 10
100.9863228340189
 20
131.4687200513518
 30
0.0
 10
99.68338686195776
 20
132.7768236700499
 30
0.0
 10
98.07590424809284
 20
132.7768236700499
 30
0.0
 10
96.46859388911581
 20
132.7768236700499
 30
0.0
 10
95.1656579170547
 20
131.4687200513518
 30
0.0
 10
95.1656579170547
 20
129.8546917517467
 30
0.0
 10
95.1656579170547
 20
128.2406634521417
 30
0.0
 10
96.46859388911581
 20
126.9325598334436
 30
0.0
 10
98.07590424809284
 20
126.9325598334436
 30
0.0
 10
99.68338686195776
 20
126.9325598334436
 30
0.0
 10
100.9863228340189
 20
128.2406634521417
 30
0.0
 10
100.9863228340189
 20
129.8546917517467
 30
0.0
 10
100.9863228340189
 20
129.8546917517467
 30
0.0
 10
100.9863228340189
 20
129.8546917517467
 30
0.0
 10
100.9863228340189
 20
129.8546917517467
 30
0.0
 10
100.9863228340189
 20
129.8546917517467
 30
0.0
 10
100.9863228340189
 20
129.8546917517467
 30
0.0
 10
100.9863228340189
 20
129.8546917517467
 30
0.0
  0
POLYLINE
  5
46A
330
3C
100
AcDbEntity
  8
_____1
 62
     7
100
AcDb2dPolyline
 66
     1
 10
0.0
 20
0.0
 30
0.0
  0
VERTEX
  5
46B
330
46A
100
AcDbEntity
  8
_____1
 62
     7
100
AcDbVertex
100
AcDb2dVertex
 10
96.85565062222281
 20
130.9674583275684
 30
0.0
  0
VERTEX
  5
46C
330
46A
100
AcDbEntity
  8
_____1
 62
     7
100
AcDbVertex
100
AcDb2dVertex
 10
99.07291553924695
 20
128.7415806661493
 30
0.0
  0
SEQEND
  5
46D
330
46A
100
AcDbEntity
  8
_____1
  0
POLYLINE
  5
46E
330
3C
100
AcDbEntity
  8
_____1
 62
     7
100
AcDb2dPolyline
 66
     1
 10
0.0
 20
0.0
 30
0.0
  0
VERTEX
  5
46F
330
46E
100
AcDbEntity
  8
_____1
 62
     7
100
AcDbVertex
100
AcDb2dVertex
 10
99.49476775970936
 20
131.3918943713493
 30
0.0
  0
VERTEX
  5
470
330
46E
100
AcDbEntity
  8
_____1
 62
     7
100
AcDbVertex
100
AcDb2dVertex
 10
96.4339706566483
 20
128.3181781516958
 30
0.0
  0
SEQEND
  5
471
330
46E
100
AcDbEntity
  8
_____1
  0
POLYLINE
  5
472
330
3C
100
AcDbEntity
  8
_____1
 62
     7
100
AcDb2dPolyline
 66
     1
 10
0.0
 20
0.0
 30
0.0
  0
VERTEX
  5
473
330
472
100
AcDbEntity
  8
_____1
 62
     7
100
AcDbVertex
100
AcDb2dVertex
 10
97.55311066332216
 20
124.30877338098
 30
0.0
  0
VERTEX
  5
474
330
472
100
AcDbEntity
  8
_____1
 62
     7
100
AcDbVertex
100
AcDb2dVertex
 10
97.55311066332216
 20
125.5827705318742
 30
0.0
  0
SEQEND
  5
475
330
472
100
AcDbEntity
  8
_____1
  0
POLYLINE
  5
476
330
3C
100
AcDbEntity
  8
_____1
 62
     7
100
AcDb2dPolyline
 66
     1
 10
0.0
 20
0.0
 30
0.0
  0
VERTEX
  5
477
330
476
100
AcDbEntity
  8
_____1
 62
     7
100
AcDbVertex
100
AcDb2dVertex
 10
98.37424971393232
 20
124.30877338098
 30
0.0
  0
VERTEX
  5
478
330
476
100
AcDbEntity
  8
_____1
 62
     7
100
AcDbVertex
100
AcDb2dVertex
 10
98.37424971393232
 20
125.5827705318742
 30
0.0
  0
SEQEND
  5
479
330
476
100
AcDbEntity
  8
_____1
  0
POLYLINE
  5
47A
330
3C
100
AcDbEntity
  8
_____1
 62
     7
100
AcDb2dPolyline
 66
     1
 10
0.0
 20
0.0
 30
0.0
  0
VERTEX
  5
47B
330
47A
100
AcDbEntity
  8
_____1
 62
     7
100
AcDbVertex
100
AcDb2dVertex
 10
87.12858935750587
 20
124.2353927987354
 30
0.0
  0
VERTEX
  5
47C
330
47A
100
AcDbEntity
  8
_____1
 62
     7
100
AcDbVertex
100
AcDb2dVertex
 10
93.47359815323182
 20
124.2353927987354
 30
0.0
  0
VERTEX
  5
47D
330
47A
100
AcDbEntity
  8
_____1
 62
     7
100
AcDbVertex
100
AcDb2dVertex
 10
93.47359815323182
 20
134.1273019911708
 30
0.0
  0
VERTEX
  5
47E
330
47A
100
AcDbEntity
  8
_____1
 62
     7
100
AcDbVertex
100
AcDb2dVertex
 10
87.12858935750587
 20
134.1273019911708
 30
0.0
  0
VERTEX
  5
47F
330
47A
100
AcDbEntity
  8
_____1
 62
     7
100
AcDbVertex
100
AcDb2dVertex
 10
87.12858935750587
 20
124.2353927987354
 30
0.0
  0
SEQEND
  5
480
330
47A
100
AcDbEntity
  8
_____1
  0
POLYLINE
  5
481
330
3C
100
AcDbEntity
  8
_____1
 62
     7
100
AcDb2dPolyline
 66
     1
 10
0.0
 20
0.0
 30
0.0
  0
VERTEX
  5
482
330
481
100
AcDbEntity
  8
_____1
 62
     7
100
AcDbVertex
100
AcDb2dVertex
 10
87.12858935750587
 20
132.778201709153
 30
0.0
  0
VERTEX
  5
483
330
481
100
AcDbEntity
  8
_____1
 62
     7
100
AcDbVertex
100
AcDb2dVertex
 10
93.47428717278341
 20
132.778201709153
 30
0.0
  0
SEQEND
  5
484
330
481
100
AcDbEntity
  8
_____1
  0
POLYLINE
  5
485
330
3C
100
AcDbEntity
  8
_____1
 62
     7
100
AcDb2dPolyline
 66
     1
 10
0.0
 20
0.0
 30
0.0
  0
VERTEX
  5
486
330
485
100
AcDbEntity
  8
_____1
 62
     7
100
AcDbVertex
100
AcDb2dVertex
 10
92.48485509669682
 20
132.778201709153
 30
0.0
  0
VERTEX
  5
487
330
485
100
AcDbEntity
  8
_____1
 62
     7
100
AcDbVertex
100
AcDb2dVertex
 10
92.48485509669682
 20
133.6770277142052
 30
0.0
  0
VERTEX
  5
488
330
485
100
AcDbEntity
  8
_____1
 62
     7
100
AcDbVertex
100
AcDb2dVertex
 10
88.11750466892877
 20
133.6770277142052
 30
0.0
  0
VERTEX
  5
489
330
485
100
AcDbEntity
  8
_____1
 62
     7
100
AcDbVertex
100
AcDb2dVertex
 10
88.11750466892877
 20
132.852615820725
 30
0.0
  0
SEQEND
  5
48A
330
485
100
AcDbEntity
  8
_____1
  0
POLYLINE
  5
48B
330
3C
100
AcDbEntity
  8
_____1
 62
     7
100
AcDb2dPolyline
 66
     1
 10
0.0
 20
0.0
 30
0.0
  0
VERTEX
  5
48C
330
48B
100
AcDbEntity
  8
_____1
 62
     7
100
AcDbVertex
100
AcDb2dVertex
 10
93.47428717278341
 20
125.5827705318742
 30
0.0
  0
VERTEX
  5
48D
330
48B
100
AcDbEntity
  8
_____1
 62
     7
100
AcDbVertex
100
AcDb2dVertex
 10
87.12858935750587
 20
125.5827705318742
 30
0.0
  0
SEQEND
  5
48E
330
48B
100
AcDbEntity
  8
_____1
  0
POLYLINE
  5
48F
330
3C
100
AcDbEntity
  8
_____1
 62
     7
100
AcDb2dPolyline
 66
     1
 10
0.0
 20
0.0
 30
0.0
  0
VERTEX
  5
490
330
48F
100
AcDbEntity
  8
_____1
 62
     7
100
AcDbVertex
100
AcDb2dVertex
 10
93.47428717278341
 20
126.9325598334436
 30
0.0
  0
VERTEX
  5
491
330
48F
100
AcDbEntity
  8
_____1
 62
     7
100
AcDbVertex
100
AcDb2dVertex
 10
87.12858935750587
 20
126.9325598334436
 30
0.0
  0
SEQEND
  5
492
330
48F
100
AcDbEntity
  8
_____1
  0
POLYLINE
  5
493
330
3C
100
AcDbEntity
  8
_____1
 62
     7
100
AcDb2dPolyline
 66
     1
 10
0.0
 20
0.0
 30
0.0
  0
VERTEX
  5
494
330
493
100
AcDbEntity
  8
_____1
 62
     7
100
AcDbVertex
100
AcDb2dVertex
 10
88.11750466892877
 20
126.9325598334436
 30
0.0
  0
VERTEX
  5
495
330
493
100
AcDbEntity
  8
_____1
 62
     7
100
AcDbVertex
100
AcDb2dVertex
 10
88.11750466892877
 20
126.3896124267889
 30
0.0
  0
VERTEX
  5
496
330
493
100
AcDbEntity
  8
_____1
 62
     7
100
AcDbVertex
100
AcDb2dVertex
 10
92.48485509669682
 20
126.3896124267889
 30
0.0
  0
VERTEX
  5
497
330
493
100
AcDbEntity
  8
_____1
 62
     7
100
AcDbVertex
100
AcDb2dVertex
 10
92.48485509669682
 20
126.8581457218717
 30
0.0
  0
SEQEND
  5
498
330
493
100
AcDbEntity
  8
_____1
  0
SPLINE
  5
499
330
3C
100
AcDbEntity
  8
_____1
 62
     7
100
AcDbSpline
210
0.0
220
0.0
230
1.0
 70
    11
 71
     3
 72
    23
 73
    19
 74
     0
 42
0.0000000001
 43
0.0000000001
 40
0.0
 40
0.0
 40
0.0
 40
0.0
 40
1.0
 40
1.0
 40
1.0
 40
2.0
 40
2.0
 40
2.0
 40
3.0
 40
3.0
 40
3.0
 40
4.0
 40
4.0
 40
4.0
 40
5.0
 40
5.0
 40
5.0
 40
6.0
 40
6.0
 40
6.0
 40
6.0
 10
93.17508043250444
 20
129.8546917517467
 30
0.0
 10
93.17508043250444
 20
131.4690645611276
 30
0.0
 10
91.87162769577964
 20
132.7778571993772
 30
0.0
 10
90.26362831725102
 20
132.7778571993772
 30
0.0
 10
88.6556289387224
 20
132.7778571993772
 30
0.0
 10
87.35217620199759
 20
131.4690645611276
 30
0.0
 10
87.35217620199759
 20
129.8546917517467
 30
0.0
 10
87.35217620199759
 20
128.2403189423659
 30
0.0
 10
88.6556289387224
 20
126.9315263041162
 30
0.0
 10
90.26362831725102
 20
126.9315263041162
 30
0.0
 10
91.87162769577964
 20
126.9315263041162
 30
0.0
 10
93.17508043250444
 20
128.2403189423659
 30
0.0
 10
93.17508043250444
 20
129.8546917517467
 30
0.0
 10
93.17508043250444
 20
129.8546917517467
 30
0.0
 10
93.17508043250444
 20
129.8546917517467
 30
0.0
 10
93.17508043250444
 20
129.8546917517467
 30
0.0
 10
93.17508043250444
 20
129.8546917517467
 30
0.0
 10
93.17508043250444
 20
129.8546917517467
 30
0.0
 10
93.17508043250444
 20
129.8546917517467
 30
0.0
  0
POLYLINE
  5
49A
330
3C
100
AcDbEntity
  8
_____1
 62
     7
100
AcDb2dPolyline
 66
     1
 10
0.0
 20
0.0
 30
0.0
  0
VERTEX
  5
49B
330
49A
100
AcDbEntity
  8
_____1
 62
     7
100
AcDbVertex
100
AcDb2dVertex
 10
89.04371920115678
 20
130.9674583275684
 30
0.0
  0
VERTEX
  5
49C
330
49A
100
AcDbEntity
  8
_____1
 62
     7
100
AcDbVertex
100
AcDb2dVertex
 10
91.26012284374143
 20
128.7415806661493
 30
0.0
  0
SEQEND
  5
49D
330
49A
100
AcDbEntity
  8
_____1
  0
POLYLINE
  5
49E
330
3C
100
AcDbEntity
  8
_____1
 62
     7
100
AcDb2dPolyline
 66
     1
 10
0.0
 20
0.0
 30
0.0
  0
VERTEX
  5
49F
330
49E
100
AcDbEntity
  8
_____1
 62
     7
100
AcDbVertex
100
AcDb2dVertex
 10
91.68266408375544
 20
131.3918943713493
 30
0.0
  0
VERTEX
  5
4A0
330
49E
100
AcDbEntity
  8
_____1
 62
     7
100
AcDbVertex
100
AcDb2dVertex
 10
88.62117796114278
 20
128.3181781516958
 30
0.0
  0
SEQEND
  5
4A1
330
49E
100
AcDbEntity
  8
_____1
  0
POLYLINE
  5
4A2
330
3C
100
AcDbEntity
  8
_____1
 62
     7
100
AcDb2dPolyline
 66
     1
 10
0.0
 20
0.0
 30
0.0
  0
VERTEX
  5
4A3
330
4A2
100
AcDbEntity
  8
_____1
 62
     7
100
AcDbVertex
100
AcDb2dVertex
 10
89.74117924225612
 20
124.30877338098
 30
0.0
  0
VERTEX
  5
4A4
330
4A2
100
AcDbEntity
  8
_____1
 62
     7
100
AcDbVertex
100
AcDb2dVertex
 10
89.74117924225612
 20
125.5827705318742
 30
0.0
  0
SEQEND
  5
4A5
330
4A2
100
AcDbEntity
  8
_____1
  0
POLYLINE
  5
4A6
330
3C
100
AcDbEntity
  8
_____1
 62
     7
100
AcDb2dPolyline
 66
     1
 10
0.0
 20
0.0
 30
0.0
  0
VERTEX
  5
4A7
330
4A6
100
AcDbEntity
  8
_____1
 62
     7
100
AcDbVertex
100
AcDb2dVertex
 10
90.56283505752998
 20
124.30877338098
 30
0.0
  0
VERTEX
  5
4A8
330
4A6
100
AcDbEntity
  8
_____1
 62
     7
100
AcDbVertex
100
AcDb2dVertex
 10
90.56283505752998
 20
125.5827705318742
 30
0.0
  0
SEQEND
  5
4A9
330
4A6
100
AcDbEntity
  8
_____1
  0
POLYLINE
  5
4AA
330
3C
100
AcDbEntity
  8
_____1
 62
     7
100
AcDb2dPolyline
 66
     1
 10
0.0
 20
0.0
 30
0.0
  0
VERTEX
  5
4AB
330
4AA
100
AcDbEntity
  8
_____1
 62
     7
100
AcDbVertex
100
AcDb2dVertex
 10
79.31665793643985
 20
124.2353927987354
 30
0.0
  0
VERTEX
  5
4AC
330
4AA
100
AcDbEntity
  8
_____1
 62
     7
100
AcDbVertex
100
AcDb2dVertex
 10
85.6609777126142
 20
124.2353927987354
 30
0.0
  0
VERTEX
  5
4AD
330
4AA
100
AcDbEntity
  8
_____1
 62
     7
100
AcDbVertex
100
AcDb2dVertex
 10
85.6609777126142
 20
134.1273019911708
 30
0.0
  0
VERTEX
  5
4AE
330
4AA
100
AcDbEntity
  8
_____1
 62
     7
100
AcDbVertex
100
AcDb2dVertex
 10
79.31665793643985
 20
134.1273019911708
 30
0.0
  0
VERTEX
  5
4AF
330
4AA
100
AcDbEntity
  8
_____1
 62
     7
100
AcDbVertex
100
AcDb2dVertex
 10
79.31665793643985
 20
124.2353927987354
 30
0.0
  0
SEQEND
  5
4B0
330
4AA
100
AcDbEntity
  8
_____1
  0
POLYLINE
  5
4B1
330
3C
100
AcDbEntity
  8
_____1
 62
     7
100
AcDb2dPolyline
 66
     1
 10
0.0
 20
0.0
 30
0.0
  0
VERTEX
  5
4B2
330
4B1
100
AcDbEntity
  8
_____1
 62
     7
100
AcDbVertex
100
AcDb2dVertex
 10
79.31665793643985
 20
132.778201709153
 30
0.0
  0
VERTEX
  5
4B3
330
4B1
100
AcDbEntity
  8
_____1
 62
     7
100
AcDbVertex
100
AcDb2dVertex
 10
85.6606332028384
 20
132.778201709153
 30
0.0
  0
SEQEND
  5
4B4
330
4B1
100
AcDbEntity
  8
_____1
  0
POLYLINE
  5
4B5
330
3C
100
AcDbEntity
  8
_____1
 62
     7
100
AcDb2dPolyline
 66
     1
 10
0.0
 20
0.0
 30
0.0
  0
VERTEX
  5
4B6
330
4B5
100
AcDbEntity
  8
_____1
 62
     7
100
AcDbVertex
100
AcDb2dVertex
 10
84.6720624011913
 20
132.778201709153
 30
0.0
  0
VERTEX
  5
4B7
330
4B5
100
AcDbEntity
  8
_____1
 62
     7
100
AcDbVertex
100
AcDb2dVertex
 10
84.6720624011913
 20
133.6770277142052
 30
0.0
  0
VERTEX
  5
4B8
330
4B5
100
AcDbEntity
  8
_____1
 62
     7
100
AcDbVertex
100
AcDb2dVertex
 10
80.30591775763855
 20
133.6770277142052
 30
0.0
  0
VERTEX
  5
4B9
330
4B5
100
AcDbEntity
  8
_____1
 62
     7
100
AcDbVertex
100
AcDb2dVertex
 10
80.30591775763855
 20
132.852615820725
 30
0.0
  0
SEQEND
  5
4BA
330
4B5
100
AcDbEntity
  8
_____1
  0
POLYLINE
  5
4BB
330
3C
100
AcDbEntity
  8
_____1
 62
     7
100
AcDb2dPolyline
 66
     1
 10
0.0
 20
0.0
 30
0.0
  0
VERTEX
  5
4BC
330
4BB
100
AcDbEntity
  8
_____1
 62
     7
100
AcDbVertex
100
AcDb2dVertex
 10
85.6606332028384
 20
125.5827705318742
 30
0.0
  0
VERTEX
  5
4BD
330
4BB
100
AcDbEntity
  8
_____1
 62
     7
100
AcDbVertex
100
AcDb2dVertex
 10
79.31665793643985
 20
125.5827705318742
 30
0.0
  0
SEQEND
  5
4BE
330
4BB
100
AcDbEntity
  8
_____1
  0
POLYLINE
  5
4BF
330
3C
100
AcDbEntity
  8
_____1
 62
     7
100
AcDb2dPolyline
 66
     1
 10
0.0
 20
0.0
 30
0.0
  0
VERTEX
  5
4C0
330
4BF
100
AcDbEntity
  8
_____1
 62
     7
100
AcDbVertex
100
AcDb2dVertex
 10
85.6606332028384
 20
126.9325598334436
 30
0.0
  0
VERTEX
  5
4C1
330
4BF
100
AcDbEntity
  8
_____1
 62
     7
100
AcDbVertex
100
AcDb2dVertex
 10
79.31665793643985
 20
126.9325598334436
 30
0.0
  0
SEQEND
  5
4C2
330
4BF
100
AcDbEntity
  8
_____1
  0
POLYLINE
  5
4C3
330
3C
100
AcDbEntity
  8
_____1
 62
     7
100
AcDb2dPolyline
 66
     1
 10
0.0
 20
0.0
 30
0.0
  0
VERTEX
  5
4C4
330
4C3
100
AcDbEntity
  8
_____1
 62
     7
100
AcDbVertex
100
AcDb2dVertex
 10
80.30591775763855
 20
126.9325598334436
 30
0.0
  0
VERTEX
  5
4C5
330
4C3
100
AcDbEntity
  8
_____1
 62
     7
100
AcDbVertex
100
AcDb2dVertex
 10
80.30591775763855
 20
126.3896124267889
 30
0.0
  0
VERTEX
  5
4C6
330
4C3
100
AcDbEntity
  8
_____1
 62
     7
100
AcDbVertex
100
AcDb2dVertex
 10
84.6720624011913
 20
126.3896124267889
 30
0.0
  0
VERTEX
  5
4C7
330
4C3
100
AcDbEntity
  8
_____1
 62
     7
100
AcDbVertex
100
AcDb2dVertex
 10
84.6720624011913
 20
126.8581457218717
 30
0.0
  0
SEQEND
  5
4C8
330
4C3
100
AcDbEntity
  8
_____1
  0
SPLINE
  5
4C9
330
3C
100
AcDbEntity
  8
_____1
 62
     7
100
AcDbSpline
210
0.0
220
0.0
230
1.0
 70
    11
 71
     3
 72
    23
 73
    19
 74
     0
 42
0.0000000001
 43
0.0000000001
 40
0.0
 40
0.0
 40
0.0
 40
0.0
 40
1.0
 40
1.0
 40
1.0
 40
2.0
 40
2.0
 40
2.0
 40
3.0
 40
3.0
 40
3.0
 40
4.0
 40
4.0
 40
4.0
 40
5.0
 40
5.0
 40
5.0
 40
6.0
 40
6.0
 40
6.0
 40
6.0
 10
85.36280450166261
 20
129.8546917517467
 30
0.0
 10
85.36280450166261
 20
131.4690645611276
 30
0.0
 10
84.05935176493782
 20
132.7778571993772
 30
0.0
 10
82.4513523864092
 20
132.7778571993772
 30
0.0
 10
80.84352526276847
 20
132.7778571993772
 30
0.0
 10
79.53990027115577
 20
131.4690645611276
 30
0.0
 10
79.53990027115577
 20
129.8546917517467
 30
0.0
 10
79.53990027115577
 20
128.2403189423659
 30
0.0
 10
80.84352526276847
 20
126.9315263041162
 30
0.0
 10
82.4513523864092
 20
126.9315263041162
 30
0.0
 10
84.05935176493782
 20
126.9315263041162
 30
0.0
 10
85.36280450166261
 20
128.2403189423659
 30
0.0
 10
85.36280450166261
 20
129.8546917517467
 30
0.0
 10
85.36280450166261
 20
129.8546917517467
 30
0.0
 10
85.36280450166261
 20
129.8546917517467
 30
0.0
 10
85.36280450166261
 20
129.8546917517467
 30
0.0
 10
85.36280450166261
 20
129.8546917517467
 30
0.0
 10
85.36280450166261
 20
129.8546917517467
 30
0.0
 10
85.36280450166261
 20
129.8546917517467
 30
0.0
  0
POLYLINE
  5
4CA
330
3C
100
AcDbEntity
  8
_____1
 62
     7
100
AcDb2dPolyline
 66
     1
 10
0.0
 20
0.0
 30
0.0
  0
VERTEX
  5
4CB
330
4CA
100
AcDbEntity
  8
_____1
 62
     7
100
AcDbVertex
100
AcDb2dVertex
 10
81.23144327031496
 20
130.9674583275684
 30
0.0
  0
VERTEX
  5
4CC
330
4CA
100
AcDbEntity
  8
_____1
 62
     7
100
AcDbVertex
100
AcDb2dVertex
 10
83.44819142267541
 20
128.7415806661493
 30
0.0
  0
SEQEND
  5
4CD
330
4CA
100
AcDbEntity
  8
_____1
  0
POLYLINE
  5
4CE
330
3C
100
AcDbEntity
  8
_____1
 62
     7
100
AcDb2dPolyline
 66
     1
 10
0.0
 20
0.0
 30
0.0
  0
VERTEX
  5
4CF
330
4CE
100
AcDbEntity
  8
_____1
 62
     7
100
AcDbVertex
100
AcDb2dVertex
 10
83.86969913336202
 20
131.3918943713493
 30
0.0
  0
VERTEX
  5
4D0
330
4CE
100
AcDbEntity
  8
_____1
 62
     7
100
AcDbVertex
100
AcDb2dVertex
 10
80.80924654007676
 20
128.3181781516958
 30
0.0
  0
SEQEND
  5
4D1
330
4CE
100
AcDbEntity
  8
_____1
  0
POLYLINE
  5
4D2
330
3C
100
AcDbEntity
  8
_____1
 62
     7
100
AcDb2dPolyline
 66
     1
 10
0.0
 20
0.0
 30
0.0
  0
VERTEX
  5
4D3
330
4D2
100
AcDbEntity
  8
_____1
 62
     7
100
AcDbVertex
100
AcDb2dVertex
 10
81.92976458585379
 20
124.30877338098
 30
0.0
  0
VERTEX
  5
4D4
330
4D2
100
AcDbEntity
  8
_____1
 62
     7
100
AcDbVertex
100
AcDb2dVertex
 10
81.92976458585379
 20
125.5827705318742
 30
0.0
  0
SEQEND
  5
4D5
330
4D2
100
AcDbEntity
  8
_____1
  0
POLYLINE
  5
4D6
330
3C
100
AcDbEntity
  8
_____1
 62
     7
100
AcDb2dPolyline
 66
     1
 10
0.0
 20
0.0
 30
0.0
  0
VERTEX
  5
4D7
330
4D6
100
AcDbEntity
  8
_____1
 62
     7
100
AcDbVertex
100
AcDb2dVertex
 10
82.74987010713657
 20
124.30877338098
 30
0.0
  0
VERTEX
  5
4D8
330
4D6
100
AcDbEntity
  8
_____1
 62
     7
100
AcDbVertex
100
AcDb2dVertex
 10
82.74987010713657
 20
125.5827705318742
 30
0.0
  0
SEQEND
  5
4D9
330
4D6
100
AcDbEntity
  8
_____1
  0
POLYLINE
  5
4DA
330
3C
100
AcDbEntity
  8
_____1
 62
     7
100
AcDb2dPolyline
 66
     1
 10
0.0
 20
0.0
 30
0.0
  0
VERTEX
  5
4DB
330
4DA
100
AcDbEntity
  8
_____1
 62
     7
100
AcDbVertex
100
AcDb2dVertex
 10
71.50420975071013
 20
124.2353927987354
 30
0.0
  0
VERTEX
  5
4DC
330
4DA
100
AcDbEntity
  8
_____1
 62
     7
100
AcDbVertex
100
AcDb2dVertex
 10
77.84870178177238
 20
124.2353927987354
 30
0.0
  0
VERTEX
  5
4DD
330
4DA
100
AcDbEntity
  8
_____1
 62
     7
100
AcDbVertex
100
AcDb2dVertex
 10
77.84870178177238
 20
134.1273019911708
 30
0.0
  0
VERTEX
  5
4DE
330
4DA
100
AcDbEntity
  8
_____1
 62
     7
100
AcDbVertex
100
AcDb2dVertex
 10
71.50420975071013
 20
134.1273019911708
 30
0.0
  0
VERTEX
  5
4DF
330
4DA
100
AcDbEntity
  8
_____1
 62
     7
100
AcDbVertex
100
AcDb2dVertex
 10
71.50420975071013
 20
124.2353927987354
 30
0.0
  0
SEQEND
  5
4E0
330
4DA
100
AcDbEntity
  8
_____1
  0
POLYLINE
  5
4E1
330
3C
100
AcDbEntity
  8
_____1
 62
     7
100
AcDb2dPolyline
 66
     1
 10
0.0
 20
0.0
 30
0.0
  0
VERTEX
  5
4E2
330
4E1
100
AcDbEntity
  8
_____1
 62
     7
100
AcDbVertex
100
AcDb2dVertex
 10
71.50420975071013
 20
132.778201709153
 30
0.0
  0
VERTEX
  5
4E3
330
4E1
100
AcDbEntity
  8
_____1
 62
     7
100
AcDbVertex
100
AcDb2dVertex
 10
77.84870178177238
 20
132.778201709153
 30
0.0
  0
SEQEND
  5
4E4
330
4E1
100
AcDbEntity
  8
_____1
  0
POLYLINE
  5
4E5
330
3C
100
AcDbEntity
  8
_____1
 62
     7
100
AcDb2dPolyline
 66
     1
 10
0.0
 20
0.0
 30
0.0
  0
VERTEX
  5
4E6
330
4E5
100
AcDbEntity
  8
_____1
 62
     7
100
AcDbVertex
100
AcDb2dVertex
 10
76.85961421546158
 20
132.778201709153
 30
0.0
  0
VERTEX
  5
4E7
330
4E5
100
AcDbEntity
  8
_____1
 62
     7
100
AcDbVertex
100
AcDb2dVertex
 10
76.85961421546158
 20
133.6770277142052
 30
0.0
  0
VERTEX
  5
4E8
330
4E5
100
AcDbEntity
  8
_____1
 62
     7
100
AcDbVertex
100
AcDb2dVertex
 10
72.49260829746935
 20
133.6770277142052
 30
0.0
  0
VERTEX
  5
4E9
330
4E5
100
AcDbEntity
  8
_____1
 62
     7
100
AcDbVertex
100
AcDb2dVertex
 10
72.49260829746935
 20
132.852615820725
 30
0.0
  0
SEQEND
  5
4EA
330
4E5
100
AcDbEntity
  8
_____1
  0
POLYLINE
  5
4EB
330
3C
100
AcDbEntity
  8
_____1
 62
     7
100
AcDb2dPolyline
 66
     1
 10
0.0
 20
0.0
 30
0.0
  0
VERTEX
  5
4EC
330
4EB
100
AcDbEntity
  8
_____1
 62
     7
100
AcDbVertex
100
AcDb2dVertex
 10
77.84870178177238
 20
125.5827705318742
 30
0.0
  0
VERTEX
  5
4ED
330
4EB
100
AcDbEntity
  8
_____1
 62
     7
100
AcDbVertex
100
AcDb2dVertex
 10
71.50420975071013
 20
125.5827705318742
 30
0.0
  0
SEQEND
  5
4EE
330
4EB
100
AcDbEntity
  8
_____1
  0
POLYLINE
  5
4EF
330
3C
100
AcDbEntity
  8
_____1
 62
     7
100
AcDb2dPolyline
 66
     1
 10
0.0
 20
0.0
 30
0.0
  0
VERTEX
  5
4F0
330
4EF
100
AcDbEntity
  8
_____1
 62
     7
100
AcDbVertex
100
AcDb2dVertex
 10
77.84870178177238
 20
126.9325598334436
 30
0.0
  0
VERTEX
  5
4F1
330
4EF
100
AcDbEntity
  8
_____1
 62
     7
100
AcDbVertex
100
AcDb2dVertex
 10
71.50420975071013
 20
126.9325598334436
 30
0.0
  0
SEQEND
  5
4F2
330
4EF
100
AcDbEntity
  8
_____1
  0
POLYLINE
  5
4F3
330
3C
100
AcDbEntity
  8
_____1
 62
     7
100
AcDb2dPolyline
 66
     1
 10
0.0
 20
0.0
 30
0.0
  0
VERTEX
  5
4F4
330
4F3
100
AcDbEntity
  8
_____1
 62
     7
100
AcDbVertex
100
AcDb2dVertex
 10
72.49260829746935
 20
126.9325598334436
 30
0.0
  0
VERTEX
  5
4F5
330
4F3
100
AcDbEntity
  8
_____1
 62
     7
100
AcDbVertex
100
AcDb2dVertex
 10
72.49260829746935
 20
126.3896124267889
 30
0.0
  0
VERTEX
  5
4F6
330
4F3
100
AcDbEntity
  8
_____1
 62
     7
100
AcDbVertex
100
AcDb2dVertex
 10
76.85961421546158
 20
126.3896124267889
 30
0.0
  0
VERTEX
  5
4F7
330
4F3
100
AcDbEntity
  8
_____1
 62
     7
100
AcDbVertex
100
AcDb2dVertex
 10
76.85961421546158
 20
126.8581457218717
 30
0.0
  0
SEQEND
  5
4F8
330
4F3
100
AcDbEntity
  8
_____1
  0
SPLINE
  5
4F9
330
3C
100
AcDbEntity
  8
_____1
 62
     7
100
AcDbSpline
210
0.0
220
0.0
230
1.0
 70
    11
 71
     3
 72
    23
 73
    19
 74
     0
 42
0.0000000001
 43
0.0000000001
 40
0.0
 40
0.0
 40
0.0
 40
0.0
 40
1.0
 40
1.0
 40
1.0
 40
2.0
 40
2.0
 40
2.0
 40
3.0
 40
3.0
 40
3.0
 40
4.0
 40
4.0
 40
4.0
 40
5.0
 40
5.0
 40
5.0
 40
6.0
 40
6.0
 40
6.0
 40
6.0
 10
77.5496672963813
 20
129.8546917517467
 30
0.0
 10
77.5496672963813
 20
131.4687200513518
 30
0.0
 10
76.24655906943229
 20
132.7768236700499
 30
0.0
 10
74.63907645556736
 20
132.7768236700499
 30
0.0
 10
73.03176609659035
 20
132.7768236700499
 30
0.0
 10
71.72865786964134
 20
131.4687200513518
 30
0.0
 10
71.72865786964134
 20
129.8546917517467
 30
0.0
 10
71.72865786964134
 20
128.2406634521417
 30
0.0
 10
73.03176609659035
 20
126.9325598334436
 30
0.0
 10
74.63907645556736
 20
126.9325598334436
 30
0.0
 10
76.24655906943229
 20
126.9325598334436
 30
0.0
 10
77.5496672963813
 20
128.2406634521417
 30
0.0
 10
77.5496672963813
 20
129.8546917517467
 30
0.0
 10
77.5496672963813
 20
129.8546917517467
 30
0.0
 10
77.5496672963813
 20
129.8546917517467
 30
0.0
 10
77.5496672963813
 20
129.8546917517467
 30
0.0
 10
77.5496672963813
 20
129.8546917517467
 30
0.0
 10
77.5496672963813
 20
129.8546917517467
 30
0.0
 10
77.5496672963813
 20
129.8546917517467
 30
0.0
  0
POLYLINE
  5
4FA
330
3C
100
AcDbEntity
  8
_____1
 62
     7
100
AcDb2dPolyline
 66
     1
 10
0.0
 20
0.0
 30
0.0
  0
VERTEX
  5
4FB
330
4FA
100
AcDbEntity
  8
_____1
 62
     7
100
AcDbVertex
100
AcDb2dVertex
 10
73.41847831992155
 20
130.9674583275684
 30
0.0
  0
VERTEX
  5
4FC
330
4FA
100
AcDbEntity
  8
_____1
 62
     7
100
AcDbVertex
100
AcDb2dVertex
 10
75.6345374527304
 20
128.7415806661493
 30
0.0
  0
SEQEND
  5
4FD
330
4FA
100
AcDbEntity
  8
_____1
  0
POLYLINE
  5
4FE
330
3C
100
AcDbEntity
  8
_____1
 62
     7
100
AcDb2dPolyline
 66
     1
 10
0.0
 20
0.0
 30
0.0
  0
VERTEX
  5
4FF
330
4FE
100
AcDbEntity
  8
_____1
 62
     7
100
AcDbVertex
100
AcDb2dVertex
 10
76.0575954574081
 20
131.3918943713493
 30
0.0
  0
VERTEX
  5
500
330
4FE
100
AcDbEntity
  8
_____1
 62
     7
100
AcDbVertex
100
AcDb2dVertex
 10
72.99576482501965
 20
128.3181781516958
 30
0.0
  0
SEQEND
  5
501
330
4FE
100
AcDbEntity
  8
_____1
  0
POLYLINE
  5
502
330
3C
100
AcDbEntity
  8
_____1
 62
     7
100
AcDb2dPolyline
 66
     1
 10
0.0
 20
0.0
 30
0.0
  0
VERTEX
  5
503
330
502
100
AcDbEntity
  8
_____1
 62
     7
100
AcDbVertex
100
AcDb2dVertex
 10
74.11679963546038
 20
124.30877338098
 30
0.0
  0
VERTEX
  5
504
330
502
100
AcDbEntity
  8
_____1
 62
     7
100
AcDbVertex
100
AcDb2dVertex
 10
74.11679963546038
 20
125.5827705318742
 30
0.0
  0
SEQEND
  5
505
330
502
100
AcDbEntity
  8
_____1
  0
POLYLINE
  5
506
330
3C
100
AcDbEntity
  8
_____1
 62
     7
100
AcDb2dPolyline
 66
     1
 10
0.0
 20
0.0
 30
0.0
  0
VERTEX
  5
507
330
506
100
AcDbEntity
  8
_____1
 62
     7
100
AcDbVertex
100
AcDb2dVertex
 10
74.93690515674315
 20
124.30877338098
 30
0.0
  0
VERTEX
  5
508
330
506
100
AcDbEntity
  8
_____1
 62
     7
100
AcDbVertex
100
AcDb2dVertex
 10
74.93690515674315
 20
125.5827705318742
 30
0.0
  0
SEQEND
  5
509
330
506
100
AcDbEntity
  8
_____1
  0
POLYLINE
  5
50A
330
3C
100
AcDbEntity
  8
_____1
 62
     7
100
AcDb2dPolyline
 66
     1
 10
0.0
 20
0.0
 30
0.0
  0
VERTEX
  5
50B
330
50A
100
AcDbEntity
  8
_____1
 62
     7
100
AcDbVertex
100
AcDb2dVertex
 10
63.69176156498041
 20
124.2353927987354
 30
0.0
  0
VERTEX
  5
50C
330
50A
100
AcDbEntity
  8
_____1
 62
     7
100
AcDbVertex
100
AcDb2dVertex
 10
70.03608134115476
 20
124.2353927987354
 30
0.0
  0
VERTEX
  5
50D
330
50A
100
AcDbEntity
  8
_____1
 62
     7
100
AcDbVertex
100
AcDb2dVertex
 10
70.03608134115476
 20
134.1273019911708
 30
0.0
  0
VERTEX
  5
50E
330
50A
100
AcDbEntity
  8
_____1
 62
     7
100
AcDbVertex
100
AcDb2dVertex
 10
63.69176156498041
 20
134.1273019911708
 30
0.0
  0
VERTEX
  5
50F
330
50A
100
AcDbEntity
  8
_____1
 62
     7
100
AcDbVertex
100
AcDb2dVertex
 10
63.69176156498041
 20
124.2353927987354
 30
0.0
  0
SEQEND
  5
510
330
50A
100
AcDbEntity
  8
_____1
  0
POLYLINE
  5
511
330
3C
100
AcDbEntity
  8
_____1
 62
     7
100
AcDb2dPolyline
 66
     1
 10
0.0
 20
0.0
 30
0.0
  0
VERTEX
  5
512
330
511
100
AcDbEntity
  8
_____1
 62
     7
100
AcDbVertex
100
AcDb2dVertex
 10
63.69176156498041
 20
132.778201709153
 30
0.0
  0
VERTEX
  5
513
330
511
100
AcDbEntity
  8
_____1
 62
     7
100
AcDbVertex
100
AcDb2dVertex
 10
70.03573683137896
 20
132.778201709153
 30
0.0
  0
SEQEND
  5
514
330
511
100
AcDbEntity
  8
_____1
  0
POLYLINE
  5
515
330
3C
100
AcDbEntity
  8
_____1
 62
     7
100
AcDb2dPolyline
 66
     1
 10
0.0
 20
0.0
 30
0.0
  0
VERTEX
  5
516
330
515
100
AcDbEntity
  8
_____1
 62
     7
100
AcDbVertex
100
AcDb2dVertex
 10
69.04768279439556
 20
132.778201709153
 30
0.0
  0
VERTEX
  5
517
330
515
100
AcDbEntity
  8
_____1
 62
     7
100
AcDbVertex
100
AcDb2dVertex
 10
69.04768279439556
 20
133.6770277142052
 30
0.0
  0
VERTEX
  5
518
330
515
100
AcDbEntity
  8
_____1
 62
     7
100
AcDbVertex
100
AcDb2dVertex
 10
64.68050462151541
 20
133.6770277142052
 30
0.0
  0
VERTEX
  5
519
330
515
100
AcDbEntity
  8
_____1
 62
     7
100
AcDbVertex
100
AcDb2dVertex
 10
64.68050462151541
 20
132.852615820725
 30
0.0
  0
SEQEND
  5
51A
330
515
100
AcDbEntity
  8
_____1
  0
POLYLINE
  5
51B
330
3C
100
AcDbEntity
  8
_____1
 62
     7
100
AcDb2dPolyline
 66
     1
 10
0.0
 20
0.0
 30
0.0
  0
VERTEX
  5
51C
330
51B
100
AcDbEntity
  8
_____1
 62
     7
100
AcDbVertex
100
AcDb2dVertex
 10
70.03573683137896
 20
125.5827705318742
 30
0.0
  0
VERTEX
  5
51D
330
51B
100
AcDbEntity
  8
_____1
 62
     7
100
AcDbVertex
100
AcDb2dVertex
 10
63.69176156498041
 20
125.5827705318742
 30
0.0
  0
SEQEND
  5
51E
330
51B
100
AcDbEntity
  8
_____1
  0
POLYLINE
  5
51F
330
3C
100
AcDbEntity
  8
_____1
 62
     7
100
AcDb2dPolyline
 66
     1
 10
0.0
 20
0.0
 30
0.0
  0
VERTEX
  5
520
330
51F
100
AcDbEntity
  8
_____1
 62
     7
100
AcDbVertex
100
AcDb2dVertex
 10
70.03573683137896
 20
126.9325598334436
 30
0.0
  0
VERTEX
  5
521
330
51F
100
AcDbEntity
  8
_____1
 62
     7
100
AcDbVertex
100
AcDb2dVertex
 10
63.69176156498041
 20
126.9325598334436
 30
0.0
  0
SEQEND
  5
522
330
51F
100
AcDbEntity
  8
_____1
  0
POLYLINE
  5
523
330
3C
100
AcDbEntity
  8
_____1
 62
     7
100
AcDb2dPolyline
 66
     1
 10
0.0
 20
0.0
 30
0.0
  0
VERTEX
  5
524
330
523
100
AcDbEntity
  8
_____1
 62
     7
100
AcDbVertex
100
AcDb2dVertex
 10
64.68050462151541
 20
126.9325598334436
 30
0.0
  0
VERTEX
  5
525
330
523
100
AcDbEntity
  8
_____1
 62
     7
100
AcDbVertex
100
AcDb2dVertex
 10
64.68050462151541
 20
126.3896124267889
 30
0.0
  0
VERTEX
  5
526
330
523
100
AcDbEntity
  8
_____1
 62
     7
100
AcDbVertex
100
AcDb2dVertex
 10
69.04768279439556
 20
126.3896124267889
 30
0.0
  0
VERTEX
  5
527
330
523
100
AcDbEntity
  8
_____1
 62
     7
100
AcDbVertex
100
AcDb2dVertex
 10
69.04768279439556
 20
126.8581457218717
 30
0.0
  0
SEQEND
  5
528
330
523
100
AcDbEntity
  8
_____1
  0
SPLINE
  5
529
330
3C
100
AcDbEntity
  8
_____1
 62
     7
100
AcDbSpline
210
0.0
220
0.0
230
1.0
 70
    11
 71
     3
 72
    23
 73
    19
 74
     0
 42
0.0000000001
 43
0.0000000001
 40
0.0
 40
0.0
 40
0.0
 40
0.0
 40
1.0
 40
1.0
 40
1.0
 40
2.0
 40
2.0
 40
2.0
 40
3.0
 40
3.0
 40
3.0
 40
4.0
 40
4.0
 40
4.0
 40
5.0
 40
5.0
 40
5.0
 40
6.0
 40
6.0
 40
6.0
 40
6.0
 10
69.73808038509107
 20
129.8546917517467
 30
0.0
 10
69.73808038509107
 20
131.4687200513518
 30
0.0
 10
68.43479990325416
 20
132.7771681798257
 30
0.0
 10
66.82714503450134
 20
132.7771681798257
 30
0.0
 10
65.21966242063643
 20
132.7771681798257
 30
0.0
 10
63.91638193879951
 20
131.4687200513518
 30
0.0
 10
63.91638193879951
 20
129.8546917517467
 30
0.0
 10
63.91638193879951
 20
128.2406634521417
 30
0.0
 10
65.21966242063643
 20
126.9322153236678
 30
0.0
 10
66.82714503450134
 20
126.9322153236678
 30
0.0
 10
68.43479990325416
 20
126.9322153236678
 30
0.0
 10
69.73808038509107
 20
128.2406634521417
 30
0.0
 10
69.73808038509107
 20
129.8546917517467
 30
0.0
 10
69.73808038509107
 20
129.8546917517467
 30
0.0
 10
69.73808038509107
 20
129.8546917517467
 30
0.0
 10
69.73808038509107
 20
129.8546917517467
 30
0.0
 10
69.73808038509107
 20
129.8546917517467
 30
0.0
 10
69.73808038509107
 20
129.8546917517467
 30
0.0
 10
69.73808038509107
 20
129.8546917517467
 30
0.0
  0
POLYLINE
  5
52A
330
3C
100
AcDbEntity
  8
_____1
 62
     7
100
AcDb2dPolyline
 66
     1
 10
0.0
 20
0.0
 30
0.0
  0
VERTEX
  5
52B
330
52A
100
AcDbEntity
  8
_____1
 62
     7
100
AcDbVertex
100
AcDb2dVertex
 10
65.60654689885551
 20
130.9674583275684
 30
0.0
  0
VERTEX
  5
52C
330
52A
100
AcDbEntity
  8
_____1
 62
     7
100
AcDbVertex
100
AcDb2dVertex
 10
67.82260603166438
 20
128.7415806661493
 30
0.0
  0
SEQEND
  5
52D
330
52A
100
AcDbEntity
  8
_____1
  0
POLYLINE
  5
52E
330
3C
100
AcDbEntity
  8
_____1
 62
     7
100
AcDb2dPolyline
 66
     1
 10
0.0
 20
0.0
 30
0.0
  0
VERTEX
  5
52F
330
52E
100
AcDbEntity
  8
_____1
 62
     7
100
AcDbVertex
100
AcDb2dVertex
 10
68.24497501679048
 20
131.3918943713493
 30
0.0
  0
VERTEX
  5
530
330
52E
100
AcDbEntity
  8
_____1
 62
     7
100
AcDbVertex
100
AcDb2dVertex
 10
65.18400565884151
 20
128.3181781516958
 30
0.0
  0
SEQEND
  5
531
330
52E
100
AcDbEntity
  8
_____1
  0
POLYLINE
  5
532
330
3C
100
AcDbEntity
  8
_____1
 62
     7
100
AcDb2dPolyline
 66
     1
 10
0.0
 20
0.0
 30
0.0
  0
VERTEX
  5
533
330
532
100
AcDbEntity
  8
_____1
 62
     7
100
AcDbVertex
100
AcDb2dVertex
 10
66.30417919484276
 20
124.30877338098
 30
0.0
  0
VERTEX
  5
534
330
532
100
AcDbEntity
  8
_____1
 62
     7
100
AcDbVertex
100
AcDb2dVertex
 10
66.30417919484276
 20
125.5827705318742
 30
0.0
  0
SEQEND
  5
535
330
532
100
AcDbEntity
  8
_____1
  0
POLYLINE
  5
536
330
3C
100
AcDbEntity
  8
_____1
 62
     7
100
AcDb2dPolyline
 66
     1
 10
0.0
 20
0.0
 30
0.0
  0
VERTEX
  5
537
330
536
100
AcDbEntity
  8
_____1
 62
     7
100
AcDbVertex
100
AcDb2dVertex
 10
67.12514599056503
 20
124.30877338098
 30
0.0
  0
VERTEX
  5
538
330
536
100
AcDbEntity
  8
_____1
 62
     7
100
AcDbVertex
100
AcDb2dVertex
 10
67.12514599056503
 20
125.5827705318742
 30
0.0
  0
SEQEND
  5
539
330
536
100
AcDbEntity
  8
_____1
  0
POLYLINE
  5
53A
330
3C
100
AcDbEntity
  8
_____1
 62
     7
100
AcDb2dPolyline
 66
     1
 10
0.0
 20
0.0
 30
0.0
  0
VERTEX
  5
53B
330
53A
100
AcDbEntity
  8
_____1
 62
     7
100
AcDbVertex
100
AcDb2dVertex
 10
25.90265651278655
 20
124.2353927987354
 30
0.0
  0
VERTEX
  5
53C
330
53A
100
AcDbEntity
  8
_____1
 62
     7
100
AcDbVertex
100
AcDb2dVertex
 10
32.2461150145214
 20
124.2353927987354
 30
0.0
  0
VERTEX
  5
53D
330
53A
100
AcDbEntity
  8
_____1
 62
     7
100
AcDbVertex
100
AcDb2dVertex
 10
32.2461150145214
 20
134.1273019911708
 30
0.0
  0
VERTEX
  5
53E
330
53A
100
AcDbEntity
  8
_____1
 62
     7
100
AcDbVertex
100
AcDb2dVertex
 10
25.90265651278655
 20
134.1273019911708
 30
0.0
  0
VERTEX
  5
53F
330
53A
100
AcDbEntity
  8
_____1
 62
     7
100
AcDbVertex
100
AcDb2dVertex
 10
25.90265651278655
 20
124.2353927987354
 30
0.0
  0
SEQEND
  5
540
330
53A
100
AcDbEntity
  8
_____1
  0
POLYLINE
  5
541
330
3C
100
AcDbEntity
  8
_____1
 62
     7
100
AcDb2dPolyline
 66
     1
 10
0.0
 20
0.0
 30
0.0
  0
VERTEX
  5
542
330
541
100
AcDbEntity
  8
_____1
 62
     7
100
AcDbVertex
100
AcDb2dVertex
 10
25.90265651278655
 20
132.778201709153
 30
0.0
  0
VERTEX
  5
543
330
541
100
AcDbEntity
  8
_____1
 62
     7
100
AcDbVertex
100
AcDb2dVertex
 10
32.24577050474561
 20
132.778201709153
 30
0.0
  0
SEQEND
  5
544
330
541
100
AcDbEntity
  8
_____1
  0
POLYLINE
  5
545
330
3C
100
AcDbEntity
  8
_____1
 62
     7
100
AcDb2dPolyline
 66
     1
 10
0.0
 20
0.0
 30
0.0
  0
VERTEX
  5
546
330
545
100
AcDbEntity
  8
_____1
 62
     7
100
AcDbVertex
100
AcDb2dVertex
 10
31.25806097753799
 20
132.778201709153
 30
0.0
  0
VERTEX
  5
547
330
545
100
AcDbEntity
  8
_____1
 62
     7
100
AcDbVertex
100
AcDb2dVertex
 10
31.25806097753799
 20
133.6770277142052
 30
0.0
  0
VERTEX
  5
548
330
545
100
AcDbEntity
  8
_____1
 62
     7
100
AcDbVertex
100
AcDb2dVertex
 10
26.89122731443365
 20
133.6770277142052
 30
0.0
  0
VERTEX
  5
549
330
545
100
AcDbEntity
  8
_____1
 62
     7
100
AcDbVertex
100
AcDb2dVertex
 10
26.89122731443365
 20
132.852615820725
 30
0.0
  0
SEQEND
  5
54A
330
545
100
AcDbEntity
  8
_____1
  0
POLYLINE
  5
54B
330
3C
100
AcDbEntity
  8
_____1
 62
     7
100
AcDb2dPolyline
 66
     1
 10
0.0
 20
0.0
 30
0.0
  0
VERTEX
  5
54C
330
54B
100
AcDbEntity
  8
_____1
 62
     7
100
AcDbVertex
100
AcDb2dVertex
 10
32.24577050474561
 20
125.5827705318742
 30
0.0
  0
VERTEX
  5
54D
330
54B
100
AcDbEntity
  8
_____1
 62
     7
100
AcDbVertex
100
AcDb2dVertex
 10
25.90265651278655
 20
125.5827705318742
 30
0.0
  0
SEQEND
  5
54E
330
54B
100
AcDbEntity
  8
_____1
  0
POLYLINE
  5
54F
330
3C
100
AcDbEntity
  8
_____1
 62
     7
100
AcDb2dPolyline
 66
     1
 10
0.0
 20
0.0
 30
0.0
  0
VERTEX
  5
550
330
54F
100
AcDbEntity
  8
_____1
 62
     7
100
AcDbVertex
100
AcDb2dVertex
 10
32.24577050474561
 20
126.9325598334436
 30
0.0
  0
VERTEX
  5
551
330
54F
100
AcDbEntity
  8
_____1
 62
     7
100
AcDbVertex
100
AcDb2dVertex
 10
25.90265651278655
 20
126.9325598334436
 30
0.0
  0
SEQEND
  5
552
330
54F
100
AcDbEntity
  8
_____1
  0
POLYLINE
  5
553
330
3C
100
AcDbEntity
  8
_____1
 62
     7
100
AcDb2dPolyline
 66
     1
 10
0.0
 20
0.0
 30
0.0
  0
VERTEX
  5
554
330
553
100
AcDbEntity
  8
_____1
 62
     7
100
AcDbVertex
100
AcDb2dVertex
 10
26.89122731443365
 20
126.9325598334436
 30
0.0
  0
VERTEX
  5
555
330
553
100
AcDbEntity
  8
_____1
 62
     7
100
AcDbVertex
100
AcDb2dVertex
 10
26.89122731443365
 20
126.3896124267889
 30
0.0
  0
VERTEX
  5
556
330
553
100
AcDbEntity
  8
_____1
 62
     7
100
AcDbVertex
100
AcDb2dVertex
 10
31.25806097753799
 20
126.3896124267889
 30
0.0
  0
VERTEX
  5
557
330
553
100
AcDbEntity
  8
_____1
 62
     7
100
AcDbVertex
100
AcDb2dVertex
 10
31.25806097753799
 20
126.8581457218717
 30
0.0
  0
SEQEND
  5
558
330
553
100
AcDbEntity
  8
_____1
  0
SPLINE
  5
559
330
3C
100
AcDbEntity
  8
_____1
 62
     7
100
AcDbSpline
210
0.0
220
0.0
230
1.0
 70
    11
 71
     3
 72
    23
 73
    19
 74
     0
 42
0.0000000001
 43
0.0000000001
 40
0.0
 40
0.0
 40
0.0
 40
0.0
 40
1.0
 40
1.0
 40
1.0
 40
2.0
 40
2.0
 40
2.0
 40
3.0
 40
3.0
 40
3.0
 40
4.0
 40
4.0
 40
4.0
 40
5.0
 40
5.0
 40
5.0
 40
6.0
 40
6.0
 40
6.0
 40
6.0
 10
31.94759729379402
 20
129.8546917517467
 30
0.0
 10
31.94759729379402
 20
131.4690645611276
 30
0.0
 10
30.64431681195712
 20
132.7775126896014
 30
0.0
 10
29.03666194320429
 20
132.7775126896014
 30
0.0
 10
27.42883481956358
 20
132.7775126896014
 30
0.0
 10
26.12555433772667
 20
131.4690645611276
 30
0.0
 10
26.12555433772667
 20
129.8546917517467
 30
0.0
 10
26.12555433772667
 20
128.2403189423659
 30
0.0
 10
27.42883481956358
 20
126.931870813892
 30
0.0
 10
29.03666194320429
 20
126.931870813892
 30
0.0
 10
30.64431681195712
 20
126.931870813892
 30
0.0
 10
31.94759729379402
 20
128.2403189423659
 30
0.0
 10
31.94759729379402
 20
129.8546917517467
 30
0.0
 10
31.94759729379402
 20
129.8546917517467
 30
0.0
 10
31.94759729379402
 20
129.8546917517467
 30
0.0
 10
31.94759729379402
 20
129.8546917517467
 30
0.0
 10
31.94759729379402
 20
129.8546917517467
 30
0.0
 10
31.94759729379402
 20
129.8546917517467
 30
0.0
 10
31.94759729379402
 20
129.8546917517467
 30
0.0
  0
POLYLINE
  5
55A
330
3C
100
AcDbEntity
  8
_____1
 62
     7
100
AcDb2dPolyline
 66
     1
 10
0.0
 20
0.0
 30
0.0
  0
VERTEX
  5
55B
330
55A
100
AcDbEntity
  8
_____1
 62
     7
100
AcDbVertex
100
AcDb2dVertex
 10
27.81554704289477
 20
130.9674583275684
 30
0.0
  0
VERTEX
  5
55C
330
55A
100
AcDbEntity
  8
_____1
 62
     7
100
AcDbVertex
100
AcDb2dVertex
 10
30.03332872458261
 20
128.7415806661493
 30
0.0
  0
SEQEND
  5
55D
330
55A
100
AcDbEntity
  8
_____1
  0
POLYLINE
  5
55E
330
3C
100
AcDbEntity
  8
_____1
 62
     7
100
AcDb2dPolyline
 66
     1
 10
0.0
 20
0.0
 30
0.0
  0
VERTEX
  5
55F
330
55E
100
AcDbEntity
  8
_____1
 62
     7
100
AcDbVertex
100
AcDb2dVertex
 10
30.45500869015712
 20
131.3918943713493
 30
0.0
  0
VERTEX
  5
560
330
55E
100
AcDbEntity
  8
_____1
 62
     7
100
AcDbVertex
100
AcDb2dVertex
 10
27.39438384198396
 20
128.3181781516958
 30
0.0
  0
SEQEND
  5
561
330
55E
100
AcDbEntity
  8
_____1
  0
POLYLINE
  5
562
330
3C
100
AcDbEntity
  8
_____1
 62
     7
100
AcDb2dPolyline
 66
     1
 10
0.0
 20
0.0
 30
0.0
  0
VERTEX
  5
563
330
562
100
AcDbEntity
  8
_____1
 62
     7
100
AcDbVertex
100
AcDb2dVertex
 10
28.51300708399412
 20
124.30877338098
 30
0.0
  0
VERTEX
  5
564
330
562
100
AcDbEntity
  8
_____1
 62
     7
100
AcDbVertex
100
AcDb2dVertex
 10
28.51300708399412
 20
125.5827705318742
 30
0.0
  0
SEQEND
  5
565
330
562
100
AcDbEntity
  8
_____1
  0
POLYLINE
  5
566
330
3C
100
AcDbEntity
  8
_____1
 62
     7
100
AcDb2dPolyline
 66
     1
 10
0.0
 20
0.0
 30
0.0
  0
VERTEX
  5
567
330
566
100
AcDbEntity
  8
_____1
 62
     7
100
AcDbVertex
100
AcDb2dVertex
 10
29.33449064438008
 20
124.30877338098
 30
0.0
  0
VERTEX
  5
568
330
566
100
AcDbEntity
  8
_____1
 62
     7
100
AcDbVertex
100
AcDb2dVertex
 10
29.33449064438008
 20
125.5827705318742
 30
0.0
  0
SEQEND
  5
569
330
566
100
AcDbEntity
  8
_____1
  0
POLYLINE
  5
56A
330
3C
100
AcDbEntity
  8
_____1
 62
     7
100
AcDb2dPolyline
 66
     1
 10
0.0
 20
0.0
 30
0.0
  0
VERTEX
  5
56B
330
56A
100
AcDbEntity
  8
_____1
 62
     7
100
AcDbVertex
100
AcDb2dVertex
 10
126.2530143006857
 20
124.1599451578361
 30
0.0
  0
VERTEX
  5
56C
330
56A
100
AcDbEntity
  8
_____1
 62
     7
100
AcDbVertex
100
AcDb2dVertex
 10
12.01753450909776
 20
124.1599451578361
 30
0.0
  0
VERTEX
  5
56D
330
56A
100
AcDbEntity
  8
_____1
 62
     7
100
AcDbVertex
100
AcDb2dVertex
 10
12.01753450909776
 20
144.9201042473132
 30
0.0
  0
VERTEX
  5
56E
330
56A
100
AcDbEntity
  8
_____1
 62
     7
100
AcDbVertex
100
AcDb2dVertex
 10
126.2530143006857
 20
144.9201042473132
 30
0.0
  0
VERTEX
  5
56F
330
56A
100
AcDbEntity
  8
_____1
 62
     7
100
AcDbVertex
100
AcDb2dVertex
 10
126.2530143006857
 20
124.1599451578361
 30
0.0
  0
SEQEND
  5
570
330
56A
100
AcDbEntity
  8
_____1
  0
POLYLINE
  5
571
330
3C
100
AcDbEntity
  8
_____1
 62
     7
100
AcDb2dPolyline
 66
     1
 10
0.0
 20
0.0
 30
0.0
  0
VERTEX
  5
572
330
571
100
AcDbEntity
  8
_____1
 62
     7
100
AcDbVertex
100
AcDb2dVertex
 10
14.10801982862891
 20
144.9201042473132
 30
0.0
  0
VERTEX
  5
573
330
571
100
AcDbEntity
  8
_____1
 62
     7
100
AcDbVertex
100
AcDb2dVertex
 10
14.10801982862891
 20
124.1599451578361
 30
0.0
  0
SEQEND
  5
574
330
571
100
AcDbEntity
  8
_____1
  0
POLYLINE
  5
575
330
3C
100
AcDbEntity
  8
_____1
 62
     7
100
AcDb2dPolyline
 66
     1
 10
0.0
 20
0.0
 30
0.0
  0
VERTEX
  5
576
330
575
100
AcDbEntity
  8
_____1
 62
     7
100
AcDbVertex
100
AcDb2dVertex
 10
59.44705661739582
 20
144.9201042473132
 30
0.0
  0
VERTEX
  5
577
330
575
100
AcDbEntity
  8
_____1
 62
     7
100
AcDbVertex
100
AcDb2dVertex
 10
59.44705661739582
 20
124.1599451578361
 30
0.0
  0
SEQEND
  5
578
330
575
100
AcDbEntity
  8
_____1
  0
POLYLINE
  5
579
330
3C
100
AcDbEntity
  8
_____1
 62
     7
100
AcDb2dPolyline
 66
     1
 10
0.0
 20
0.0
 30
0.0
  0
VERTEX
  5
57A
330
579
100
AcDbEntity
  8
_____1
 62
     7
100
AcDbVertex
100
AcDb2dVertex
 10
124.2383211318297
 20
144.8436230770864
 30
0.0
  0
VERTEX
  5
57B
330
579
100
AcDbEntity
  8
_____1
 62
     7
100
AcDbVertex
100
AcDb2dVertex
 10
124.2383211318297
 20
140.1217720900242
 30
0.0
  0
VERTEX
  5
57C
330
579
100
AcDbEntity
  8
_____1
 62
     7
100
AcDbVertex
100
AcDb2dVertex
 10
126.2530143006857
 20
140.1217720900242
 30
0.0
  0
SEQEND
  5
57D
330
579
100
AcDbEntity
  8
_____1
  0
POLYLINE
  5
57E
330
3C
100
AcDbEntity
  8
_____1
 62
     7
100
AcDb2dPolyline
 66
     1
 10
0.0
 20
0.0
 30
0.0
  0
VERTEX
  5
57F
330
57E
100
AcDbEntity
  8
_____1
 62
     7
100
AcDbVertex
100
AcDb2dVertex
 10
126.2530143006857
 20
131.9537898156728
 30
0.0
  0
VERTEX
  5
580
330
57E
100
AcDbEntity
  8
_____1
 62
     7
100
AcDbVertex
100
AcDb2dVertex
 10
124.8363901026118
 20
131.9537898156728
 30
0.0
  0
VERTEX
  5
581
330
57E
100
AcDbEntity
  8
_____1
 62
     7
100
AcDbVertex
100
AcDb2dVertex
 10
124.8363901026118
 20
127.2315943188347
 30
0.0
  0
VERTEX
  5
582
330
57E
100
AcDbEntity
  8
_____1
 62
     7
100
AcDbVertex
100
AcDb2dVertex
 10
126.2530143006857
 20
127.2315943188347
 30
0.0
  0
SEQEND
  5
583
330
57E
100
AcDbEntity
  8
_____1
  0
POLYLINE
  5
584
330
3C
100
AcDbEntity
  8
_____1
 62
     7
100
AcDb2dPolyline
 66
     1
 10
0.0
 20
0.0
 30
0.0
  0
VERTEX
  5
585
330
584
100
AcDbEntity
  8
_____1
 62
     7
100
AcDbVertex
100
AcDb2dVertex
 10
12.01753450909776
 20
132.1780656797161
 30
0.0
  0
VERTEX
  5
586
330
584
100
AcDbEntity
  8
_____1
 62
     7
100
AcDbVertex
100
AcDb2dVertex
 10
13.80898534323784
 20
132.1780656797161
 30
0.0
  0
VERTEX
  5
587
330
584
100
AcDbEntity
  8
_____1
 62
     7
100
AcDbVertex
100
AcDb2dVertex
 10
13.80898534323784
 20
127.6064209549009
 30
0.0
  0
VERTEX
  5
588
330
584
100
AcDbEntity
  8
_____1
 62
     7
100
AcDbVertex
100
AcDb2dVertex
 10
12.09263764022132
 20
127.6064209549009
 30
0.0
  0
SEQEND
  5
589
330
584
100
AcDbEntity
  8
_____1
  0
POLYLINE
  5
58A
330
3C
100
AcDbEntity
  8
_____1
 62
     7
100
AcDb2dPolyline
 66
     1
 10
0.0
 20
0.0
 30
0.0
  0
VERTEX
  5
58B
330
58A
100
AcDbEntity
  8
_____1
 62
     7
100
AcDbVertex
100
AcDb2dVertex
 10
57.57344020172835
 20
132.1780656797161
 30
0.0
  0
VERTEX
  5
58C
330
58A
100
AcDbEntity
  8
_____1
 62
     7
100
AcDbVertex
100
AcDb2dVertex
 10
59.33509094026206
 20
132.1780656797161
 30
0.0
  0
VERTEX
  5
58D
330
58A
100
AcDbEntity
  8
_____1
 62
     7
100
AcDbVertex
100
AcDb2dVertex
 10
59.33509094026206
 20
127.6057319353494
 30
0.0
  0
VERTEX
  5
58E
330
58A
100
AcDbEntity
  8
_____1
 62
     7
100
AcDbVertex
100
AcDb2dVertex
 10
57.57344020172835
 20
127.6057319353494
 30
0.0
  0
VERTEX
  5
58F
330
58A
100
AcDbEntity
  8
_____1
 62
     7
100
AcDbVertex
100
AcDb2dVertex
 10
57.57344020172835
 20
132.1780656797161
 30
0.0
  0
SEQEND
  5
590
330
58A
100
AcDbEntity
  8
_____1
  0
POLYLINE
  5
591
330
3C
100
AcDbEntity
  8
_____1
 62
     7
100
AcDb2dPolyline
 66
     1
 10
0.0
 20
0.0
 30
0.0
  0
VERTEX
  5
592
330
591
100
AcDbEntity
  8
_____1
 62
     7
100
AcDbVertex
100
AcDb2dVertex
 10
57.57344020172835
 20
144.9201042473132
 30
0.0
  0
VERTEX
  5
593
330
591
100
AcDbEntity
  8
_____1
 62
     7
100
AcDbVertex
100
AcDb2dVertex
 10
57.57344020172835
 20
124.1599451578361
 30
0.0
  0
SEQEND
  5
594
330
591
100
AcDbEntity
  8
_____1
  0
POLYLINE
  5
595
330
3C
100
AcDbEntity
  8
_____1
 62
     7
100
AcDb2dPolyline
 66
     1
 10
0.0
 20
0.0
 30
0.0
  0
VERTEX
  5
596
330
595
100
AcDbEntity
  8
_____1
 62
     7
100
AcDbVertex
100
AcDb2dVertex
 10
55.82660338355387
 20
132.1780656797161
 30
0.0
  0
VERTEX
  5
597
330
595
100
AcDbEntity
  8
_____1
 62
     7
100
AcDbVertex
100
AcDb2dVertex
 10
57.57292343706465
 20
132.1780656797161
 30
0.0
  0
VERTEX
  5
598
330
595
100
AcDbEntity
  8
_____1
 62
     7
100
AcDbVertex
100
AcDb2dVertex
 10
57.57292343706465
 20
127.6057319353494
 30
0.0
  0
VERTEX
  5
599
330
595
100
AcDbEntity
  8
_____1
 62
     7
100
AcDbVertex
100
AcDb2dVertex
 10
55.82660338355387
 20
127.6057319353494
 30
0.0
  0
VERTEX
  5
59A
330
595
100
AcDbEntity
  8
_____1
 62
     7
100
AcDbVertex
100
AcDb2dVertex
 10
55.82660338355387
 20
132.1780656797161
 30
0.0
  0
SEQEND
  5
59B
330
595
100
AcDbEntity
  8
_____1
  0
POLYLINE
  5
59C
330
3C
100
AcDbEntity
  8
_____1
 62
     7
100
AcDb2dPolyline
 66
     1
 10
0.0
 20
0.0
 30
0.0
  0
VERTEX
  5
59D
330
59C
100
AcDbEntity
  8
_____1
 62
     7
100
AcDbVertex
100
AcDb2dVertex
 10
57.57344020172835
 20
144.8911654261463
 30
0.0
  0
VERTEX
  5
59E
330
59C
100
AcDbEntity
  8
_____1
 62
     7
100
AcDbVertex
100
AcDb2dVertex
 10
59.33509094026206
 20
144.8911654261463
 30
0.0
  0
VERTEX
  5
59F
330
59C
100
AcDbEntity
  8
_____1
 62
     7
100
AcDbVertex
100
AcDb2dVertex
 10
59.33509094026206
 20
140.3188316817796
 30
0.0
  0
VERTEX
  5
5A0
330
59C
100
AcDbEntity
  8
_____1
 62
     7
100
AcDbVertex
100
AcDb2dVertex
 10
57.57344020172835
 20
140.3188316817796
 30
0.0
  0
VERTEX
  5
5A1
330
59C
100
AcDbEntity
  8
_____1
 62
     7
100
AcDbVertex
100
AcDb2dVertex
 10
57.57344020172835
 20
144.8911654261463
 30
0.0
  0
SEQEND
  5
5A2
330
59C
100
AcDbEntity
  8
_____1
  0
POLYLINE
  5
5A3
330
3C
100
AcDbEntity
  8
_____1
 62
     7
100
AcDb2dPolyline
 66
     1
 10
0.0
 20
0.0
 30
0.0
  0
VERTEX
  5
5A4
330
5A3
100
AcDbEntity
  8
_____1
 62
     7
100
AcDbVertex
100
AcDb2dVertex
 10
55.82660338355387
 20
144.8911654261463
 30
0.0
  0
VERTEX
  5
5A5
330
5A3
100
AcDbEntity
  8
_____1
 62
     7
100
AcDbVertex
100
AcDb2dVertex
 10
57.57292343706465
 20
144.8911654261463
 30
0.0
  0
VERTEX
  5
5A6
330
5A3
100
AcDbEntity
  8
_____1
 62
     7
100
AcDbVertex
100
AcDb2dVertex
 10
57.57292343706465
 20
140.3188316817796
 30
0.0
  0
VERTEX
  5
5A7
330
5A3
100
AcDbEntity
  8
_____1
 62
     7
100
AcDbVertex
100
AcDb2dVertex
 10
55.82660338355387
 20
140.3188316817796
 30
0.0
  0
VERTEX
  5
5A8
330
5A3
100
AcDbEntity
  8
_____1
 62
     7
100
AcDbVertex
100
AcDb2dVertex
 10
55.82660338355387
 20
144.8911654261463
 30
0.0
  0
SEQEND
  5
5A9
330
5A3
100
AcDbEntity
  8
_____1
  0
POLYLINE
  5
5AA
330
3C
100
AcDbEntity
  8
_____1
 62
     7
100
AcDb2dPolyline
 66
     1
 10
0.0
 20
0.0
 30
0.0
  0
VERTEX
  5
5AB
330
5AA
100
AcDbEntity
  8
_____1
 62
     7
100
AcDbVertex
100
AcDb2dVertex
 10
12.09263764022132
 20
140.4225291242942
 30
0.0
  0
VERTEX
  5
5AC
330
5AA
100
AcDbEntity
  8
_____1
 62
     7
100
AcDbVertex
100
AcDb2dVertex
 10
14.03395022683273
 20
140.4225291242942
 30
0.0
  0
SEQEND
  5
5AD
330
5AA
100
AcDbEntity
  8
_____1
  0
POLYLINE
  5
5AE
330
3C
100
AcDbEntity
  8
_____1
 62
     7
100
AcDb2dPolyline
 66
     1
 10
0.0
 20
0.0
 30
0.0
  0
VERTEX
  5
5AF
330
5AE
100
AcDbEntity
  8
_____1
 62
     7
100
AcDbVertex
100
AcDb2dVertex
 10
42.23603723817081
 20
170.8990696754386
 30
0.0
  0
VERTEX
  5
5B0
330
5AE
100
AcDbEntity
  8
_____1
 62
     7
100
AcDbVertex
100
AcDb2dVertex
 10
43.04098432931856
 20
170.8990696754386
 30
0.0
  0
VERTEX
  5
5B1
330
5AE
100
AcDbEntity
  8
_____1
 62
     7
100
AcDbVertex
100
AcDb2dVertex
 10
43.04098432931856
 20
171.5631122682857
 30
0.0
  0
VERTEX
  5
5B2
330
5AE
100
AcDbEntity
  8
_____1
 62
     7
100
AcDbVertex
100
AcDb2dVertex
 10
42.23603723817081
 20
171.5631122682857
 30
0.0
  0
VERTEX
  5
5B3
330
5AE
100
AcDbEntity
  8
_____1
 62
     7
100
AcDbVertex
100
AcDb2dVertex
 10
42.23603723817081
 20
170.8990696754386
 30
0.0
  0
SEQEND
  5
5B4
330
5AE
100
AcDbEntity
  8
_____1
  0
POLYLINE
  5
5B5
330
3C
100
AcDbEntity
  8
_____1
 62
     7
100
AcDb2dPolyline
 66
     1
 10
0.0
 20
0.0
 30
0.0
  0
VERTEX
  5
5B6
330
5B5
100
AcDbEntity
  8
_____1
 62
     7
100
AcDbVertex
100
AcDb2dVertex
 10
44.99538828741022
 20
170.8990696754386
 30
0.0
  0
VERTEX
  5
5B7
330
5B5
100
AcDbEntity
  8
_____1
 62
     7
100
AcDbVertex
100
AcDb2dVertex
 10
45.80033537855797
 20
170.8990696754386
 30
0.0
  0
VERTEX
  5
5B8
330
5B5
100
AcDbEntity
  8
_____1
 62
     7
100
AcDbVertex
100
AcDb2dVertex
 10
45.80033537855797
 20
171.5631122682857
 30
0.0
  0
VERTEX
  5
5B9
330
5B5
100
AcDbEntity
  8
_____1
 62
     7
100
AcDbVertex
100
AcDb2dVertex
 10
44.99538828741022
 20
171.5631122682857
 30
0.0
  0
VERTEX
  5
5BA
330
5B5
100
AcDbEntity
  8
_____1
 62
     7
100
AcDbVertex
100
AcDb2dVertex
 10
44.99538828741022
 20
170.8990696754386
 30
0.0
  0
SEQEND
  5
5BB
330
5B5
100
AcDbEntity
  8
_____1
  0
POLYLINE
  5
5BC
330
3C
100
AcDbEntity
  8
_____1
 62
     7
100
AcDb2dPolyline
 66
     1
 10
0.0
 20
0.0
 30
0.0
  0
VERTEX
  5
5BD
330
5BC
100
AcDbEntity
  8
_____1
 62
     7
100
AcDbVertex
100
AcDb2dVertex
 10
47.75611737575282
 20
170.8990696754386
 30
0.0
  0
VERTEX
  5
5BE
330
5BC
100
AcDbEntity
  8
_____1
 62
     7
100
AcDbVertex
100
AcDb2dVertex
 10
48.56037544734898
 20
170.8990696754386
 30
0.0
  0
VERTEX
  5
5BF
330
5BC
100
AcDbEntity
  8
_____1
 62
     7
100
AcDbVertex
100
AcDb2dVertex
 10
48.56037544734898
 20
171.5631122682857
 30
0.0
  0
VERTEX
  5
5C0
330
5BC
100
AcDbEntity
  8
_____1
 62
     7
100
AcDbVertex
100
AcDb2dVertex
 10
47.75611737575282
 20
171.5631122682857
 30
0.0
  0
VERTEX
  5
5C1
330
5BC
100
AcDbEntity
  8
_____1
 62
     7
100
AcDbVertex
100
AcDb2dVertex
 10
47.75611737575282
 20
170.8990696754386
 30
0.0
  0
SEQEND
  5
5C2
330
5BC
100
AcDbEntity
  8
_____1
  0
POLYLINE
  5
5C3
330
3C
100
AcDbEntity
  8
_____1
 62
     7
100
AcDb2dPolyline
 66
     1
 10
0.0
 20
0.0
 30
0.0
  0
VERTEX
  5
5C4
330
5C3
100
AcDbEntity
  8
_____1
 62
     7
100
AcDbVertex
100
AcDb2dVertex
 10
32.44214107694943
 20
166.973897544905
 30
0.0
  0
VERTEX
  5
5C5
330
5C3
100
AcDbEntity
  8
_____1
 62
     7
100
AcDbVertex
100
AcDb2dVertex
 10
34.93329126573152
 20
166.973897544905
 30
0.0
  0
VERTEX
  5
5C6
330
5C3
100
AcDbEntity
  8
_____1
 62
     7
100
AcDbVertex
100
AcDb2dVertex
 10
34.93329126573152
 20
172.2269826062449
 30
0.0
  0
VERTEX
  5
5C7
330
5C3
100
AcDbEntity
  8
_____1
 62
     7
100
AcDbVertex
100
AcDb2dVertex
 10
32.44214107694943
 20
172.2269826062449
 30
0.0
  0
VERTEX
  5
5C8
330
5C3
100
AcDbEntity
  8
_____1
 62
     7
100
AcDbVertex
100
AcDb2dVertex
 10
32.44214107694943
 20
166.973897544905
 30
0.0
  0
SEQEND
  5
5C9
330
5C3
100
AcDbEntity
  8
_____1
  0
POLYLINE
  5
5CA
330
3C
100
AcDbEntity
  8
_____1
 62
     7
100
AcDb2dPolyline
 66
     1
 10
0.0
 20
0.0
 30
0.0
  0
VERTEX
  5
5CB
330
5CA
100
AcDbEntity
  8
_____1
 62
     7
100
AcDbVertex
100
AcDb2dVertex
 10
34.9622300868984
 20
167.2615632076948
 30
0.0
  0
VERTEX
  5
5CC
330
5CA
100
AcDbEntity
  8
_____1
 62
     7
100
AcDbVertex
100
AcDb2dVertex
 10
42.20744292677973
 20
167.2615632076948
 30
0.0
  0
VERTEX
  5
5CD
330
5CA
100
AcDbEntity
  8
_____1
 62
     7
100
AcDbVertex
100
AcDb2dVertex
 10
42.20744292677973
 20
171.937766649464
 30
0.0
  0
VERTEX
  5
5CE
330
5CA
100
AcDbEntity
  8
_____1
 62
     7
100
AcDbVertex
100
AcDb2dVertex
 10
34.9622300868984
 20
171.937766649464
 30
0.0
  0
SEQEND
  5
5CF
330
5CA
100
AcDbEntity
  8
_____1
  0
POLYLINE
  5
5D0
330
3C
100
AcDbEntity
  8
_____1
 62
     7
100
AcDb2dPolyline
 66
     1
 10
0.0
 20
0.0
 30
0.0
  0
VERTEX
  5
5D1
330
5D0
100
AcDbEntity
  8
_____1
 62
     7
100
AcDbVertex
100
AcDb2dVertex
 10
41.68930022398229
 20
167.2615632076948
 30
0.0
  0
VERTEX
  5
5D2
330
5D0
100
AcDbEntity
  8
_____1
 62
     7
100
AcDbVertex
100
AcDb2dVertex
 10
41.68930022398229
 20
171.937766649464
 30
0.0
  0
SEQEND
  5
5D3
330
5D0
100
AcDbEntity
  8
_____1
  0
POLYLINE
  5
5D4
330
3C
100
AcDbEntity
  8
_____1
 62
     7
100
AcDb2dPolyline
 66
     1
 10
0.0
 20
0.0
 30
0.0
  0
VERTEX
  5
5D5
330
5D4
100
AcDbEntity
  8
_____1
 62
     7
100
AcDbVertex
100
AcDb2dVertex
 10
41.31464584280396
 20
167.2615632076948
 30
0.0
  0
VERTEX
  5
5D6
330
5D4
100
AcDbEntity
  8
_____1
 62
     7
100
AcDbVertex
100
AcDb2dVertex
 10
41.31464584280396
 20
171.937766649464
 30
0.0
  0
SEQEND
  5
5D7
330
5D4
100
AcDbEntity
  8
_____1
  0
POLYLINE
  5
5D8
330
3C
100
AcDbEntity
  8
_____1
 62
     7
100
AcDb2dPolyline
 66
     1
 10
0.0
 20
0.0
 30
0.0
  0
VERTEX
  5
5D9
330
5D8
100
AcDbEntity
  8
_____1
 62
     7
100
AcDbVertex
100
AcDb2dVertex
 10
39.73541303055432
 20
167.2615632076948
 30
0.0
  0
VERTEX
  5
5DA
330
5D8
100
AcDbEntity
  8
_____1
 62
     7
100
AcDbVertex
100
AcDb2dVertex
 10
39.73541303055432
 20
171.937766649464
 30
0.0
  0
SEQEND
  5
5DB
330
5D8
100
AcDbEntity
  8
_____1
  0
POLYLINE
  5
5DC
330
3C
100
AcDbEntity
  8
_____1
 62
     7
100
AcDb2dPolyline
 66
     1
 10
0.0
 20
0.0
 30
0.0
  0
VERTEX
  5
5DD
330
5DC
100
AcDbEntity
  8
_____1
 62
     7
100
AcDbVertex
100
AcDb2dVertex
 10
39.24500336470847
 20
167.2615632076948
 30
0.0
  0
VERTEX
  5
5DE
330
5DC
100
AcDbEntity
  8
_____1
 62
     7
100
AcDbVertex
100
AcDb2dVertex
 10
39.24500336470847
 20
171.937766649464
 30
0.0
  0
SEQEND
  5
5DF
330
5DC
100
AcDbEntity
  8
_____1
  0
POLYLINE
  5
5E0
330
3C
100
AcDbEntity
  8
_____1
 62
     7
100
AcDb2dPolyline
 66
     1
 10
0.0
 20
0.0
 30
0.0
  0
VERTEX
  5
5E1
330
5E0
100
AcDbEntity
  8
_____1
 62
     7
100
AcDbVertex
100
AcDb2dVertex
 10
38.7575220319569
 20
167.2615632076948
 30
0.0
  0
VERTEX
  5
5E2
330
5E0
100
AcDbEntity
  8
_____1
 62
     7
100
AcDbVertex
100
AcDb2dVertex
 10
38.7575220319569
 20
171.937766649464
 30
0.0
  0
SEQEND
  5
5E3
330
5E0
100
AcDbEntity
  8
_____1
  0
POLYLINE
  5
5E4
330
3C
100
AcDbEntity
  8
_____1
 62
     7
100
AcDb2dPolyline
 66
     1
 10
0.0
 20
0.0
 30
0.0
  0
VERTEX
  5
5E5
330
5E4
100
AcDbEntity
  8
_____1
 62
     7
100
AcDbVertex
100
AcDb2dVertex
 10
38.26831815032634
 20
167.2615632076948
 30
0.0
  0
VERTEX
  5
5E6
330
5E4
100
AcDbEntity
  8
_____1
 62
     7
100
AcDbVertex
100
AcDb2dVertex
 10
38.26831815032634
 20
171.937766649464
 30
0.0
  0
SEQEND
  5
5E7
330
5E4
100
AcDbEntity
  8
_____1
  0
POLYLINE
  5
5E8
330
3C
100
AcDbEntity
  8
_____1
 62
     7
100
AcDb2dPolyline
 66
     1
 10
0.0
 20
0.0
 30
0.0
  0
VERTEX
  5
5E9
330
5E8
100
AcDbEntity
  8
_____1
 62
     7
100
AcDbVertex
100
AcDb2dVertex
 10
37.77928652358367
 20
167.2615632076948
 30
0.0
  0
VERTEX
  5
5EA
330
5E8
100
AcDbEntity
  8
_____1
 62
     7
100
AcDbVertex
100
AcDb2dVertex
 10
37.77928652358367
 20
171.937766649464
 30
0.0
  0
SEQEND
  5
5EB
330
5E8
100
AcDbEntity
  8
_____1
  0
POLYLINE
  5
5EC
330
3C
100
AcDbEntity
  8
_____1
 62
     7
100
AcDb2dPolyline
 66
     1
 10
0.0
 20
0.0
 30
0.0
  0
VERTEX
  5
5ED
330
5EC
100
AcDbEntity
  8
_____1
 62
     7
100
AcDbVertex
100
AcDb2dVertex
 10
37.2911161712805
 20
167.2615632076948
 30
0.0
  0
VERTEX
  5
5EE
330
5EC
100
AcDbEntity
  8
_____1
 62
     7
100
AcDbVertex
100
AcDb2dVertex
 10
37.2911161712805
 20
171.937766649464
 30
0.0
  0
SEQEND
  5
5EF
330
5EC
100
AcDbEntity
  8
_____1
  0
POLYLINE
  5
5F0
330
3C
100
AcDbEntity
  8
_____1
 62
     7
100
AcDb2dPolyline
 66
     1
 10
0.0
 20
0.0
 30
0.0
  0
VERTEX
  5
5F1
330
5F0
100
AcDbEntity
  8
_____1
 62
     7
100
AcDbVertex
100
AcDb2dVertex
 10
36.80311807386523
 20
167.2615632076948
 30
0.0
  0
VERTEX
  5
5F2
330
5F0
100
AcDbEntity
  8
_____1
 62
     7
100
AcDbVertex
100
AcDb2dVertex
 10
36.80311807386523
 20
171.937766649464
 30
0.0
  0
SEQEND
  5
5F3
330
5F0
100
AcDbEntity
  8
_____1
  0
POLYLINE
  5
5F4
330
3C
100
AcDbEntity
  8
_____1
 62
     7
100
AcDb2dPolyline
 66
     1
 10
0.0
 20
0.0
 30
0.0
  0
VERTEX
  5
5F5
330
5F4
100
AcDbEntity
  8
_____1
 62
     7
100
AcDbVertex
100
AcDb2dVertex
 10
36.31356968245887
 20
167.2615632076948
 30
0.0
  0
VERTEX
  5
5F6
330
5F4
100
AcDbEntity
  8
_____1
 62
     7
100
AcDbVertex
100
AcDb2dVertex
 10
36.31356968245887
 20
171.937766649464
 30
0.0
  0
SEQEND
  5
5F7
330
5F4
100
AcDbEntity
  8
_____1
  0
POLYLINE
  5
5F8
330
3C
100
AcDbEntity
  8
_____1
 62
     7
100
AcDb2dPolyline
 66
     1
 10
0.0
 20
0.0
 30
0.0
  0
VERTEX
  5
5F9
330
5F8
100
AcDbEntity
  8
_____1
 62
     7
100
AcDbVertex
100
AcDb2dVertex
 10
35.82453805571621
 20
167.2615632076948
 30
0.0
  0
VERTEX
  5
5FA
330
5F8
100
AcDbEntity
  8
_____1
 62
     7
100
AcDbVertex
100
AcDb2dVertex
 10
35.82453805571621
 20
171.937766649464
 30
0.0
  0
SEQEND
  5
5FB
330
5F8
100
AcDbEntity
  8
_____1
  0
POLYLINE
  5
5FC
330
3C
100
AcDbEntity
  8
_____1
 62
     7
100
AcDb2dPolyline
 66
     1
 10
0.0
 20
0.0
 30
0.0
  0
VERTEX
  5
5FD
330
5FC
100
AcDbEntity
  8
_____1
 62
     7
100
AcDbVertex
100
AcDb2dVertex
 10
35.33602319363725
 20
167.2615632076948
 30
0.0
  0
VERTEX
  5
5FE
330
5FC
100
AcDbEntity
  8
_____1
 62
     7
100
AcDbVertex
100
AcDb2dVertex
 10
35.33602319363725
 20
171.937766649464
 30
0.0
  0
SEQEND
  5
5FF
330
5FC
100
AcDbEntity
  8
_____1
  0
POLYLINE
  5
600
330
3C
100
AcDbEntity
  8
_____1
 62
     7
100
AcDb2dPolyline
 66
     1
 10
0.0
 20
0.0
 30
0.0
  0
VERTEX
  5
601
330
600
100
AcDbEntity
  8
_____1
 62
     7
100
AcDbVertex
100
AcDb2dVertex
 10
32.44214107694943
 20
168.1572886247648
 30
0.0
  0
VERTEX
  5
602
330
600
100
AcDbEntity
  8
_____1
 62
     7
100
AcDbVertex
100
AcDb2dVertex
 10
31.11009402883354
 20
168.1572886247648
 30
0.0
  0
VERTEX
  5
603
330
600
100
AcDbEntity
  8
_____1
 62
     7
100
AcDbVertex
100
AcDb2dVertex
 10
31.11009402883354
 20
171.0435915263851
 30
0.0
  0
VERTEX
  5
604
330
600
100
AcDbEntity
  8
_____1
 62
     7
100
AcDbVertex
100
AcDb2dVertex
 10
32.44214107694943
 20
171.0435915263851
 30
0.0
  0
SEQEND
  5
605
330
600
100
AcDbEntity
  8
_____1
  0
POLYLINE
  5
606
330
3C
100
AcDbEntity
  8
_____1
 62
     7
100
AcDb2dPolyline
 66
     1
 10
0.0
 20
0.0
 30
0.0
  0
VERTEX
  5
607
330
606
100
AcDbEntity
  8
_____1
 62
     7
100
AcDbVertex
100
AcDb2dVertex
 10
32.44214107694943
 20
168.7911866122298
 30
0.0
  0
VERTEX
  5
608
330
606
100
AcDbEntity
  8
_____1
 62
     7
100
AcDbVertex
100
AcDb2dVertex
 10
31.80031936464116
 20
168.7911866122298
 30
0.0
  0
VERTEX
  5
609
330
606
100
AcDbEntity
  8
_____1
 62
     7
100
AcDbVertex
100
AcDb2dVertex
 10
31.80031936464116
 20
170.408315499817
 30
0.0
  0
VERTEX
  5
60A
330
606
100
AcDbEntity
  8
_____1
 62
     7
100
AcDbVertex
100
AcDb2dVertex
 10
32.44214107694943
 20
170.408315499817
 30
0.0
  0
SEQEND
  5
60B
330
606
100
AcDbEntity
  8
_____1
  0
POLYLINE
  5
60C
330
3C
100
AcDbEntity
  8
_____1
 62
     7
100
AcDb2dPolyline
 66
     1
 10
0.0
 20
0.0
 30
0.0
  0
VERTEX
  5
60D
330
60C
100
AcDbEntity
  8
_____1
 62
     7
100
AcDbVertex
100
AcDb2dVertex
 10
42.23603723817081
 20
168.3016382208234
 30
0.0
  0
VERTEX
  5
60E
330
60C
100
AcDbEntity
  8
_____1
 62
     7
100
AcDbVertex
100
AcDb2dVertex
 10
43.04098432931856
 20
168.3016382208234
 30
0.0
  0
VERTEX
  5
60F
330
60C
100
AcDbEntity
  8
_____1
 62
     7
100
AcDbVertex
100
AcDb2dVertex
 10
43.04098432931856
 20
167.6377678828642
 30
0.0
  0
VERTEX
  5
610
330
60C
100
AcDbEntity
  8
_____1
 62
     7
100
AcDbVertex
100
AcDb2dVertex
 10
42.23603723817081
 20
167.6377678828642
 30
0.0
  0
VERTEX
  5
611
330
60C
100
AcDbEntity
  8
_____1
 62
     7
100
AcDbVertex
100
AcDb2dVertex
 10
42.23603723817081
 20
168.3016382208234
 30
0.0
  0
SEQEND
  5
612
330
60C
100
AcDbEntity
  8
_____1
  0
POLYLINE
  5
613
330
3C
100
AcDbEntity
  8
_____1
 62
     7
100
AcDb2dPolyline
 66
     1
 10
0.0
 20
0.0
 30
0.0
  0
VERTEX
  5
614
330
613
100
AcDbEntity
  8
_____1
 62
     7
100
AcDbVertex
100
AcDb2dVertex
 10
44.99538828741022
 20
168.3016382208234
 30
0.0
  0
VERTEX
  5
615
330
613
100
AcDbEntity
  8
_____1
 62
     7
100
AcDbVertex
100
AcDb2dVertex
 10
45.80033537855797
 20
168.3016382208234
 30
0.0
  0
VERTEX
  5
616
330
613
100
AcDbEntity
  8
_____1
 62
     7
100
AcDbVertex
100
AcDb2dVertex
 10
45.80033537855797
 20
167.6377678828642
 30
0.0
  0
VERTEX
  5
617
330
613
100
AcDbEntity
  8
_____1
 62
     7
100
AcDbVertex
100
AcDb2dVertex
 10
44.99538828741022
 20
167.6377678828642
 30
0.0
  0
VERTEX
  5
618
330
613
100
AcDbEntity
  8
_____1
 62
     7
100
AcDbVertex
100
AcDb2dVertex
 10
44.99538828741022
 20
168.3016382208234
 30
0.0
  0
SEQEND
  5
619
330
613
100
AcDbEntity
  8
_____1
  0
POLYLINE
  5
61A
330
3C
100
AcDbEntity
  8
_____1
 62
     7
100
AcDb2dPolyline
 66
     1
 10
0.0
 20
0.0
 30
0.0
  0
VERTEX
  5
61B
330
61A
100
AcDbEntity
  8
_____1
 62
     7
100
AcDbVertex
100
AcDb2dVertex
 10
47.75611737575282
 20
168.3016382208234
 30
0.0
  0
VERTEX
  5
61C
330
61A
100
AcDbEntity
  8
_____1
 62
     7
100
AcDbVertex
100
AcDb2dVertex
 10
48.56037544734898
 20
168.3016382208234
 30
0.0
  0
VERTEX
  5
61D
330
61A
100
AcDbEntity
  8
_____1
 62
     7
100
AcDbVertex
100
AcDb2dVertex
 10
48.56037544734898
 20
167.6377678828642
 30
0.0
  0
VERTEX
  5
61E
330
61A
100
AcDbEntity
  8
_____1
 62
     7
100
AcDbVertex
100
AcDb2dVertex
 10
47.75611737575282
 20
167.6377678828642
 30
0.0
  0
VERTEX
  5
61F
330
61A
100
AcDbEntity
  8
_____1
 62
     7
100
AcDbVertex
100
AcDb2dVertex
 10
47.75611737575282
 20
168.3016382208234
 30
0.0
  0
SEQEND
  5
620
330
61A
100
AcDbEntity
  8
_____1
  0
POLYLINE
  5
621
330
3C
100
AcDbEntity
  8
_____1
 62
     7
100
AcDb2dPolyline
 66
     1
 10
0.0
 20
0.0
 30
0.0
  0
VERTEX
  5
622
330
621
100
AcDbEntity
  8
_____1
 62
     7
100
AcDbVertex
100
AcDb2dVertex
 10
68.30474746289112
 20
170.8990696754386
 30
0.0
  0
VERTEX
  5
623
330
621
100
AcDbEntity
  8
_____1
 62
     7
100
AcDbVertex
100
AcDb2dVertex
 10
69.10969455403885
 20
170.8990696754386
 30
0.0
  0
VERTEX
  5
624
330
621
100
AcDbEntity
  8
_____1
 62
     7
100
AcDbVertex
100
AcDb2dVertex
 10
69.10969455403885
 20
171.5631122682857
 30
0.0
  0
VERTEX
  5
625
330
621
100
AcDbEntity
  8
_____1
 62
     7
100
AcDbVertex
100
AcDb2dVertex
 10
68.30474746289112
 20
171.5631122682857
 30
0.0
  0
VERTEX
  5
626
330
621
100
AcDbEntity
  8
_____1
 62
     7
100
AcDbVertex
100
AcDb2dVertex
 10
68.30474746289112
 20
170.8990696754386
 30
0.0
  0
SEQEND
  5
627
330
621
100
AcDbEntity
  8
_____1
  0
POLYLINE
  5
628
330
3C
100
AcDbEntity
  8
_____1
 62
     7
100
AcDb2dPolyline
 66
     1
 10
0.0
 20
0.0
 30
0.0
  0
VERTEX
  5
629
330
628
100
AcDbEntity
  8
_____1
 62
     7
100
AcDbVertex
100
AcDb2dVertex
 10
71.06478753168211
 20
170.8990696754386
 30
0.0
  0
VERTEX
  5
62A
330
628
100
AcDbEntity
  8
_____1
 62
     7
100
AcDbVertex
100
AcDb2dVertex
 10
71.86973462282987
 20
170.8990696754386
 30
0.0
  0
VERTEX
  5
62B
330
628
100
AcDbEntity
  8
_____1
 62
     7
100
AcDbVertex
100
AcDb2dVertex
 10
71.86973462282987
 20
171.5631122682857
 30
0.0
  0
VERTEX
  5
62C
330
628
100
AcDbEntity
  8
_____1
 62
     7
100
AcDbVertex
100
AcDb2dVertex
 10
71.06478753168211
 20
171.5631122682857
 30
0.0
  0
VERTEX
  5
62D
330
628
100
AcDbEntity
  8
_____1
 62
     7
100
AcDbVertex
100
AcDb2dVertex
 10
71.06478753168211
 20
170.8990696754386
 30
0.0
  0
SEQEND
  5
62E
330
628
100
AcDbEntity
  8
_____1
  0
POLYLINE
  5
62F
330
3C
100
AcDbEntity
  8
_____1
 62
     7
100
AcDb2dPolyline
 66
     1
 10
0.0
 20
0.0
 30
0.0
  0
VERTEX
  5
630
330
62F
100
AcDbEntity
  8
_____1
 62
     7
100
AcDbVertex
100
AcDb2dVertex
 10
68.30474746289112
 20
168.3016382208234
 30
0.0
  0
VERTEX
  5
631
330
62F
100
AcDbEntity
  8
_____1
 62
     7
100
AcDbVertex
100
AcDb2dVertex
 10
69.10969455403885
 20
168.3016382208234
 30
0.0
  0
VERTEX
  5
632
330
62F
100
AcDbEntity
  8
_____1
 62
     7
100
AcDbVertex
100
AcDb2dVertex
 10
69.10969455403885
 20
167.6377678828642
 30
0.0
  0
VERTEX
  5
633
330
62F
100
AcDbEntity
  8
_____1
 62
     7
100
AcDbVertex
100
AcDb2dVertex
 10
68.30474746289112
 20
167.6377678828642
 30
0.0
  0
VERTEX
  5
634
330
62F
100
AcDbEntity
  8
_____1
 62
     7
100
AcDbVertex
100
AcDb2dVertex
 10
68.30474746289112
 20
168.3016382208234
 30
0.0
  0
SEQEND
  5
635
330
62F
100
AcDbEntity
  8
_____1
  0
POLYLINE
  5
636
330
3C
100
AcDbEntity
  8
_____1
 62
     7
100
AcDb2dPolyline
 66
     1
 10
0.0
 20
0.0
 30
0.0
  0
VERTEX
  5
637
330
636
100
AcDbEntity
  8
_____1
 62
     7
100
AcDbVertex
100
AcDb2dVertex
 10
71.06478753168211
 20
168.3016382208234
 30
0.0
  0
VERTEX
  5
638
330
636
100
AcDbEntity
  8
_____1
 62
     7
100
AcDbVertex
100
AcDb2dVertex
 10
71.86973462282987
 20
168.3016382208234
 30
0.0
  0
VERTEX
  5
639
330
636
100
AcDbEntity
  8
_____1
 62
     7
100
AcDbVertex
100
AcDb2dVertex
 10
71.86973462282987
 20
167.6377678828642
 30
0.0
  0
VERTEX
  5
63A
330
636
100
AcDbEntity
  8
_____1
 62
     7
100
AcDbVertex
100
AcDb2dVertex
 10
71.06478753168211
 20
167.6377678828642
 30
0.0
  0
VERTEX
  5
63B
330
636
100
AcDbEntity
  8
_____1
 62
     7
100
AcDbVertex
100
AcDb2dVertex
 10
71.06478753168211
 20
168.3016382208234
 30
0.0
  0
SEQEND
  5
63C
330
636
100
AcDbEntity
  8
_____1
  0
POLYLINE
  5
63D
330
3C
100
AcDbEntity
  8
_____1
 62
     7
100
AcDb2dPolyline
 66
     1
 10
0.0
 20
0.0
 30
0.0
  0
VERTEX
  5
63E
330
63D
100
AcDbEntity
  8
_____1
 62
     7
100
AcDbVertex
100
AcDb2dVertex
 10
39.24569238426007
 20
173.7543666972373
 30
0.0
  0
VERTEX
  5
63F
330
63D
100
AcDbEntity
  8
_____1
 62
     7
100
AcDbVertex
100
AcDb2dVertex
 10
39.24569238426007
 20
174.1393563716895
 30
0.0
  0
VERTEX
  5
640
330
63D
100
AcDbEntity
  8
_____1
 62
     7
100
AcDbVertex
100
AcDb2dVertex
 10
34.5841306079621
 20
174.1393563716895
 30
0.0
  0
VERTEX
  5
641
330
63D
100
AcDbEntity
  8
_____1
 62
     7
100
AcDbVertex
100
AcDb2dVertex
 10
34.5841306079621
 20
173.7543666972373
 30
0.0
  0
SEQEND
  5
642
330
63D
100
AcDbEntity
  8
_____1
  0
POLYLINE
  5
643
330
3C
100
AcDbEntity
  8
_____1
 62
     7
100
AcDb2dPolyline
 66
     1
 10
0.0
 20
0.0
 30
0.0
  0
VERTEX
  5
644
330
643
100
AcDbEntity
  8
_____1
 62
     7
100
AcDbVertex
100
AcDb2dVertex
 10
105.6626985306761
 20
173.7543666972373
 30
0.0
  0
VERTEX
  5
645
330
643
100
AcDbEntity
  8
_____1
 62
     7
100
AcDbVertex
100
AcDb2dVertex
 10
105.6626985306761
 20
174.1393563716895
 30
0.0
  0
VERTEX
  5
646
330
643
100
AcDbEntity
  8
_____1
 62
     7
100
AcDbVertex
100
AcDb2dVertex
 10
101.0011367543781
 20
174.1393563716895
 30
0.0
  0
VERTEX
  5
647
330
643
100
AcDbEntity
  8
_____1
 62
     7
100
AcDbVertex
100
AcDb2dVertex
 10
101.0011367543781
 20
173.7543666972373
 30
0.0
  0
SEQEND
  5
648
330
643
100
AcDbEntity
  8
_____1
  0
POLYLINE
  5
649
330
3C
100
AcDbEntity
  8
_____1
 62
     7
100
AcDb2dPolyline
 66
     1
 10
0.0
 20
0.0
 30
0.0
  0
VERTEX
  5
64A
330
649
100
AcDbEntity
  8
_____1
 62
     7
100
AcDbVertex
100
AcDb2dVertex
 10
97.97410160934507
 20
170.8990696754386
 30
0.0
  0
VERTEX
  5
64B
330
649
100
AcDbEntity
  8
_____1
 62
     7
100
AcDbVertex
100
AcDb2dVertex
 10
97.16932677308522
 20
170.8990696754386
 30
0.0
  0
VERTEX
  5
64C
330
649
100
AcDbEntity
  8
_____1
 62
     7
100
AcDbVertex
100
AcDb2dVertex
 10
97.16932677308522
 20
171.5631122682857
 30
0.0
  0
VERTEX
  5
64D
330
649
100
AcDbEntity
  8
_____1
 62
     7
100
AcDbVertex
100
AcDb2dVertex
 10
97.97410160934507
 20
171.5631122682857
 30
0.0
  0
VERTEX
  5
64E
330
649
100
AcDbEntity
  8
_____1
 62
     7
100
AcDbVertex
100
AcDb2dVertex
 10
97.97410160934507
 20
170.8990696754386
 30
0.0
  0
SEQEND
  5
64F
330
649
100
AcDbEntity
  8
_____1
  0
POLYLINE
  5
650
330
3C
100
AcDbEntity
  8
_____1
 62
     7
100
AcDb2dPolyline
 66
     1
 10
0.0
 20
0.0
 30
0.0
  0
VERTEX
  5
651
330
650
100
AcDbEntity
  8
_____1
 62
     7
100
AcDbVertex
100
AcDb2dVertex
 10
95.21475056010566
 20
170.8990696754386
 30
0.0
  0
VERTEX
  5
652
330
650
100
AcDbEntity
  8
_____1
 62
     7
100
AcDbVertex
100
AcDb2dVertex
 10
94.4098034689579
 20
170.8990696754386
 30
0.0
  0
VERTEX
  5
653
330
650
100
AcDbEntity
  8
_____1
 62
     7
100
AcDbVertex
100
AcDb2dVertex
 10
94.4098034689579
 20
171.5631122682857
 30
0.0
  0
VERTEX
  5
654
330
650
100
AcDbEntity
  8
_____1
 62
     7
100
AcDbVertex
100
AcDb2dVertex
 10
95.21475056010566
 20
171.5631122682857
 30
0.0
  0
VERTEX
  5
655
330
650
100
AcDbEntity
  8
_____1
 62
     7
100
AcDbVertex
100
AcDb2dVertex
 10
95.21475056010566
 20
170.8990696754386
 30
0.0
  0
SEQEND
  5
656
330
650
100
AcDbEntity
  8
_____1
  0
POLYLINE
  5
657
330
3C
100
AcDbEntity
  8
_____1
 62
     7
100
AcDb2dPolyline
 66
     1
 10
0.0
 20
0.0
 30
0.0
  0
VERTEX
  5
658
330
657
100
AcDbEntity
  8
_____1
 62
     7
100
AcDbVertex
100
AcDb2dVertex
 10
92.45488274620254
 20
170.8990696754386
 30
0.0
  0
VERTEX
  5
659
330
657
100
AcDbEntity
  8
_____1
 62
     7
100
AcDbVertex
100
AcDb2dVertex
 10
91.6492466355032
 20
170.8990696754386
 30
0.0
  0
VERTEX
  5
65A
330
657
100
AcDbEntity
  8
_____1
 62
     7
100
AcDbVertex
100
AcDb2dVertex
 10
91.6492466355032
 20
171.5631122682857
 30
0.0
  0
VERTEX
  5
65B
330
657
100
AcDbEntity
  8
_____1
 62
     7
100
AcDbVertex
100
AcDb2dVertex
 10
92.45488274620254
 20
171.5631122682857
 30
0.0
  0
VERTEX
  5
65C
330
657
100
AcDbEntity
  8
_____1
 62
     7
100
AcDbVertex
100
AcDb2dVertex
 10
92.45488274620254
 20
170.8990696754386
 30
0.0
  0
SEQEND
  5
65D
330
657
100
AcDbEntity
  8
_____1
  0
POLYLINE
  5
65E
330
3C
100
AcDbEntity
  8
_____1
 62
     7
100
AcDb2dPolyline
 66
     1
 10
0.0
 20
0.0
 30
0.0
  0
VERTEX
  5
65F
330
65E
100
AcDbEntity
  8
_____1
 62
     7
100
AcDbVertex
100
AcDb2dVertex
 10
107.7666197314633
 20
166.973897544905
 30
0.0
  0
VERTEX
  5
660
330
65E
100
AcDbEntity
  8
_____1
 62
     7
100
AcDbVertex
100
AcDb2dVertex
 10
105.2754695426812
 20
166.973897544905
 30
0.0
  0
VERTEX
  5
661
330
65E
100
AcDbEntity
  8
_____1
 62
     7
100
AcDbVertex
100
AcDb2dVertex
 10
105.2754695426812
 20
172.2269826062449
 30
0.0
  0
VERTEX
  5
662
330
65E
100
AcDbEntity
  8
_____1
 62
     7
100
AcDbVertex
100
AcDb2dVertex
 10
107.7666197314633
 20
172.2269826062449
 30
0.0
  0
VERTEX
  5
663
330
65E
100
AcDbEntity
  8
_____1
 62
     7
100
AcDbVertex
100
AcDb2dVertex
 10
107.7666197314633
 20
166.973897544905
 30
0.0
  0
SEQEND
  5
664
330
65E
100
AcDbEntity
  8
_____1
  0
POLYLINE
  5
665
330
3C
100
AcDbEntity
  8
_____1
 62
     7
100
AcDb2dPolyline
 66
     1
 10
0.0
 20
0.0
 30
0.0
  0
VERTEX
  5
666
330
665
100
AcDbEntity
  8
_____1
 62
     7
100
AcDbVertex
100
AcDb2dVertex
 10
105.2468752312901
 20
167.2615632076948
 30
0.0
  0
VERTEX
  5
667
330
665
100
AcDbEntity
  8
_____1
 62
     7
100
AcDbVertex
100
AcDb2dVertex
 10
98.00338494028775
 20
167.2615632076948
 30
0.0
  0
VERTEX
  5
668
330
665
100
AcDbEntity
  8
_____1
 62
     7
100
AcDbVertex
100
AcDb2dVertex
 10
98.00338494028775
 20
171.937766649464
 30
0.0
  0
VERTEX
  5
669
330
665
100
AcDbEntity
  8
_____1
 62
     7
100
AcDbVertex
100
AcDb2dVertex
 10
105.2468752312901
 20
171.937766649464
 30
0.0
  0
SEQEND
  5
66A
330
665
100
AcDbEntity
  8
_____1
  0
POLYLINE
  5
66B
330
3C
100
AcDbEntity
  8
_____1
 62
     7
100
AcDb2dPolyline
 66
     1
 10
0.0
 20
0.0
 30
0.0
  0
VERTEX
  5
66C
330
66B
100
AcDbEntity
  8
_____1
 62
     7
100
AcDbVertex
100
AcDb2dVertex
 10
98.52066636864569
 20
167.2615632076948
 30
0.0
  0
VERTEX
  5
66D
330
66B
100
AcDbEntity
  8
_____1
 62
     7
100
AcDbVertex
100
AcDb2dVertex
 10
98.52066636864569
 20
171.937766649464
 30
0.0
  0
SEQEND
  5
66E
330
66B
100
AcDbEntity
  8
_____1
  0
POLYLINE
  5
66F
330
3C
100
AcDbEntity
  8
_____1
 62
     7
100
AcDb2dPolyline
 66
     1
 10
0.0
 20
0.0
 30
0.0
  0
VERTEX
  5
670
330
66F
100
AcDbEntity
  8
_____1
 62
     7
100
AcDbVertex
100
AcDb2dVertex
 10
98.89445947538454
 20
167.2615632076948
 30
0.0
  0
VERTEX
  5
671
330
66F
100
AcDbEntity
  8
_____1
 62
     7
100
AcDbVertex
100
AcDb2dVertex
 10
98.89445947538454
 20
171.937766649464
 30
0.0
  0
SEQEND
  5
672
330
66F
100
AcDbEntity
  8
_____1
  0
POLYLINE
  5
673
330
3C
100
AcDbEntity
  8
_____1
 62
     7
100
AcDb2dPolyline
 66
     1
 10
0.0
 20
0.0
 30
0.0
  0
VERTEX
  5
674
330
673
100
AcDbEntity
  8
_____1
 62
     7
100
AcDbVertex
100
AcDb2dVertex
 10
100.4754148365132
 20
167.2615632076948
 30
0.0
  0
VERTEX
  5
675
330
673
100
AcDbEntity
  8
_____1
 62
     7
100
AcDbVertex
100
AcDb2dVertex
 10
100.4754148365132
 20
171.937766649464
 30
0.0
  0
SEQEND
  5
676
330
673
100
AcDbEntity
  8
_____1
  0
POLYLINE
  5
677
330
3C
100
AcDbEntity
  8
_____1
 62
     7
100
AcDb2dPolyline
 66
     1
 10
0.0
 20
0.0
 30
0.0
  0
VERTEX
  5
678
330
677
100
AcDbEntity
  8
_____1
 62
     7
100
AcDbVertex
100
AcDb2dVertex
 10
100.9634129339284
 20
167.2615632076948
 30
0.0
  0
VERTEX
  5
679
330
677
100
AcDbEntity
  8
_____1
 62
     7
100
AcDbVertex
100
AcDb2dVertex
 10
100.9634129339284
 20
171.937766649464
 30
0.0
  0
SEQEND
  5
67A
330
677
100
AcDbEntity
  8
_____1
  0
POLYLINE
  5
67B
330
3C
100
AcDbEntity
  8
_____1
 62
     7
100
AcDb2dPolyline
 66
     1
 10
0.0
 20
0.0
 30
0.0
  0
VERTEX
  5
67C
330
67B
100
AcDbEntity
  8
_____1
 62
     7
100
AcDbVertex
100
AcDb2dVertex
 10
101.4522723057832
 20
167.2615632076948
 30
0.0
  0
VERTEX
  5
67D
330
67B
100
AcDbEntity
  8
_____1
 62
     7
100
AcDbVertex
100
AcDb2dVertex
 10
101.4522723057832
 20
171.937766649464
 30
0.0
  0
SEQEND
  5
67E
330
67B
100
AcDbEntity
  8
_____1
  0
POLYLINE
  5
67F
330
3C
100
AcDbEntity
  8
_____1
 62
     7
100
AcDb2dPolyline
 66
     1
 10
0.0
 20
0.0
 30
0.0
  0
VERTEX
  5
680
330
67F
100
AcDbEntity
  8
_____1
 62
     7
100
AcDbVertex
100
AcDb2dVertex
 10
101.9419929520774
 20
167.2615632076948
 30
0.0
  0
VERTEX
  5
681
330
67F
100
AcDbEntity
  8
_____1
 62
     7
100
AcDbVertex
100
AcDb2dVertex
 10
101.9419929520774
 20
171.937766649464
 30
0.0
  0
SEQEND
  5
682
330
67F
100
AcDbEntity
  8
_____1
  0
POLYLINE
  5
683
330
3C
100
AcDbEntity
  8
_____1
 62
     7
100
AcDb2dPolyline
 66
     1
 10
0.0
 20
0.0
 30
0.0
  0
VERTEX
  5
684
330
683
100
AcDbEntity
  8
_____1
 62
     7
100
AcDbVertex
100
AcDb2dVertex
 10
102.4291297750532
 20
167.2615632076948
 30
0.0
  0
VERTEX
  5
685
330
683
100
AcDbEntity
  8
_____1
 62
     7
100
AcDbVertex
100
AcDb2dVertex
 10
102.4291297750532
 20
171.937766649464
 30
0.0
  0
SEQEND
  5
686
330
683
100
AcDbEntity
  8
_____1
  0
POLYLINE
  5
687
330
3C
100
AcDbEntity
  8
_____1
 62
     7
100
AcDb2dPolyline
 66
     1
 10
0.0
 20
0.0
 30
0.0
  0
VERTEX
  5
688
330
687
100
AcDbEntity
  8
_____1
 62
     7
100
AcDbVertex
100
AcDb2dVertex
 10
102.9181614017959
 20
167.2615632076948
 30
0.0
  0
VERTEX
  5
689
330
687
100
AcDbEntity
  8
_____1
 62
     7
100
AcDbVertex
100
AcDb2dVertex
 10
102.9181614017959
 20
171.937766649464
 30
0.0
  0
SEQEND
  5
68A
330
687
100
AcDbEntity
  8
_____1
  0
POLYLINE
  5
68B
330
3C
100
AcDbEntity
  8
_____1
 62
     7
100
AcDb2dPolyline
 66
     1
 10
0.0
 20
0.0
 30
0.0
  0
VERTEX
  5
68C
330
68B
100
AcDbEntity
  8
_____1
 62
     7
100
AcDbVertex
100
AcDb2dVertex
 10
103.4077097932022
 20
167.2615632076948
 30
0.0
  0
VERTEX
  5
68D
330
68B
100
AcDbEntity
  8
_____1
 62
     7
100
AcDbVertex
100
AcDb2dVertex
 10
103.4077097932022
 20
171.937766649464
 30
0.0
  0
SEQEND
  5
68E
330
68B
100
AcDbEntity
  8
_____1
  0
POLYLINE
  5
68F
330
3C
100
AcDbEntity
  8
_____1
 62
     7
100
AcDb2dPolyline
 66
     1
 10
0.0
 20
0.0
 30
0.0
  0
VERTEX
  5
690
330
68F
100
AcDbEntity
  8
_____1
 62
     7
100
AcDbVertex
100
AcDb2dVertex
 10
103.8957078906175
 20
167.2615632076948
 30
0.0
  0
VERTEX
  5
691
330
68F
100
AcDbEntity
  8
_____1
 62
     7
100
AcDbVertex
100
AcDb2dVertex
 10
103.8957078906175
 20
171.937766649464
 30
0.0
  0
SEQEND
  5
692
330
68F
100
AcDbEntity
  8
_____1
  0
POLYLINE
  5
693
330
3C
100
AcDbEntity
  8
_____1
 62
     7
100
AcDb2dPolyline
 66
     1
 10
0.0
 20
0.0
 30
0.0
  0
VERTEX
  5
694
330
693
100
AcDbEntity
  8
_____1
 62
     7
100
AcDbVertex
100
AcDb2dVertex
 10
104.3852562820239
 20
167.2615632076948
 30
0.0
  0
VERTEX
  5
695
330
693
100
AcDbEntity
  8
_____1
 62
     7
100
AcDbVertex
100
AcDb2dVertex
 10
104.3852562820239
 20
171.937766649464
 30
0.0
  0
SEQEND
  5
696
330
693
100
AcDbEntity
  8
_____1
  0
POLYLINE
  5
697
330
3C
100
AcDbEntity
  8
_____1
 62
     7
100
AcDb2dPolyline
 66
     1
 10
0.0
 20
0.0
 30
0.0
  0
VERTEX
  5
698
330
697
100
AcDbEntity
  8
_____1
 62
     7
100
AcDbVertex
100
AcDb2dVertex
 10
104.8737711441028
 20
167.2615632076948
 30
0.0
  0
VERTEX
  5
699
330
697
100
AcDbEntity
  8
_____1
 62
     7
100
AcDbVertex
100
AcDb2dVertex
 10
104.8737711441028
 20
171.937766649464
 30
0.0
  0
SEQEND
  5
69A
330
697
100
AcDbEntity
  8
_____1
  0
POLYLINE
  5
69B
330
3C
100
AcDbEntity
  8
_____1
 62
     7
100
AcDb2dPolyline
 66
     1
 10
0.0
 20
0.0
 30
0.0
  0
VERTEX
  5
69C
330
69B
100
AcDbEntity
  8
_____1
 62
     7
100
AcDbVertex
100
AcDb2dVertex
 10
107.7666197314633
 20
168.1572886247648
 30
0.0
  0
VERTEX
  5
69D
330
69B
100
AcDbEntity
  8
_____1
 62
     7
100
AcDbVertex
100
AcDb2dVertex
 10
109.1002170735702
 20
168.1572886247648
 30
0.0
  0
VERTEX
  5
69E
330
69B
100
AcDbEntity
  8
_____1
 62
     7
100
AcDbVertex
100
AcDb2dVertex
 10
109.1002170735702
 20
171.0435915263851
 30
0.0
  0
VERTEX
  5
69F
330
69B
100
AcDbEntity
  8
_____1
 62
     7
100
AcDbVertex
100
AcDb2dVertex
 10
107.7666197314633
 20
171.0435915263851
 30
0.0
  0
SEQEND
  5
6A0
330
69B
100
AcDbEntity
  8
_____1
  0
POLYLINE
  5
6A1
330
3C
100
AcDbEntity
  8
_____1
 62
     7
100
AcDb2dPolyline
 66
     1
 10
0.0
 20
0.0
 30
0.0
  0
VERTEX
  5
6A2
330
6A1
100
AcDbEntity
  8
_____1
 62
     7
100
AcDbVertex
100
AcDb2dVertex
 10
107.7666197314633
 20
168.7911866122298
 30
0.0
  0
VERTEX
  5
6A3
330
6A1
100
AcDbEntity
  8
_____1
 62
     7
100
AcDbVertex
100
AcDb2dVertex
 10
108.4091304633231
 20
168.7911866122298
 30
0.0
  0
VERTEX
  5
6A4
330
6A1
100
AcDbEntity
  8
_____1
 62
     7
100
AcDbVertex
100
AcDb2dVertex
 10
108.4091304633231
 20
170.408315499817
 30
0.0
  0
VERTEX
  5
6A5
330
6A1
100
AcDbEntity
  8
_____1
 62
     7
100
AcDbVertex
100
AcDb2dVertex
 10
107.7666197314633
 20
170.408315499817
 30
0.0
  0
SEQEND
  5
6A6
330
6A1
100
AcDbEntity
  8
_____1
  0
POLYLINE
  5
6A7
330
3C
100
AcDbEntity
  8
_____1
 62
     7
100
AcDb2dPolyline
 66
     1
 10
0.0
 20
0.0
 30
0.0
  0
VERTEX
  5
6A8
330
6A7
100
AcDbEntity
  8
_____1
 62
     7
100
AcDbVertex
100
AcDb2dVertex
 10
97.97410160934507
 20
168.3016382208234
 30
0.0
  0
VERTEX
  5
6A9
330
6A7
100
AcDbEntity
  8
_____1
 62
     7
100
AcDbVertex
100
AcDb2dVertex
 10
97.16932677308522
 20
168.3016382208234
 30
0.0
  0
VERTEX
  5
6AA
330
6A7
100
AcDbEntity
  8
_____1
 62
     7
100
AcDbVertex
100
AcDb2dVertex
 10
97.16932677308522
 20
167.6377678828642
 30
0.0
  0
VERTEX
  5
6AB
330
6A7
100
AcDbEntity
  8
_____1
 62
     7
100
AcDbVertex
100
AcDb2dVertex
 10
97.97410160934507
 20
167.6377678828642
 30
0.0
  0
VERTEX
  5
6AC
330
6A7
100
AcDbEntity
  8
_____1
 62
     7
100
AcDbVertex
100
AcDb2dVertex
 10
97.97410160934507
 20
168.3016382208234
 30
0.0
  0
SEQEND
  5
6AD
330
6A7
100
AcDbEntity
  8
_____1
  0
POLYLINE
  5
6AE
330
3C
100
AcDbEntity
  8
_____1
 62
     7
100
AcDb2dPolyline
 66
     1
 10
0.0
 20
0.0
 30
0.0
  0
VERTEX
  5
6AF
330
6AE
100
AcDbEntity
  8
_____1
 62
     7
100
AcDbVertex
100
AcDb2dVertex
 10
95.21475056010566
 20
168.3016382208234
 30
0.0
  0
VERTEX
  5
6B0
330
6AE
100
AcDbEntity
  8
_____1
 62
     7
100
AcDbVertex
100
AcDb2dVertex
 10
94.4098034689579
 20
168.3016382208234
 30
0.0
  0
VERTEX
  5
6B1
330
6AE
100
AcDbEntity
  8
_____1
 62
     7
100
AcDbVertex
100
AcDb2dVertex
 10
94.4098034689579
 20
167.6377678828642
 30
0.0
  0
VERTEX
  5
6B2
330
6AE
100
AcDbEntity
  8
_____1
 62
     7
100
AcDbVertex
100
AcDb2dVertex
 10
95.21475056010566
 20
167.6377678828642
 30
0.0
  0
VERTEX
  5
6B3
330
6AE
100
AcDbEntity
  8
_____1
 62
     7
100
AcDbVertex
100
AcDb2dVertex
 10
95.21475056010566
 20
168.3016382208234
 30
0.0
  0
SEQEND
  5
6B4
330
6AE
100
AcDbEntity
  8
_____1
  0
POLYLINE
  5
6B5
330
3C
100
AcDbEntity
  8
_____1
 62
     7
100
AcDb2dPolyline
 66
     1
 10
0.0
 20
0.0
 30
0.0
  0
VERTEX
  5
6B6
330
6B5
100
AcDbEntity
  8
_____1
 62
     7
100
AcDbVertex
100
AcDb2dVertex
 10
92.45488274620254
 20
168.3016382208234
 30
0.0
  0
VERTEX
  5
6B7
330
6B5
100
AcDbEntity
  8
_____1
 62
     7
100
AcDbVertex
100
AcDb2dVertex
 10
91.6492466355032
 20
168.3016382208234
 30
0.0
  0
VERTEX
  5
6B8
330
6B5
100
AcDbEntity
  8
_____1
 62
     7
100
AcDbVertex
100
AcDb2dVertex
 10
91.6492466355032
 20
167.6377678828642
 30
0.0
  0
VERTEX
  5
6B9
330
6B5
100
AcDbEntity
  8
_____1
 62
     7
100
AcDbVertex
100
AcDb2dVertex
 10
92.45488274620254
 20
167.6377678828642
 30
0.0
  0
VERTEX
  5
6BA
330
6B5
100
AcDbEntity
  8
_____1
 62
     7
100
AcDbVertex
100
AcDb2dVertex
 10
92.45488274620254
 20
168.3016382208234
 30
0.0
  0
SEQEND
  5
6BB
330
6B5
100
AcDbEntity
  8
_____1
  0
POLYLINE
  5
6BC
330
3C
100
AcDbEntity
  8
_____1
 62
     7
100
AcDb2dPolyline
 66
     1
 10
0.0
 20
0.0
 30
0.0
  0
VERTEX
  5
6BD
330
6BC
100
AcDbEntity
  8
_____1
 62
     7
100
AcDbVertex
100
AcDb2dVertex
 10
31.00760237053418
 20
165.7638069574209
 30
0.0
  0
VERTEX
  5
6BE
330
6BC
100
AcDbEntity
  8
_____1
 62
     7
100
AcDbVertex
100
AcDb2dVertex
 10
109.2021919672059
 20
165.7638069574209
 30
0.0
  0
VERTEX
  5
6BF
330
6BC
100
AcDbEntity
  8
_____1
 62
     7
100
AcDbVertex
100
AcDb2dVertex
 10
109.2021919672059
 20
172.7280720751405
 30
0.0
  0
VERTEX
  5
6C0
330
6BC
100
AcDbEntity
  8
_____1
 62
     7
100
AcDbVertex
100
AcDb2dVertex
 10
31.00760237053418
 20
172.7280720751405
 30
0.0
  0
VERTEX
  5
6C1
330
6BC
100
AcDbEntity
  8
_____1
 62
     7
100
AcDbVertex
100
AcDb2dVertex
 10
31.00760237053418
 20
165.7638069574209
 30
0.0
  0
SEQEND
  5
6C2
330
6BC
100
AcDbEntity
  8
_____1
  0
POLYLINE
  5
6C3
330
3C
100
AcDbEntity
  8
_____1
 62
     7
100
AcDb2dPolyline
 66
     1
 10
0.0
 20
0.0
 30
0.0
  0
VERTEX
  5
6C4
330
6C3
100
AcDbEntity
  8
_____1
 62
     7
100
AcDbVertex
100
AcDb2dVertex
 10
108.4993920245817
 20
172.857263241064
 30
0.0
  0
VERTEX
  5
6C5
330
6C3
100
AcDbEntity
  8
_____1
 62
     7
100
AcDbVertex
100
AcDb2dVertex
 10
108.4993920245817
 20
173.6902878789392
 30
0.0
  0
VERTEX
  5
6C6
330
6C3
100
AcDbEntity
  8
_____1
 62
     7
100
AcDbVertex
100
AcDb2dVertex
 10
31.71040231315836
 20
173.6902878789392
 30
0.0
  0
VERTEX
  5
6C7
330
6C3
100
AcDbEntity
  8
_____1
 62
     7
100
AcDbVertex
100
AcDb2dVertex
 10
31.71040231315836
 20
172.857263241064
 30
0.0
  0
SEQEND
  5
6C8
330
6C3
100
AcDbEntity
  8
_____1
  0
POLYLINE
  5
6C9
330
3C
100
AcDbEntity
  8
_____1
 62
     7
100
AcDb2dPolyline
 66
     1
 10
0.0
 20
0.0
 30
0.0
  0
VERTEX
  5
6CA
330
6C9
100
AcDbEntity
  8
_____1
 62
     7
100
AcDbVertex
100
AcDb2dVertex
 10
39.502696677004
 20
167.2143653684107
 30
0.0
  0
VERTEX
  5
6CB
330
6C9
100
AcDbEntity
  8
_____1
 62
     7
100
AcDbVertex
100
AcDb2dVertex
 10
39.502696677004
 20
166.444730529282
 30
0.0
  0
VERTEX
  5
6CC
330
6C9
100
AcDbEntity
  8
_____1
 62
     7
100
AcDbVertex
100
AcDb2dVertex
 10
68.30336942378793
 20
166.444730529282
 30
0.0
  0
VERTEX
  5
6CD
330
6C9
100
AcDbEntity
  8
_____1
 62
     7
100
AcDbVertex
100
AcDb2dVertex
 10
68.30336942378793
 20
166.9580500952183
 30
0.0
  0
VERTEX
  5
6CE
330
6C9
100
AcDbEntity
  8
_____1
 62
     7
100
AcDbVertex
100
AcDb2dVertex
 10
71.88058668076745
 20
166.9580500952183
 30
0.0
  0
VERTEX
  5
6CF
330
6C9
100
AcDbEntity
  8
_____1
 62
     7
100
AcDbVertex
100
AcDb2dVertex
 10
71.88058668076745
 20
166.444730529282
 30
0.0
  0
VERTEX
  5
6D0
330
6C9
100
AcDbEntity
  8
_____1
 62
     7
100
AcDbVertex
100
AcDb2dVertex
 10
100.7458550105131
 20
166.444730529282
 30
0.0
  0
VERTEX
  5
6D1
330
6C9
100
AcDbEntity
  8
_____1
 62
     7
100
AcDbVertex
100
AcDb2dVertex
 10
100.7458550105131
 20
167.2143653684107
 30
0.0
  0
SEQEND
  5
6D2
330
6C9
100
AcDbEntity
  8
_____1
  0
POLYLINE
  5
6D3
330
3C
100
AcDbEntity
  8
_____1
 62
     7
100
AcDb2dPolyline
 66
     1
 10
0.0
 20
0.0
 30
0.0
  0
VERTEX
  5
6D4
330
6D3
100
AcDbEntity
  8
_____1
 62
     7
100
AcDbVertex
100
AcDb2dVertex
 10
31.19932206076475
 20
165.7638069574209
 30
0.0
  0
VERTEX
  5
6D5
330
6D3
100
AcDbEntity
  8
_____1
 62
     7
100
AcDbVertex
100
AcDb2dVertex
 10
31.19932206076475
 20
165.4826869803712
 30
0.0
  0
VERTEX
  5
6D6
330
6D3
100
AcDbEntity
  8
_____1
 62
     7
100
AcDbVertex
100
AcDb2dVertex
 10
46.4626554225261
 20
165.4826869803712
 30
0.0
  0
VERTEX
  5
6D7
330
6D3
100
AcDbEntity
  8
_____1
 62
     7
100
AcDbVertex
100
AcDb2dVertex
 10
46.4626554225261
 20
165.7638069574209
 30
0.0
  0
SEQEND
  5
6D8
330
6D3
100
AcDbEntity
  8
_____1
  0
POLYLINE
  5
6D9
330
3C
100
AcDbEntity
  8
_____1
 62
     7
100
AcDb2dPolyline
 66
     1
 10
0.0
 20
0.0
 30
0.0
  0
VERTEX
  5
6DA
330
6D9
100
AcDbEntity
  8
_____1
 62
     7
100
AcDbVertex
100
AcDb2dVertex
 10
47.93181736140887
 20
165.7638069574209
 30
0.0
  0
VERTEX
  5
6DB
330
6D9
100
AcDbEntity
  8
_____1
 62
     7
100
AcDbVertex
100
AcDb2dVertex
 10
47.93181736140887
 20
165.4826869803712
 30
0.0
  0
VERTEX
  5
6DC
330
6D9
100
AcDbEntity
  8
_____1
 62
     7
100
AcDbVertex
100
AcDb2dVertex
 10
92.12484238098982
 20
165.4826869803712
 30
0.0
  0
VERTEX
  5
6DD
330
6D9
100
AcDbEntity
  8
_____1
 62
     7
100
AcDbVertex
100
AcDb2dVertex
 10
92.12484238098982
 20
165.7638069574209
 30
0.0
  0
SEQEND
  5
6DE
330
6D9
100
AcDbEntity
  8
_____1
  0
POLYLINE
  5
6DF
330
3C
100
AcDbEntity
  8
_____1
 62
     7
100
AcDb2dPolyline
 66
     1
 10
0.0
 20
0.0
 30
0.0
  0
VERTEX
  5
6E0
330
6DF
100
AcDbEntity
  8
_____1
 62
     7
100
AcDbVertex
100
AcDb2dVertex
 10
93.59348755520888
 20
165.7638069574209
 30
0.0
  0
VERTEX
  5
6E1
330
6DF
100
AcDbEntity
  8
_____1
 62
     7
100
AcDbVertex
100
AcDb2dVertex
 10
93.59348755520888
 20
165.4826869803712
 30
0.0
  0
VERTEX
  5
6E2
330
6DF
100
AcDbEntity
  8
_____1
 62
     7
100
AcDbVertex
100
AcDb2dVertex
 10
108.8576821914097
 20
165.4826869803712
 30
0.0
  0
VERTEX
  5
6E3
330
6DF
100
AcDbEntity
  8
_____1
 62
     7
100
AcDbVertex
100
AcDb2dVertex
 10
108.8576821914097
 20
165.7638069574209
 30
0.0
  0
SEQEND
  5
6E4
330
6DF
100
AcDbEntity
  8
_____1
  0
POLYLINE
  5
6E5
330
3C
100
AcDbEntity
  8
_____1
 62
     7
100
AcDb2dPolyline
 66
     1
 10
0.0
 20
0.0
 30
0.0
  0
VERTEX
  5
6E6
330
6E5
100
AcDbEntity
  8
_____1
 62
     7
100
AcDbVertex
100
AcDb2dVertex
 10
48.82633699426362
 20
173.6902878789392
 30
0.0
  0
VERTEX
  5
6E7
330
6E5
100
AcDbEntity
  8
_____1
 62
     7
100
AcDbVertex
100
AcDb2dVertex
 10
48.82633699426362
 20
173.9472921716831
 30
0.0
  0
VERTEX
  5
6E8
330
6E5
100
AcDbEntity
  8
_____1
 62
     7
100
AcDbVertex
100
AcDb2dVertex
 10
49.59132095141901
 20
173.9472921716831
 30
0.0
  0
VERTEX
  5
6E9
330
6E5
100
AcDbEntity
  8
_____1
 62
     7
100
AcDbVertex
100
AcDb2dVertex
 10
49.59132095141901
 20
173.6902878789392
 30
0.0
  0
SEQEND
  5
6EA
330
6E5
100
AcDbEntity
  8
_____1
  0
POLYLINE
  5
6EB
330
3C
100
AcDbEntity
  8
_____1
 62
     7
100
AcDb2dPolyline
 66
     1
 10
0.0
 20
0.0
 30
0.0
  0
VERTEX
  5
6EC
330
6EB
100
AcDbEntity
  8
_____1
 62
     7
100
AcDbVertex
100
AcDb2dVertex
 10
90.46464977142809
 20
173.6902878789392
 30
0.0
  0
VERTEX
  5
6ED
330
6EB
100
AcDbEntity
  8
_____1
 62
     7
100
AcDbVertex
100
AcDb2dVertex
 10
90.46464977142809
 20
173.9472921716831
 30
0.0
  0
VERTEX
  5
6EE
330
6EB
100
AcDbEntity
  8
_____1
 62
     7
100
AcDbVertex
100
AcDb2dVertex
 10
91.23083951279875
 20
173.9472921716831
 30
0.0
  0
VERTEX
  5
6EF
330
6EB
100
AcDbEntity
  8
_____1
 62
     7
100
AcDbVertex
100
AcDb2dVertex
 10
91.23083951279875
 20
173.6902878789392
 30
0.0
  0
SEQEND
  5
6F0
330
6EB
100
AcDbEntity
  8
_____1
  0
POLYLINE
  5
6F1
330
3C
100
AcDbEntity
  8
_____1
 62
     7
100
AcDb2dPolyline
 66
     1
 10
0.0
 20
0.0
 30
0.0
  0
VERTEX
  5
6F2
330
6F1
100
AcDbEntity
  8
_____1
 62
     7
100
AcDbVertex
100
AcDb2dVertex
 10
46.65420285786877
 20
165.8032533267496
 30
0.0
  0
VERTEX
  5
6F3
330
6F1
100
AcDbEntity
  8
_____1
 62
     7
100
AcDbVertex
100
AcDb2dVertex
 10
46.65420285786877
 20
166.3811684756477
 30
0.0
  0
SEQEND
  5
6F4
330
6F1
100
AcDbEntity
  8
_____1
  0
POLYLINE
  5
6F5
330
3C
100
AcDbEntity
  8
_____1
 62
     7
100
AcDb2dPolyline
 66
     1
 10
0.0
 20
0.0
 30
0.0
  0
VERTEX
  5
6F6
330
6F5
100
AcDbEntity
  8
_____1
 62
     7
100
AcDbVertex
100
AcDb2dVertex
 10
47.74078669072989
 20
165.8032533267496
 30
0.0
  0
VERTEX
  5
6F7
330
6F5
100
AcDbEntity
  8
_____1
 62
     7
100
AcDbVertex
100
AcDb2dVertex
 10
47.74078669072989
 20
166.3811684756477
 30
0.0
  0
SEQEND
  5
6F8
330
6F5
100
AcDbEntity
  8
_____1
  0
POLYLINE
  5
6F9
330
3C
100
AcDbEntity
  8
_____1
 62
     7
100
AcDb2dPolyline
 66
     1
 10
0.0
 20
0.0
 30
0.0
  0
VERTEX
  5
6FA
330
6F9
100
AcDbEntity
  8
_____1
 62
     7
100
AcDbVertex
100
AcDb2dVertex
 10
92.25265550781019
 20
165.8032533267496
 30
0.0
  0
VERTEX
  5
6FB
330
6F9
100
AcDbEntity
  8
_____1
 62
     7
100
AcDbVertex
100
AcDb2dVertex
 10
92.25265550781019
 20
166.3811684756477
 30
0.0
  0
SEQEND
  5
6FC
330
6F9
100
AcDbEntity
  8
_____1
  0
POLYLINE
  5
6FD
330
3C
100
AcDbEntity
  8
_____1
 62
     7
100
AcDb2dPolyline
 66
     1
 10
0.0
 20
0.0
 30
0.0
  0
VERTEX
  5
6FE
330
6FD
100
AcDbEntity
  8
_____1
 62
     7
100
AcDbVertex
100
AcDb2dVertex
 10
93.33803355645603
 20
165.8032533267496
 30
0.0
  0
VERTEX
  5
6FF
330
6FD
100
AcDbEntity
  8
_____1
 62
     7
100
AcDbVertex
100
AcDb2dVertex
 10
93.33803355645603
 20
166.3811684756477
 30
0.0
  0
SEQEND
  5
700
330
6FD
100
AcDbEntity
  8
_____1
  0
ENDBLK
  5
3F
330
3C
100
AcDbEntity
  8
0
100
AcDbBlockEnd
  0
ENDSEC
  0
SECTION
  2
ENTITIES
  0
INSERT
  5
3D
330
1F
100
AcDbEntity
  8
_____1
100
AcDbBlockReference
  2
BLOCK_2
 10
0.0
 20
0.0
 30
0.0
  0
POLYLINE
  5
701
330
1F
100
AcDbEntity
  8
_____1
 62
     7
100
AcDb2dPolyline
 66
     1
 10
0.0
 20
0.0
 30
0.0
  0
VERTEX
  5
702
330
701
100
AcDbEntity
  8
_____1
 62
     7
100
AcDbVertex
100
AcDb2dVertex
 10
206.7945767449688
 20
177.9020921429352
 30
0.0
  0
VERTEX
  5
703
330
701
100
AcDbEntity
  8
_____1
 62
     7
100
AcDbVertex
100
AcDb2dVertex
 10
206.7945767449688
 20
173.4296662335494
 30
0.0
  0
SEQEND
  5
704
330
701
100
AcDbEntity
  8
_____1
  0
POLYLINE
  5
705
330
1F
100
AcDbEntity
  8
_____1
 62
     7
100
AcDb2dPolyline
 66
     1
 10
0.0
 20
0.0
 30
0.0
  0
VERTEX
  5
706
330
705
100
AcDbEntity
  8
_____1
 62
     7
100
AcDbVertex
100
AcDb2dVertex
 10
206.7945767449688
 20
173.4296662335494
 30
0.0
  0
VERTEX
  5
707
330
705
100
AcDbEntity
  8
_____1
 62
     7
100
AcDbVertex
100
AcDb2dVertex
 10
208.9856589190325
 20
171.167098281008
 30
0.0
  0
SEQEND
  5
708
330
705
100
AcDbEntity
  8
_____1
  0
POLYLINE
  5
709
330
1F
100
AcDbEntity
  8
_____1
 62
     7
100
AcDb2dPolyline
 66
     1
 10
0.0
 20
0.0
 30
0.0
  0
VERTEX
  5
70A
330
709
100
AcDbEntity
  8
_____1
 62
     7
100
AcDbVertex
100
AcDb2dVertex
 10
208.9856589190325
 20
171.167098281008
 30
0.0
  0
VERTEX
  5
70B
330
709
100
AcDbEntity
  8
_____1
 62
     7
100
AcDbVertex
100
AcDb2dVertex
 10
211.6990179132031
 20
171.167098281008
 30
0.0
  0
SEQEND
  5
70C
330
709
100
AcDbEntity
  8
_____1
  0
SPLINE
  5
70D
330
1F
100
AcDbEntity
  8
_____1
 62
     7
100
AcDbSpline
210
0.0
220
0.0
230
1.0
 70
     8
 71
     3
 72
     8
 73
     4
 74
     0
 42
0.0000000001
 43
0.0000000001
 40
0.0
 40
0.0
 40
0.0
 40
0.0
 40
1.0
 40
1.0
 40
1.0
 40
1.0
 10
212.2209502235343
 20
170.6648030278972
 30
0.0
 10
212.2209502235343
 20
170.9436836914042
 30
0.0
 10
211.9877171053203
 20
171.167098281008
 30
0.0
 10
211.6990179132031
 20
171.167098281008
 30
0.0
  0
POLYLINE
  5
70E
330
1F
100
AcDbEntity
  8
_____1
 62
     7
100
AcDb2dPolyline
 66
     1
 10
0.0
 20
0.0
 30
0.0
  0
VERTEX
  5
70F
330
70E
100
AcDbEntity
  8
_____1
 62
     7
100
AcDbVertex
100
AcDb2dVertex
 10
212.2209502235343
 20
170.6648030278972
 30
0.0
  0
VERTEX
  5
710
330
70E
100
AcDbEntity
  8
_____1
 62
     7
100
AcDbVertex
100
AcDb2dVertex
 10
212.2209502235343
 20
169.5596156671431
 30
0.0
  0
SEQEND
  5
711
330
70E
100
AcDbEntity
  8
_____1
  0
SPLINE
  5
712
330
1F
100
AcDbEntity
  8
_____1
 62
     7
100
AcDbSpline
210
0.0
220
0.0
230
1.0
 70
     8
 71
     3
 72
     8
 73
     4
 74
     0
 42
0.0000000001
 43
0.0000000001
 40
0.0
 40
0.0
 40
0.0
 40
0.0
 40
1.0
 40
1.0
 40
1.0
 40
1.0
 10
211.8027153557177
 20
169.0562868847049
 30
0.0
 10
212.033881415277
 20
169.0562868847049
 30
0.0
 10
212.2209502235343
 20
169.2815962780756
 30
0.0
 10
212.2209502235343
 20
169.5596156671431
 30
0.0
  0
POLYLINE
  5
713
330
1F
100
AcDbEntity
  8
_____1
 62
     7
100
AcDb2dPolyline
 66
     1
 10
0.0
 20
0.0
 30
0.0
  0
VERTEX
  5
714
330
713
100
AcDbEntity
  8
_____1
 62
     7
100
AcDbVertex
100
AcDb2dVertex
 10
211.8027153557177
 20
169.0562868847049
 30
0.0
  0
VERTEX
  5
715
330
713
100
AcDbEntity
  8
_____1
 62
     7
100
AcDbVertex
100
AcDb2dVertex
 10
210.2376074442757
 20
169.0562868847049
 30
0.0
  0
SEQEND
  5
716
330
713
100
AcDbEntity
  8
_____1
  0
POLYLINE
  5
717
330
1F
100
AcDbEntity
  8
_____1
 62
     7
100
AcDb2dPolyline
 66
     1
 10
0.0
 20
0.0
 30
0.0
  0
VERTEX
  5
718
330
717
100
AcDbEntity
  8
_____1
 62
     7
100
AcDbVertex
100
AcDb2dVertex
 10
210.2376074442757
 20
169.0562868847049
 30
0.0
  0
VERTEX
  5
719
330
717
100
AcDbEntity
  8
_____1
 62
     7
100
AcDbVertex
100
AcDb2dVertex
 10
210.2376074442757
 20
167.4489765257279
 30
0.0
  0
SEQEND
  5
71A
330
717
100
AcDbEntity
  8
_____1
  0
POLYLINE
  5
71B
330
1F
100
AcDbEntity
  8
_____1
 62
     7
100
AcDb2dPolyline
 66
     1
 10
0.0
 20
0.0
 30
0.0
  0
VERTEX
  5
71C
330
71B
100
AcDbEntity
  8
_____1
 62
     7
100
AcDbVertex
100
AcDb2dVertex
 10
210.2376074442757
 20
167.4489765257279
 30
0.0
  0
VERTEX
  5
71D
330
71B
100
AcDbEntity
  8
_____1
 62
     7
100
AcDbVertex
100
AcDb2dVertex
 10
209.2995073247828
 20
166.4440415097305
 30
0.0
  0
SEQEND
  5
71E
330
71B
100
AcDbEntity
  8
_____1
  0
POLYLINE
  5
71F
330
1F
100
AcDbEntity
  8
_____1
 62
     7
100
AcDb2dPolyline
 66
     1
 10
0.0
 20
0.0
 30
0.0
  0
VERTEX
  5
720
330
71F
100
AcDbEntity
  8
_____1
 62
     7
100
AcDbVertex
100
AcDb2dVertex
 10
209.2995073247828
 20
166.4440415097305
 30
0.0
  0
VERTEX
  5
721
330
71F
100
AcDbEntity
  8
_____1
 62
     7
100
AcDbVertex
100
AcDb2dVertex
 10
208.9856589190325
 20
166.4440415097305
 30
0.0
  0
SEQEND
  5
722
330
71F
100
AcDbEntity
  8
_____1
  0
POLYLINE
  5
723
330
1F
100
AcDbEntity
  8
_____1
 62
     7
100
AcDb2dPolyline
 66
     1
 10
0.0
 20
0.0
 30
0.0
  0
VERTEX
  5
724
330
723
100
AcDbEntity
  8
_____1
 62
     7
100
AcDbVertex
100
AcDb2dVertex
 10
208.9856589190325
 20
166.4440415097305
 30
0.0
  0
VERTEX
  5
725
330
723
100
AcDbEntity
  8
_____1
 62
     7
100
AcDbVertex
100
AcDb2dVertex
 10
207.9414497885943
 20
167.247610561775
 30
0.0
  0
SEQEND
  5
726
330
723
100
AcDbEntity
  8
_____1
  0
POLYLINE
  5
727
330
1F
100
AcDbEntity
  8
_____1
 62
     7
100
AcDb2dPolyline
 66
     1
 10
0.0
 20
0.0
 30
0.0
  0
VERTEX
  5
728
330
727
100
AcDbEntity
  8
_____1
 62
     7
100
AcDbVertex
100
AcDb2dVertex
 10
207.9414497885943
 20
167.247610561775
 30
0.0
  0
VERTEX
  5
729
330
727
100
AcDbEntity
  8
_____1
 62
     7
100
AcDbVertex
100
AcDb2dVertex
 10
207.9414497885943
 20
168.3534869420807
 30
0.0
  0
SEQEND
  5
72A
330
727
100
AcDbEntity
  8
_____1
  0
POLYLINE
  5
72B
330
1F
100
AcDbEntity
  8
_____1
 62
     7
100
AcDb2dPolyline
 66
     1
 10
0.0
 20
0.0
 30
0.0
  0
VERTEX
  5
72C
330
72B
100
AcDbEntity
  8
_____1
 62
     7
100
AcDbVertex
100
AcDb2dVertex
 10
207.9414497885943
 20
168.3534869420807
 30
0.0
  0
VERTEX
  5
72D
330
72B
100
AcDbEntity
  8
_____1
 62
     7
100
AcDbVertex
100
AcDb2dVertex
 10
206.8972406581561
 20
168.454428306389
 30
0.0
  0
SEQEND
  5
72E
330
72B
100
AcDbEntity
  8
_____1
  0
POLYLINE
  5
72F
330
1F
100
AcDbEntity
  8
_____1
 62
     7
100
AcDb2dPolyline
 66
     1
 10
0.0
 20
0.0
 30
0.0
  0
VERTEX
  5
730
330
72F
100
AcDbEntity
  8
_____1
 62
     7
100
AcDbVertex
100
AcDb2dVertex
 10
206.8972406581561
 20
168.454428306389
 30
0.0
  0
VERTEX
  5
731
330
72F
100
AcDbEntity
  8
_____1
 62
     7
100
AcDbVertex
100
AcDb2dVertex
 10
206.7945767449688
 20
166.1417341814693
 30
0.0
  0
SEQEND
  5
732
330
72F
100
AcDbEntity
  8
_____1
  0
POLYLINE
  5
733
330
1F
100
AcDbEntity
  8
_____1
 62
     7
100
AcDb2dPolyline
 66
     1
 10
0.0
 20
0.0
 30
0.0
  0
VERTEX
  5
734
330
733
100
AcDbEntity
  8
_____1
 62
     7
100
AcDbVertex
100
AcDb2dVertex
 10
206.7945767449688
 20
166.1417341814693
 30
0.0
  0
VERTEX
  5
735
330
733
100
AcDbEntity
  8
_____1
 62
     7
100
AcDbVertex
100
AcDb2dVertex
 10
207.2124671030096
 20
165.790678719933
 30
0.0
  0
SEQEND
  5
736
330
733
100
AcDbEntity
  8
_____1
  0
SPLINE
  5
737
330
1F
100
AcDbEntity
  8
_____1
 62
     7
100
AcDbSpline
210
0.0
220
0.0
230
1.0
 70
     8
 71
     3
 72
     8
 73
     4
 74
     0
 42
0.0000000001
 43
0.0000000001
 40
0.0
 40
0.0
 40
0.0
 40
0.0
 40
1.0
 40
1.0
 40
1.0
 40
1.0
 10
206.8972406581561
 20
164.8358698763139
 30
0.0
 10
207.0712180949332
 20
164.8358698763139
 30
0.0
 10
207.2124671030096
 20
165.2625452336375
 30
0.0
 10
207.2124671030096
 20
165.790678719933
 30
0.0
  0
POLYLINE
  5
738
330
1F
100
AcDbEntity
  8
_____1
 62
     7
100
AcDb2dPolyline
 66
     1
 10
0.0
 20
0.0
 30
0.0
  0
VERTEX
  5
739
330
738
100
AcDbEntity
  8
_____1
 62
     7
100
AcDbVertex
100
AcDb2dVertex
 10
206.8972406581561
 20
164.8358698763139
 30
0.0
  0
VERTEX
  5
73A
330
738
100
AcDbEntity
  8
_____1
 62
     7
100
AcDbVertex
100
AcDb2dVertex
 10
206.8972406581561
 20
160.7146716833523
 30
0.0
  0
SEQEND
  5
73B
330
738
100
AcDbEntity
  8
_____1
  0
POLYLINE
  5
73C
330
1F
100
AcDbEntity
  8
_____1
 62
     7
100
AcDb2dPolyline
 66
     1
 10
0.0
 20
0.0
 30
0.0
  0
VERTEX
  5
73D
330
73C
100
AcDbEntity
  8
_____1
 62
     7
100
AcDbVertex
100
AcDb2dVertex
 10
206.8972406581561
 20
160.7146716833523
 30
0.0
  0
VERTEX
  5
73E
330
73C
100
AcDbEntity
  8
_____1
 62
     7
100
AcDbVertex
100
AcDb2dVertex
 10
207.3168535650758
 20
160.613730319044
 30
0.0
  0
SEQEND
  5
73F
330
73C
100
AcDbEntity
  8
_____1
  0
POLYLINE
  5
740
330
1F
100
AcDbEntity
  8
_____1
 62
     7
100
AcDb2dPolyline
 66
     1
 10
0.0
 20
0.0
 30
0.0
  0
VERTEX
  5
741
330
740
100
AcDbEntity
  8
_____1
 62
     7
100
AcDbVertex
100
AcDb2dVertex
 10
207.3168535650758
 20
160.613730319044
 30
0.0
  0
VERTEX
  5
742
330
740
100
AcDbEntity
  8
_____1
 62
     7
100
AcDbVertex
100
AcDb2dVertex
 10
212.1675512082859
 20
160.613730319044
 30
0.0
  0
SEQEND
  5
743
330
740
100
AcDbEntity
  8
_____1
  0
POLYLINE
  5
744
330
1F
100
AcDbEntity
  8
_____1
 62
     7
100
AcDb2dPolyline
 66
     1
 10
0.0
 20
0.0
 30
0.0
  0
VERTEX
  5
745
330
744
100
AcDbEntity
  8
_____1
 62
     7
100
AcDbVertex
100
AcDb2dVertex
 10
212.1675512082859
 20
160.613730319044
 30
0.0
  0
VERTEX
  5
746
330
744
100
AcDbEntity
  8
_____1
 62
     7
100
AcDbVertex
100
AcDb2dVertex
 10
212.1675512082859
 20
150.6634267196111
 30
0.0
  0
SEQEND
  5
747
330
744
100
AcDbEntity
  8
_____1
  0
POLYLINE
  5
748
330
1F
100
AcDbEntity
  8
_____1
 62
     7
100
AcDb2dPolyline
 66
     1
 10
0.0
 20
0.0
 30
0.0
  0
VERTEX
  5
749
330
748
100
AcDbEntity
  8
_____1
 62
     7
100
AcDbVertex
100
AcDb2dVertex
 10
212.1675512082859
 20
150.6634267196111
 30
0.0
  0
VERTEX
  5
74A
330
748
100
AcDbEntity
  8
_____1
 62
     7
100
AcDbVertex
100
AcDb2dVertex
 10
206.7945767449688
 20
150.5619685906392
 30
0.0
  0
SEQEND
  5
74B
330
748
100
AcDbEntity
  8
_____1
  0
POLYLINE
  5
74C
330
1F
100
AcDbEntity
  8
_____1
 62
     7
100
AcDb2dPolyline
 66
     1
 10
0.0
 20
0.0
 30
0.0
  0
VERTEX
  5
74D
330
74C
100
AcDbEntity
  8
_____1
 62
     7
100
AcDbVertex
100
AcDb2dVertex
 10
206.7945767449688
 20
150.5619685906392
 30
0.0
  0
VERTEX
  5
74E
330
74C
100
AcDbEntity
  8
_____1
 62
     7
100
AcDbVertex
100
AcDb2dVertex
 10
206.8972406581561
 20
122.6192974404756
 30
0.0
  0
SEQEND
  5
74F
330
74C
100
AcDbEntity
  8
_____1
  0
POLYLINE
  5
750
330
1F
100
AcDbEntity
  8
_____1
 62
     7
100
AcDb2dPolyline
 66
     1
 10
0.0
 20
0.0
 30
0.0
  0
VERTEX
  5
751
330
750
100
AcDbEntity
  8
_____1
 62
     7
100
AcDbVertex
100
AcDb2dVertex
 10
207.4208955173663
 20
150.6634267196111
 30
0.0
  0
VERTEX
  5
752
330
750
100
AcDbEntity
  8
_____1
 62
     7
100
AcDbVertex
100
AcDb2dVertex
 10
207.4208955173663
 20
160.613730319044
 30
0.0
  0
SEQEND
  5
753
330
750
100
AcDbEntity
  8
_____1
  0
POLYLINE
  5
754
330
1F
100
AcDbEntity
  8
_____1
 62
     7
100
AcDb2dPolyline
 66
     1
 10
0.0
 20
0.0
 30
0.0
  0
VERTEX
  5
755
330
754
100
AcDbEntity
  8
_____1
 62
     7
100
AcDbVertex
100
AcDb2dVertex
 10
206.8972406581561
 20
139.706293300414
 30
0.0
  0
VERTEX
  5
756
330
754
100
AcDbEntity
  8
_____1
 62
     7
100
AcDbVertex
100
AcDb2dVertex
 10
212.1675512082859
 20
139.706293300414
 30
0.0
  0
VERTEX
  5
757
330
754
100
AcDbEntity
  8
_____1
 62
     7
100
AcDbVertex
100
AcDb2dVertex
 10
212.1675512082859
 20
149.65797493895
 30
0.0
  0
VERTEX
  5
758
330
754
100
AcDbEntity
  8
_____1
 62
     7
100
AcDbVertex
100
AcDb2dVertex
 10
206.6905347926784
 20
149.65797493895
 30
0.0
  0
SEQEND
  5
759
330
754
100
AcDbEntity
  8
_____1
  0
POLYLINE
  5
75A
330
1F
100
AcDbEntity
  8
_____1
 62
     7
100
AcDb2dPolyline
 66
     1
 10
0.0
 20
0.0
 30
0.0
  0
VERTEX
  5
75B
330
75A
100
AcDbEntity
  8
_____1
 62
     7
100
AcDbVertex
100
AcDb2dVertex
 10
207.9414497885943
 20
167.7504225795495
 30
0.0
  0
VERTEX
  5
75C
330
75A
100
AcDbEntity
  8
_____1
 62
     7
100
AcDbVertex
100
AcDb2dVertex
 10
207.0033496691013
 20
167.7504225795495
 30
0.0
  0
SEQEND
  5
75D
330
75A
100
AcDbEntity
  8
_____1
  0
POLYLINE
  5
75E
330
1F
100
AcDbEntity
  8
_____1
 62
     7
100
AcDb2dPolyline
 66
     1
 10
0.0
 20
0.0
 30
0.0
  0
VERTEX
  5
75F
330
75E
100
AcDbEntity
  8
_____1
 62
     7
100
AcDbVertex
100
AcDb2dVertex
 10
202.5157653295804
 20
177.5000492345811
 30
0.0
  0
VERTEX
  5
760
330
75E
100
AcDbEntity
  8
_____1
 62
     7
100
AcDbVertex
100
AcDb2dVertex
 10
205.8544095668211
 20
177.5000492345811
 30
0.0
  0
SEQEND
  5
761
330
75E
100
AcDbEntity
  8
_____1
  0
POLYLINE
  5
762
330
1F
100
AcDbEntity
  8
_____1
 62
     7
100
AcDb2dPolyline
 66
     1
 10
0.0
 20
0.0
 30
0.0
  0
VERTEX
  5
763
330
762
100
AcDbEntity
  8
_____1
 62
     7
100
AcDbVertex
100
AcDb2dVertex
 10
205.8544095668211
 20
177.5000492345811
 30
0.0
  0
VERTEX
  5
764
330
762
100
AcDbEntity
  8
_____1
 62
     7
100
AcDbVertex
100
AcDb2dVertex
 10
205.8544095668211
 20
175.992474455697
 30
0.0
  0
SEQEND
  5
765
330
762
100
AcDbEntity
  8
_____1
  0
SPLINE
  5
766
330
1F
100
AcDbEntity
  8
_____1
 62
     7
100
AcDbSpline
210
0.0
220
0.0
230
1.0
 70
     8
 71
     3
 72
     8
 73
     4
 74
     0
 42
0.0000000001
 43
0.0000000001
 40
0.0
 40
0.0
 40
0.0
 40
0.0
 40
1.0
 40
1.0
 40
1.0
 40
1.0
 10
205.5422837099497
 20
175.5912928217824
 30
0.0
 10
205.7145385978478
 20
175.5912928217824
 30
0.0
 10
205.8544095668211
 20
175.7707824149722
 30
0.0
 10
205.8544095668211
 20
175.992474455697
 30
0.0
  0
POLYLINE
  5
767
330
1F
100
AcDbEntity
  8
_____1
 62
     7
100
AcDb2dPolyline
 66
     1
 10
0.0
 20
0.0
 30
0.0
  0
VERTEX
  5
768
330
767
100
AcDbEntity
  8
_____1
 62
     7
100
AcDbVertex
100
AcDb2dVertex
 10
205.5422837099497
 20
175.5912928217824
 30
0.0
  0
VERTEX
  5
769
330
767
100
AcDbEntity
  8
_____1
 62
     7
100
AcDbVertex
100
AcDb2dVertex
 10
202.8285802060033
 20
175.4896624379226
 30
0.0
  0
SEQEND
  5
76A
330
767
100
AcDbEntity
  8
_____1
  0
POLYLINE
  5
76B
330
1F
100
AcDbEntity
  8
_____1
 62
     7
100
AcDb2dPolyline
 66
     1
 10
0.0
 20
0.0
 30
0.0
  0
VERTEX
  5
76C
330
76B
100
AcDbEntity
  8
_____1
 62
     7
100
AcDbVertex
100
AcDb2dVertex
 10
202.8285802060033
 20
175.4896624379226
 30
0.0
  0
VERTEX
  5
76D
330
76B
100
AcDbEntity
  8
_____1
 62
     7
100
AcDbVertex
100
AcDb2dVertex
 10
202.5157653295804
 20
175.8419236836741
 30
0.0
  0
SEQEND
  5
76E
330
76B
100
AcDbEntity
  8
_____1
  0
POLYLINE
  5
76F
330
1F
100
AcDbEntity
  8
_____1
 62
     7
100
AcDb2dPolyline
 66
     1
 10
0.0
 20
0.0
 30
0.0
  0
VERTEX
  5
770
330
76F
100
AcDbEntity
  8
_____1
 62
     7
100
AcDbVertex
100
AcDb2dVertex
 10
202.5157653295804
 20
175.8419236836741
 30
0.0
  0
VERTEX
  5
771
330
76F
100
AcDbEntity
  8
_____1
 62
     7
100
AcDbVertex
100
AcDb2dVertex
 10
202.5157653295804
 20
177.5000492345811
 30
0.0
  0
SEQEND
  5
772
330
76F
100
AcDbEntity
  8
_____1
  0
SPLINE
  5
773
330
1F
100
AcDbEntity
  8
_____1
 62
     7
100
AcDbSpline
210
0.0
220
0.0
230
1.0
 70
    11
 71
     3
 72
    20
 73
    16
 74
     0
 42
0.0000000001
 43
0.0000000001
 40
0.0
 40
0.0
 40
0.0
 40
0.0
 40
1.0
 40
1.0
 40
1.0
 40
2.0
 40
2.0
 40
2.0
 40
3.0
 40
3.0
 40
3.0
 40
4.0
 40
4.0
 40
4.0
 40
5.0
 40
5.0
 40
5.0
 40
5.0
 10
206.9981820224644
 20
169.3591109776297
 30
0.0
 10
207.5190808034682
 20
169.3591109776297
 30
0.0
 10
207.9414497885943
 20
169.8202373125329
 30
0.0
 10
207.9414497885943
 20
170.3891952072603
 30
0.0
 10
207.9414497885943
 20
170.9579808470997
 30
0.0
 10
207.5190808034682
 20
171.4191071820029
 30
0.0
 10
206.9981820224644
 20
171.4191071820029
 30
0.0
 10
206.4769387316848
 20
171.4191071820029
 30
0.0
 10
206.0545697465587
 20
170.9579808470997
 30
0.0
 10
206.0545697465587
 20
170.3891952072603
 30
0.0
 10
206.0545697465587
 20
169.8202373125329
 30
0.0
 10
206.4769387316848
 20
169.3591109776297
 30
0.0
 10
206.9981820224644
 20
169.3591109776297
 30
0.0
 10
206.9981820224644
 20
169.3591109776297
 30
0.0
 10
206.9981820224644
 20
169.3591109776297
 30
0.0
 10
206.9981820224644
 20
169.3591109776297
 30
0.0
  0
SPLINE
  5
774
330
1F
100
AcDbEntity
  8
_____1
 62
     7
100
AcDbSpline
210
0.0
220
0.0
230
1.0
 70
    11
 71
     3
 72
    20
 73
    16
 74
     0
 42
0.0000000001
 43
0.0000000001
 40
0.0
 40
0.0
 40
0.0
 40
0.0
 40
1.0
 40
1.0
 40
1.0
 40
2.0
 40
2.0
 40
2.0
 40
3.0
 40
3.0
 40
3.0
 40
4.0
 40
4.0
 40
4.0
 40
5.0
 40
5.0
 40
5.0
 40
5.0
 10
203.5120876011829
 20
163.738778495291
 30
0.0
 10
205.0103606161205
 20
163.738778495291
 30
0.0
 10
206.2251020855778
 20
165.0327572131814
 30
0.0
 10
206.2251020855778
 20
166.6288710044451
 30
0.0
 10
206.2251020855778
 20
168.2249847957087
 30
0.0
 10
205.0103606161205
 20
169.5187912587112
 30
0.0
 10
203.5120876011829
 20
169.5187912587112
 30
0.0
 10
202.0138145862454
 20
169.5187912587112
 30
0.0
 10
200.7990731167881
 20
168.2249847957087
 30
0.0
 10
200.7990731167881
 20
166.6288710044451
 30
0.0
 10
200.7990731167881
 20
165.0327572131814
 30
0.0
 10
202.0138145862454
 20
163.738778495291
 30
0.0
 10
203.5120876011829
 20
163.738778495291
 30
0.0
 10
203.5120876011829
 20
163.738778495291
 30
0.0
 10
203.5120876011829
 20
163.738778495291
 30
0.0
 10
203.5120876011829
 20
163.738778495291
 30
0.0
  0
POLYLINE
  5
775
330
1F
100
AcDbEntity
  8
_____1
 62
     7
100
AcDb2dPolyline
 66
     1
 10
0.0
 20
0.0
 30
0.0
  0
VERTEX
  5
776
330
775
100
AcDbEntity
  8
_____1
 62
     7
100
AcDbVertex
100
AcDb2dVertex
 10
202.2029504531575
 20
168.0520408882591
 30
0.0
  0
VERTEX
  5
777
330
775
100
AcDbEntity
  8
_____1
 62
     7
100
AcDbVertex
100
AcDb2dVertex
 10
204.8122674950377
 20
165.2880389570464
 30
0.0
  0
SEQEND
  5
778
330
775
100
AcDbEntity
  8
_____1
  0
POLYLINE
  5
779
330
1F
100
AcDbEntity
  8
_____1
 62
     7
100
AcDb2dPolyline
 66
     1
 10
0.0
 20
0.0
 30
0.0
  0
VERTEX
  5
77A
330
779
100
AcDbEntity
  8
_____1
 62
     7
100
AcDbVertex
100
AcDb2dVertex
 10
204.8122674950377
 20
167.9516162886145
 30
0.0
  0
VERTEX
  5
77B
330
779
100
AcDbEntity
  8
_____1
 62
     7
100
AcDbVertex
100
AcDb2dVertex
 10
202.0978749715397
 20
165.2880389570464
 30
0.0
  0
SEQEND
  5
77C
330
779
100
AcDbEntity
  8
_____1
  0
SPLINE
  5
77D
330
1F
100
AcDbEntity
  8
_____1
 62
     7
100
AcDbSpline
210
0.0
220
0.0
230
1.0
 70
    11
 71
     3
 72
    20
 73
    16
 74
     0
 42
0.0000000001
 43
0.0000000001
 40
0.0
 40
0.0
 40
0.0
 40
0.0
 40
1.0
 40
1.0
 40
1.0
 40
2.0
 40
2.0
 40
2.0
 40
3.0
 40
3.0
 40
3.0
 40
4.0
 40
4.0
 40
4.0
 40
5.0
 40
5.0
 40
5.0
 40
5.0
 10
203.5120876011829
 20
135.732717546381
 30
0.0
 10
205.0103606161205
 20
135.732717546381
 30
0.0
 10
206.2251020855778
 20
137.0266962642714
 30
0.0
 10
206.2251020855778
 20
138.6224655457592
 30
0.0
 10
206.2251020855778
 20
140.2182348272471
 30
0.0
 10
205.0103606161205
 20
141.5122135451375
 30
0.0
 10
203.5120876011829
 20
141.5122135451375
 30
0.0
 10
202.0138145862454
 20
141.5122135451375
 30
0.0
 10
200.7990731167881
 20
140.2182348272471
 30
0.0
 10
200.7990731167881
 20
138.6224655457592
 30
0.0
 10
200.7990731167881
 20
137.0266962642714
 30
0.0
 10
202.0138145862454
 20
135.732717546381
 30
0.0
 10
203.5120876011829
 20
135.732717546381
 30
0.0
 10
203.5120876011829
 20
135.732717546381
 30
0.0
 10
203.5120876011829
 20
135.732717546381
 30
0.0
 10
203.5120876011829
 20
135.732717546381
 30
0.0
  0
POLYLINE
  5
77E
330
1F
100
AcDbEntity
  8
_____1
 62
     7
100
AcDb2dPolyline
 66
     1
 10
0.0
 20
0.0
 30
0.0
  0
VERTEX
  5
77F
330
77E
100
AcDbEntity
  8
_____1
 62
     7
100
AcDbVertex
100
AcDb2dVertex
 10
202.2029504531575
 20
140.045979939349
 30
0.0
  0
VERTEX
  5
780
330
77E
100
AcDbEntity
  8
_____1
 62
     7
100
AcDbVertex
100
AcDb2dVertex
 10
204.8122674950377
 20
137.2816334983605
 30
0.0
  0
SEQEND
  5
781
330
77E
100
AcDbEntity
  8
_____1
  0
POLYLINE
  5
782
330
1F
100
AcDbEntity
  8
_____1
 62
     7
100
AcDb2dPolyline
 66
     1
 10
0.0
 20
0.0
 30
0.0
  0
VERTEX
  5
783
330
782
100
AcDbEntity
  8
_____1
 62
     7
100
AcDbVertex
100
AcDb2dVertex
 10
204.8122674950377
 20
139.9440050457133
 30
0.0
  0
VERTEX
  5
784
330
782
100
AcDbEntity
  8
_____1
 62
     7
100
AcDbVertex
100
AcDb2dVertex
 10
202.0978749715397
 20
137.2816334983605
 30
0.0
  0
SEQEND
  5
785
330
782
100
AcDbEntity
  8
_____1
  0
SPLINE
  5
786
330
1F
100
AcDbEntity
  8
_____1
 62
     7
100
AcDbSpline
210
0.0
220
0.0
230
1.0
 70
     8
 71
     3
 72
    44
 73
    40
 74
     0
 42
0.0000000001
 43
0.0000000001
 40
0.0
 40
0.0
 40
0.0
 40
0.0
 40
1.0
 40
1.0
 40
1.0
 40
2.0
 40
2.0
 40
2.0
 40
3.0
 40
3.0
 40
3.0
 40
4.0
 40
4.0
 40
4.0
 40
5.0
 40
5.0
 40
5.0
 40
6.0
 40
6.0
 40
6.0
 40
7.0
 40
7.0
 40
7.0
 40
8.0
 40
8.0
 40
8.0
 40
9.0
 40
9.0
 40
9.0
 40
10.0
 40
10.0
 40
10.0
 40
11.0
 40
11.0
 40
11.0
 40
12.0
 40
12.0
 40
12.0
 40
13.0
 40
13.0
 40
13.0
 40
13.0
 10
206.7945767449688
 20
177.8023565628422
 30
0.0
 10
206.7945767449688
 20
178.245568389404
 30
0.0
 10
206.4666034384109
 20
178.6059256148868
 30
0.0
 10
206.0628379811778
 20
178.6059256148868
 30
0.0
 10
206.0628379811778
 20
178.6059256148868
 30
0.0
 10
206.0628379811778
 20
178.6059256148868
 30
0.0
 10
206.0628379811778
 20
178.6059256148868
 30
0.0
 10
206.0628379811778
 20
178.6059256148868
 30
0.0
 10
193.6442940930532
 20
178.6059256148868
 30
0.0
 10
193.6442940930532
 20
178.6059256148868
 30
0.0
 10
193.6442940930532
 20
178.6059256148868
 30
0.0
 10
193.6442940930532
 20
178.6059256148868
 30
0.0
 10
193.6442940930532
 20
178.6059256148868
 30
0.0
 10
193.2997843172571
 20
178.6059256148868
 30
0.0
 10
193.0196978695348
 20
178.1558235928091
 30
0.0
 10
193.0196978695348
 20
177.6009905988894
 30
0.0
 10
193.0196978695348
 20
177.6009905988894
 30
0.0
 10
193.0196978695348
 20
177.6009905988894
 30
0.0
 10
193.0196978695348
 20
177.6009905988894
 30
0.0
 10
193.0196978695348
 20
177.6009905988894
 30
0.0
 10
193.0383013974278
 20
122.5193896054947
 30
0.0
 10
193.0383013974278
 20
122.5193896054947
 30
0.0
 10
193.0383013974278
 20
122.5193896054947
 30
0.0
 10
193.0383013974278
 20
122.5193896054947
 30
0.0
 10
193.0383013974278
 20
122.5193896054947
 30
0.0
 10
193.0383013974278
 20
122.0742829751661
 30
0.0
 10
193.3359578437157
 20
121.7153037887865
 30
0.0
 10
193.8541005465131
 20
121.7153037887865
 30
0.0
 10
193.8541005465131
 20
121.7153037887865
 30
0.0
 10
193.8541005465131
 20
121.7153037887865
 30
0.0
 10
193.8541005465131
 20
121.7153037887865
 30
0.0
 10
193.8541005465131
 20
121.7153037887865
 30
0.0
 10
206.1686024823472
 20
121.6650053615202
 30
0.0
 10
206.1686024823472
 20
121.6650053615202
 30
0.0
 10
206.1686024823472
 20
121.6650053615202
 30
0.0
 10
206.1686024823472
 20
121.6650053615202
 30
0.0
 10
206.1686024823472
 20
121.6650053615202
 30
0.0
 10
206.5709899004771
 20
121.6650053615202
 30
0.0
 10
206.8972406581561
 20
122.0921974835075
 30
0.0
 10
206.8972406581561
 20
122.6192974404756
 30
0.0
  0
POLYLINE
  5
787
330
1F
100
AcDbEntity
  8
_____1
 62
     7
100
AcDb2dPolyline
 66
     1
 10
0.0
 20
0.0
 30
0.0
  0
VERTEX
  5
788
330
787
100
AcDbEntity
  8
_____1
 62
     7
100
AcDbVertex
100
AcDb2dVertex
 10
208.6721550230579
 20
125.8370187464118
 30
0.0
  0
VERTEX
  5
789
330
787
100
AcDbEntity
  8
_____1
 62
     7
100
AcDbVertex
100
AcDb2dVertex
 10
197.4018622176621
 20
121.6650053615202
 30
0.0
  0
SEQEND
  5
78A
330
787
100
AcDbEntity
  8
_____1
  0
POLYLINE
  5
78B
330
1F
100
AcDbEntity
  8
_____1
 62
     7
100
AcDb2dPolyline
 66
     1
 10
0.0
 20
0.0
 30
0.0
  0
VERTEX
  5
78C
330
78B
100
AcDbEntity
  8
_____1
 62
     7
100
AcDbVertex
100
AcDb2dVertex
 10
210.3433719454452
 20
125.2327485996653
 30
0.0
  0
VERTEX
  5
78D
330
78B
100
AcDbEntity
  8
_____1
 62
     7
100
AcDbVertex
100
AcDb2dVertex
 10
210.3433719454452
 20
120.8106211175457
 30
0.0
  0
SEQEND
  5
78E
330
78B
100
AcDbEntity
  8
_____1
  0
POLYLINE
  5
78F
330
1F
100
AcDbEntity
  8
_____1
 62
     7
100
AcDb2dPolyline
 66
     1
 10
0.0
 20
0.0
 30
0.0
  0
VERTEX
  5
790
330
78F
100
AcDbEntity
  8
_____1
 62
     7
100
AcDbVertex
100
AcDb2dVertex
 10
209.8200615960108
 20
120.1071321553699
 30
0.0
  0
VERTEX
  5
791
330
78F
100
AcDbEntity
  8
_____1
 62
     7
100
AcDbVertex
100
AcDb2dVertex
 10
206.7945767449688
 20
120.1071321553699
 30
0.0
  0
VERTEX
  5
792
330
78F
100
AcDbEntity
  8
_____1
 62
     7
100
AcDbVertex
100
AcDb2dVertex
 10
206.7945767449688
 20
118.4989605219534
 30
0.0
  0
VERTEX
  5
793
330
78F
100
AcDbEntity
  8
_____1
 62
     7
100
AcDbVertex
100
AcDb2dVertex
 10
207.3168535650758
 20
118.0965731038235
 30
0.0
  0
VERTEX
  5
794
330
78F
100
AcDbEntity
  8
_____1
 62
     7
100
AcDbVertex
100
AcDb2dVertex
 10
211.2804385356107
 20
118.0965731038235
 30
0.0
  0
SEQEND
  5
795
330
78F
100
AcDbEntity
  8
_____1
  0
POLYLINE
  5
796
330
1F
100
AcDbEntity
  8
_____1
 62
     7
100
AcDb2dPolyline
 66
     1
 10
0.0
 20
0.0
 30
0.0
  0
VERTEX
  5
797
330
796
100
AcDbEntity
  8
_____1
 62
     7
100
AcDbVertex
100
AcDb2dVertex
 10
212.2733157094553
 20
119.1011636100451
 30
0.0
  0
VERTEX
  5
798
330
796
100
AcDbEntity
  8
_____1
 62
     7
100
AcDbVertex
100
AcDb2dVertex
 10
212.2209502235343
 20
131.867317861948
 30
0.0
  0
VERTEX
  5
799
330
796
100
AcDbEntity
  8
_____1
 62
     7
100
AcDbVertex
100
AcDb2dVertex
 10
208.5688020903191
 20
134.0776925834562
 30
0.0
  0
VERTEX
  5
79A
330
796
100
AcDbEntity
  8
_____1
 62
     7
100
AcDbVertex
100
AcDb2dVertex
 10
208.0985462463573
 20
134.0776925834562
 30
0.0
  0
VERTEX
  5
79B
330
796
100
AcDbEntity
  8
_____1
 62
     7
100
AcDbVertex
100
AcDb2dVertex
 10
208.0468697799879
 20
132.8719083681696
 30
0.0
  0
VERTEX
  5
79C
330
796
100
AcDbEntity
  8
_____1
 62
     7
100
AcDbVertex
100
AcDb2dVertex
 10
201.7843710755651
 20
132.8719083681696
 30
0.0
  0
SEQEND
  5
79D
330
796
100
AcDbEntity
  8
_____1
  0
POLYLINE
  5
79E
330
1F
100
AcDbEntity
  8
_____1
 62
     7
100
AcDb2dPolyline
 66
     1
 10
0.0
 20
0.0
 30
0.0
  0
VERTEX
  5
79F
330
79E
100
AcDbEntity
  8
_____1
 62
     7
100
AcDbVertex
100
AcDb2dVertex
 10
201.6796401037231
 20
134.3794831470536
 30
0.0
  0
VERTEX
  5
7A0
330
79E
100
AcDbEntity
  8
_____1
 62
     7
100
AcDbVertex
100
AcDb2dVertex
 10
206.7945767449688
 20
134.3794831470536
 30
0.0
  0
SEQEND
  5
7A1
330
79E
100
AcDbEntity
  8
_____1
  0
POLYLINE
  5
7A2
330
1F
100
AcDbEntity
  8
_____1
 62
     7
100
AcDb2dPolyline
 66
     1
 10
0.0
 20
0.0
 30
0.0
  0
VERTEX
  5
7A3
330
7A2
100
AcDbEntity
  8
_____1
 62
     7
100
AcDbVertex
100
AcDb2dVertex
 10
209.4035492770732
 20
131.9665366773773
 30
0.0
  0
VERTEX
  5
7A4
330
7A2
100
AcDbEntity
  8
_____1
 62
     7
100
AcDbVertex
100
AcDb2dVertex
 10
201.8367365614862
 20
131.5655272983505
 30
0.0
  0
SEQEND
  5
7A5
330
7A2
100
AcDbEntity
  8
_____1
  0
SPLINE
  5
7A6
330
1F
100
AcDbEntity
  8
_____1
 62
     7
100
AcDbSpline
210
0.0
220
0.0
230
1.0
 70
     8
 71
     3
 72
     8
 73
     4
 74
     0
 42
0.0000000001
 43
0.0000000001
 40
0.0
 40
0.0
 40
0.0
 40
0.0
 40
1.0
 40
1.0
 40
1.0
 40
1.0
 10
201.8367365614862
 20
131.5655272983505
 30
0.0
 10
201.4622544351957
 20
131.5655272983505
 30
0.0
 10
201.1594303422709
 20
131.1155975311607
 30
0.0
 10
201.1594303422709
 20
130.5595587530257
 30
0.0
  0
SPLINE
  5
7A7
330
1F
100
AcDbEntity
  8
_____1
 62
     7
100
AcDbSpline
210
0.0
220
0.0
230
1.0
 70
     8
 71
     3
 72
     8
 73
     4
 74
     0
 42
0.0000000001
 43
0.0000000001
 40
0.0
 40
0.0
 40
0.0
 40
0.0
 40
1.0
 40
1.0
 40
1.0
 40
1.0
 10
201.1594303422709
 20
130.5595587530257
 30
0.0
 10
201.1594303422709
 20
130.0600195781213
 30
0.0
 10
201.4856810999499
 20
129.6555651013365
 30
0.0
 10
201.889446557183
 20
129.6555651013365
 30
0.0
  0
POLYLINE
  5
7A8
330
1F
100
AcDbEntity
  8
_____1
 62
     7
100
AcDb2dPolyline
 66
     1
 10
0.0
 20
0.0
 30
0.0
  0
VERTEX
  5
7A9
330
7A8
100
AcDbEntity
  8
_____1
 62
     7
100
AcDbVertex
100
AcDb2dVertex
 10
206.4824508880975
 20
130.4589618984932
 30
0.0
  0
VERTEX
  5
7AA
330
7A8
100
AcDbEntity
  8
_____1
 62
     7
100
AcDbVertex
100
AcDb2dVertex
 10
208.2552981943446
 20
130.4589618984932
 30
0.0
  0
VERTEX
  5
7AB
330
7A8
100
AcDbEntity
  8
_____1
 62
     7
100
AcDbVertex
100
AcDb2dVertex
 10
208.3583066173076
 20
128.5496887210309
 30
0.0
  0
VERTEX
  5
7AC
330
7A8
100
AcDbEntity
  8
_____1
 62
     7
100
AcDbVertex
100
AcDb2dVertex
 10
201.5759426612084
 20
125.8370187464118
 30
0.0
  0
SEQEND
  5
7AD
330
7A8
100
AcDbEntity
  8
_____1
  0
POLYLINE
  5
7AE
330
1F
100
AcDbEntity
  8
_____1
 62
     7
100
AcDb2dPolyline
 66
     1
 10
0.0
 20
0.0
 30
0.0
  0
VERTEX
  5
7AF
330
7AE
100
AcDbEntity
  8
_____1
 62
     7
100
AcDbVertex
100
AcDb2dVertex
 10
202.5157653295804
 20
124.1275612389112
 30
0.0
  0
VERTEX
  5
7B0
330
7AE
100
AcDbEntity
  8
_____1
 62
     7
100
AcDbVertex
100
AcDb2dVertex
 10
209.4035492770732
 20
126.6404155435685
 30
0.0
  0
SEQEND
  5
7B1
330
7AE
100
AcDbEntity
  8
_____1
  0
POLYLINE
  5
7B2
330
1F
100
AcDbEntity
  8
_____1
 62
     7
100
AcDb2dPolyline
 66
     1
 10
0.0
 20
0.0
 30
0.0
  0
VERTEX
  5
7B3
330
7B2
100
AcDbEntity
  8
_____1
 62
     7
100
AcDbVertex
100
AcDb2dVertex
 10
210.2376074442757
 20
131.2630477152015
 30
0.0
  0
VERTEX
  5
7B4
330
7B2
100
AcDbEntity
  8
_____1
 62
     7
100
AcDbVertex
100
AcDb2dVertex
 10
210.2376074442757
 20
127.9474856329391
 30
0.0
  0
SEQEND
  5
7B5
330
7B2
100
AcDbEntity
  8
_____1
  0
POLYLINE
  5
7B6
330
1F
100
AcDbEntity
  8
_____1
 62
     7
100
AcDb2dPolyline
 66
     1
 10
0.0
 20
0.0
 30
0.0
  0
VERTEX
  5
7B7
330
7B6
100
AcDbEntity
  8
_____1
 62
     7
100
AcDbVertex
100
AcDb2dVertex
 10
201.1594303422709
 20
130.5595587530257
 30
0.0
  0
VERTEX
  5
7B8
330
7B6
100
AcDbEntity
  8
_____1
 62
     7
100
AcDbVertex
100
AcDb2dVertex
 10
201.1594303422709
 20
124.831050201087
 30
0.0
  0
SEQEND
  5
7B9
330
7B6
100
AcDbEntity
  8
_____1
  0
SPLINE
  5
7BA
330
1F
100
AcDbEntity
  8
_____1
 62
     7
100
AcDbSpline
210
0.0
220
0.0
230
1.0
 70
     8
 71
     3
 72
     8
 73
     4
 74
     0
 42
0.0000000001
 43
0.0000000001
 40
0.0
 40
0.0
 40
0.0
 40
0.0
 40
1.0
 40
1.0
 40
1.0
 40
1.0
 10
201.6796401037231
 20
134.3794831470536
 30
0.0
 10
201.3919744409333
 20
134.3794831470536
 30
0.0
 10
201.1594303422709
 20
134.0198149411224
 30
0.0
 10
201.1594303422709
 20
133.5747083107938
 30
0.0
  0
SPLINE
  5
7BB
330
1F
100
AcDbEntity
  8
_____1
 62
     7
100
AcDbSpline
210
0.0
220
0.0
230
1.0
 70
     8
 71
     3
 72
     8
 73
     4
 74
     0
 42
0.0000000001
 43
0.0000000001
 40
0.0
 40
0.0
 40
0.0
 40
0.0
 40
1.0
 40
1.0
 40
1.0
 40
1.0
 10
201.1594303422709
 20
133.5747083107938
 30
0.0
 10
201.1594303422709
 20
133.1874793227989
 30
0.0
 10
201.4395167899932
 20
132.8719083681696
 30
0.0
 10
201.7843710755651
 20
132.8719083681696
 30
0.0
  0
SPLINE
  5
7BC
330
1F
100
AcDbEntity
  8
_____1
 62
     7
100
AcDbSpline
210
0.0
220
0.0
230
1.0
 70
     8
 71
     3
 72
     8
 73
     4
 74
     0
 42
0.0000000001
 43
0.0000000001
 40
0.0
 40
0.0
 40
0.0
 40
0.0
 40
1.0
 40
1.0
 40
1.0
 40
1.0
 10
205.5422837099497
 20
129.6555651013365
 30
0.0
 10
205.9450156378555
 20
129.6555651013365
 30
0.0
 10
206.2712663955344
 20
130.0159223268194
 30
0.0
 10
206.2712663955344
 20
130.4589618984932
 30
0.0
  0
SPLINE
  5
7BD
330
1F
100
AcDbEntity
  8
_____1
 62
     7
100
AcDbSpline
210
0.0
220
0.0
230
1.0
 70
     8
 71
     3
 72
     8
 73
     4
 74
     0
 42
0.0000000001
 43
0.0000000001
 40
0.0
 40
0.0
 40
0.0
 40
0.0
 40
1.0
 40
1.0
 40
1.0
 40
1.0
 10
201.5759426612084
 20
125.8370187464118
 30
0.0
 10
201.4033432635346
 20
125.8370187464118
 30
0.0
 10
201.2634722945613
 20
125.2740897727609
 30
0.0
 10
201.2634722945613
 20
124.5802470843074
 30
0.0
  0
SPLINE
  5
7BE
330
1F
100
AcDbEntity
  8
_____1
 62
     7
100
AcDbSpline
210
0.0
220
0.0
230
1.0
 70
     8
 71
     3
 72
     8
 73
     4
 74
     0
 42
0.0000000001
 43
0.0000000001
 40
0.0
 40
0.0
 40
0.0
 40
0.0
 40
1.0
 40
1.0
 40
1.0
 40
1.0
 10
201.3675142468518
 20
124.4293518025087
 30
0.0
 10
201.3675142468518
 20
124.5134121878029
 30
0.0
 10
201.3210054271193
 20
124.5802470843074
 30
0.0
 10
201.2634722945613
 20
124.5802470843074
 30
0.0
  0
SPLINE
  5
7BF
330
1F
100
AcDbEntity
  8
_____1
 62
     7
100
AcDbSpline
210
0.0
220
0.0
230
1.0
 70
     8
 71
     3
 72
     8
 73
     4
 74
     0
 42
0.0000000001
 43
0.0000000001
 40
0.0
 40
0.0
 40
0.0
 40
0.0
 40
1.0
 40
1.0
 40
1.0
 40
1.0
 10
201.2634722945613
 20
124.5299486570411
 30
0.0
 10
201.2634722945613
 20
124.3080843614284
 30
0.0
 10
201.8715320488416
 20
124.1275612389112
 30
0.0
 10
202.6201517916466
 20
124.1275612389112
 30
0.0
  0
SPLINE
  5
7C0
330
1F
100
AcDbEntity
  8
_____1
 62
     7
100
AcDbSpline
210
0.0
220
0.0
230
1.0
 70
     8
 71
     3
 72
     8
 73
     4
 74
     0
 42
0.0000000001
 43
0.0000000001
 40
0.0
 40
0.0
 40
0.0
 40
0.0
 40
1.0
 40
1.0
 40
1.0
 40
1.0
 10
210.2427750909127
 20
130.8620383361747
 30
0.0
 10
210.2427750909127
 20
131.5283202425645
 30
0.0
 10
209.9141127648031
 20
132.0678225514613
 30
0.0
 10
209.5079357391394
 20
132.0678225514613
 30
0.0
  0
SPLINE
  5
7C1
330
1F
100
AcDbEntity
  8
_____1
 62
     7
100
AcDbSpline
210
0.0
220
0.0
230
1.0
 70
     8
 71
     3
 72
     8
 73
     4
 74
     0
 42
0.0000000001
 43
0.0000000001
 40
0.0
 40
0.0
 40
0.0
 40
0.0
 40
1.0
 40
1.0
 40
1.0
 40
1.0
 10
209.4035492770732
 20
126.6404155435685
 30
0.0
 10
209.8676039450706
 20
126.6404155435685
 30
0.0
 10
210.2458756788948
 20
127.2708684332755
 30
0.0
 10
210.2458756788948
 20
128.0480824874716
 30
0.0
  0
POLYLINE
  5
7C2
330
1F
100
AcDbEntity
  8
_____1
 62
     7
100
AcDb2dPolyline
 66
     1
 10
0.0
 20
0.0
 30
0.0
  0
VERTEX
  5
7C3
330
7C2
100
AcDbEntity
  8
_____1
 62
     7
100
AcDbVertex
100
AcDb2dVertex
 10
208.6721550230579
 20
125.8370187464118
 30
0.0
  0
VERTEX
  5
7C4
330
7C2
100
AcDbEntity
  8
_____1
 62
     7
100
AcDbVertex
100
AcDb2dVertex
 10
208.7772305046758
 20
125.8370187464118
 30
0.0
  0
SEQEND
  5
7C5
330
7C2
100
AcDbEntity
  8
_____1
  0
SPLINE
  5
7C6
330
1F
100
AcDbEntity
  8
_____1
 62
     7
100
AcDbSpline
210
0.0
220
0.0
230
1.0
 70
     8
 71
     3
 72
     8
 73
     4
 74
     0
 42
0.0000000001
 43
0.0000000001
 40
0.0
 40
0.0
 40
0.0
 40
0.0
 40
1.0
 40
1.0
 40
1.0
 40
1.0
 10
209.8200615960108
 20
120.1071321553699
 30
0.0
 10
210.1687054891165
 20
120.1071321553699
 30
0.0
 10
210.4487919368388
 20
120.421325070896
 30
0.0
 10
210.4487919368388
 20
120.8106211175457
 30
0.0
  0
SPLINE
  5
7C7
330
1F
100
AcDbEntity
  8
_____1
 62
     7
100
AcDbSpline
210
0.0
220
0.0
230
1.0
 70
     8
 71
     3
 72
     8
 73
     4
 74
     0
 42
0.0000000001
 43
0.0000000001
 40
0.0
 40
0.0
 40
0.0
 40
0.0
 40
1.0
 40
1.0
 40
1.0
 40
1.0
 10
211.2277285399139
 20
118.197169958356
 30
0.0
 10
211.8054714339241
 20
118.197169958356
 30
0.0
 10
212.2733157094553
 20
118.6023134546923
 30
0.0
 10
212.2733157094553
 20
119.1011636100451
 30
0.0
  0
SPLINE
  5
7C8
330
1F
100
AcDbEntity
  8
_____1
 62
     7
100
AcDbSpline
210
0.0
220
0.0
230
1.0
 70
     8
 71
     3
 72
     8
 73
     4
 74
     0
 42
0.0000000001
 43
0.0000000001
 40
0.0
 40
0.0
 40
0.0
 40
0.0
 40
1.0
 40
1.0
 40
1.0
 40
1.0
 10
209.7156751339445
 20
125.9369265813927
 30
0.0
 10
209.1399992985891
 20
125.9369265813927
 30
0.0
 10
208.6721550230579
 20
125.8466650201341
 30
0.0
 10
208.6721550230579
 20
125.7357328723277
 30
0.0
  0
SPLINE
  5
7C9
330
1F
100
AcDbEntity
  8
_____1
 62
     7
100
AcDbSpline
210
0.0
220
0.0
230
1.0
 70
     8
 71
     3
 72
     8
 73
     4
 74
     0
 42
0.0000000001
 43
0.0000000001
 40
0.0
 40
0.0
 40
0.0
 40
0.0
 40
1.0
 40
1.0
 40
1.0
 40
1.0
 10
210.3433719454452
 20
125.0315548906004
 30
0.0
 10
210.3433719454452
 20
125.5317830850564
 30
0.0
 10
210.0629409879471
 20
125.9369265813927
 30
0.0
 10
209.7156751339445
 20
125.9369265813927
 30
0.0
  0
POLYLINE
  5
7CA
330
1F
100
AcDbEntity
  8
_____1
 62
     7
100
AcDb2dPolyline
 66
     1
 10
0.0
 20
0.0
 30
0.0
  0
VERTEX
  5
7CB
330
7CA
100
AcDbEntity
  8
_____1
 62
     7
100
AcDbVertex
100
AcDb2dVertex
 10
205.5422837099497
 20
129.6555651013365
 30
0.0
  0
VERTEX
  5
7CC
330
7CA
100
AcDbEntity
  8
_____1
 62
     7
100
AcDbVertex
100
AcDb2dVertex
 10
201.8367365614862
 20
129.5556572663557
 30
0.0
  0
SEQEND
  5
7CD
330
7CA
100
AcDbEntity
  8
_____1
  0
POLYLINE
  5
7CE
330
1F
100
AcDbEntity
  8
_____1
 62
     7
100
AcDb2dPolyline
 66
     1
 10
0.0
 20
0.0
 30
0.0
  0
VERTEX
  5
7CF
330
7CE
100
AcDbEntity
  8
_____1
 62
     7
100
AcDbVertex
100
AcDb2dVertex
 10
175.1978626578232
 20
172.2068287843609
 30
0.0
  0
VERTEX
  5
7D0
330
7CE
100
AcDbEntity
  8
_____1
 62
     7
100
AcDbVertex
100
AcDb2dVertex
 10
175.2991485319073
 20
174.0525399081888
 30
0.0
  0
VERTEX
  5
7D1
330
7CE
100
AcDbEntity
  8
_____1
 62
     7
100
AcDbVertex
100
AcDb2dVertex
 10
193.0383013974278
 20
174.0525399081888
 30
0.0
  0
SEQEND
  5
7D2
330
7CE
100
AcDbEntity
  8
_____1
  0
POLYLINE
  5
7D3
330
1F
100
AcDbEntity
  8
_____1
 62
     7
100
AcDb2dPolyline
 66
     1
 10
0.0
 20
0.0
 30
0.0
  0
VERTEX
  5
7D4
330
7D3
100
AcDbEntity
  8
_____1
 62
     7
100
AcDbVertex
100
AcDb2dVertex
 10
175.4083581308346
 20
167.0805233205139
 30
0.0
  0
VERTEX
  5
7D5
330
7D3
100
AcDbEntity
  8
_____1
 62
     7
100
AcDbVertex
100
AcDb2dVertex
 10
175.4083581308346
 20
165.170388868612
 30
0.0
  0
VERTEX
  5
7D6
330
7D3
100
AcDbEntity
  8
_____1
 62
     7
100
AcDbVertex
100
AcDb2dVertex
 10
193.0383013974278
 20
165.170388868612
 30
0.0
  0
SEQEND
  5
7D7
330
7D3
100
AcDbEntity
  8
_____1
  0
POLYLINE
  5
7D8
330
1F
100
AcDbEntity
  8
_____1
 62
     7
100
AcDb2dPolyline
 66
     1
 10
0.0
 20
0.0
 30
0.0
  0
VERTEX
  5
7D9
330
7D8
100
AcDbEntity
  8
_____1
 62
     7
100
AcDbVertex
100
AcDb2dVertex
 10
165.2856273886158
 20
172.2068287843609
 30
0.0
  0
VERTEX
  5
7DA
330
7D8
100
AcDbEntity
  8
_____1
 62
     7
100
AcDbVertex
100
AcDb2dVertex
 10
187.9316329908012
 20
172.2068287843609
 30
0.0
  0
SEQEND
  5
7DB
330
7D8
100
AcDbEntity
  8
_____1
  0
POLYLINE
  5
7DC
330
1F
100
AcDbEntity
  8
_____1
 62
     7
100
AcDb2dPolyline
 66
     1
 10
0.0
 20
0.0
 30
0.0
  0
VERTEX
  5
7DD
330
7DC
100
AcDbEntity
  8
_____1
 62
     7
100
AcDbVertex
100
AcDb2dVertex
 10
165.2856273886158
 20
167.0805233205139
 30
0.0
  0
VERTEX
  5
7DE
330
7DC
100
AcDbEntity
  8
_____1
 62
     7
100
AcDbVertex
100
AcDb2dVertex
 10
187.9316329908012
 20
167.0805233205139
 30
0.0
  0
SEQEND
  5
7DF
330
7DC
100
AcDbEntity
  8
_____1
  0
POLYLINE
  5
7E0
330
1F
100
AcDbEntity
  8
_____1
 62
     7
100
AcDb2dPolyline
 66
     1
 10
0.0
 20
0.0
 30
0.0
  0
VERTEX
  5
7E1
330
7E0
100
AcDbEntity
  8
_____1
 62
     7
100
AcDbVertex
100
AcDb2dVertex
 10
165.2856273886158
 20
172.2068287843609
 30
0.0
  0
VERTEX
  5
7E2
330
7E0
100
AcDbEntity
  8
_____1
 62
     7
100
AcDbVertex
100
AcDb2dVertex
 10
165.2856273886158
 20
167.1306494928922
 30
0.0
  0
SEQEND
  5
7E3
330
7E0
100
AcDbEntity
  8
_____1
  0
POLYLINE
  5
7E4
330
1F
100
AcDbEntity
  8
_____1
 62
     7
100
AcDb2dPolyline
 66
     1
 10
0.0
 20
0.0
 30
0.0
  0
VERTEX
  5
7E5
330
7E4
100
AcDbEntity
  8
_____1
 62
     7
100
AcDbVertex
100
AcDb2dVertex
 10
169.4607413614896
 20
172.2068287843609
 30
0.0
  0
VERTEX
  5
7E6
330
7E4
100
AcDbEntity
  8
_____1
 62
     7
100
AcDbVertex
100
AcDb2dVertex
 10
169.4607413614896
 20
167.1306494928922
 30
0.0
  0
SEQEND
  5
7E7
330
7E4
100
AcDbEntity
  8
_____1
  0
POLYLINE
  5
7E8
330
1F
100
AcDbEntity
  8
_____1
 62
     7
100
AcDb2dPolyline
 66
     1
 10
0.0
 20
0.0
 30
0.0
  0
VERTEX
  5
7E9
330
7E8
100
AcDbEntity
  8
_____1
 62
     7
100
AcDbVertex
100
AcDb2dVertex
 10
187.9595382826407
 20
172.1151891839991
 30
0.0
  0
VERTEX
  5
7EA
330
7E8
100
AcDbEntity
  8
_____1
 62
     7
100
AcDbVertex
100
AcDb2dVertex
 10
187.9595382826407
 20
167.0390098925304
 30
0.0
  0
SEQEND
  5
7EB
330
7E8
100
AcDbEntity
  8
_____1
  0
POLYLINE
  5
7EC
330
1F
100
AcDbEntity
  8
_____1
 62
     7
100
AcDb2dPolyline
 66
     1
 10
0.0
 20
0.0
 30
0.0
  0
VERTEX
  5
7ED
330
7EC
100
AcDbEntity
  8
_____1
 62
     7
100
AcDbVertex
100
AcDb2dVertex
 10
185.9193513903758
 20
166.9981854840986
 30
0.0
  0
VERTEX
  5
7EE
330
7EC
100
AcDbEntity
  8
_____1
 62
     7
100
AcDbVertex
100
AcDb2dVertex
 10
185.9486347213184
 20
165.1209517157853
 30
0.0
  0
SEQEND
  5
7EF
330
7EC
100
AcDbEntity
  8
_____1
  0
POLYLINE
  5
7F0
330
1F
100
AcDbEntity
  8
_____1
 62
     7
100
AcDb2dPolyline
 66
     1
 10
0.0
 20
0.0
 30
0.0
  0
VERTEX
  5
7F1
330
7F0
100
AcDbEntity
  8
_____1
 62
     7
100
AcDbVertex
100
AcDb2dVertex
 10
179.5641795562638
 20
166.9981854840986
 30
0.0
  0
VERTEX
  5
7F2
330
7F0
100
AcDbEntity
  8
_____1
 62
     7
100
AcDbVertex
100
AcDb2dVertex
 10
179.5924293578791
 20
165.1209517157853
 30
0.0
  0
SEQEND
  5
7F3
330
7F0
100
AcDbEntity
  8
_____1
  0
POLYLINE
  5
7F4
330
1F
100
AcDbEntity
  8
_____1
 62
     7
100
AcDb2dPolyline
 66
     1
 10
0.0
 20
0.0
 30
0.0
  0
VERTEX
  5
7F5
330
7F4
100
AcDbEntity
  8
_____1
 62
     7
100
AcDbVertex
100
AcDb2dVertex
 10
185.8718090413159
 20
174.0525399081888
 30
0.0
  0
VERTEX
  5
7F6
330
7F4
100
AcDbEntity
  8
_____1
 62
     7
100
AcDbVertex
100
AcDb2dVertex
 10
185.9010923722586
 20
172.16100898418
 30
0.0
  0
SEQEND
  5
7F7
330
7F4
100
AcDbEntity
  8
_____1
  0
POLYLINE
  5
7F8
330
1F
100
AcDbEntity
  8
_____1
 62
     7
100
AcDb2dPolyline
 66
     1
 10
0.0
 20
0.0
 30
0.0
  0
VERTEX
  5
7F9
330
7F8
100
AcDbEntity
  8
_____1
 62
     7
100
AcDbVertex
100
AcDb2dVertex
 10
179.5152591681008
 20
174.0525399081888
 30
0.0
  0
VERTEX
  5
7FA
330
7F8
100
AcDbEntity
  8
_____1
 62
     7
100
AcDbVertex
100
AcDb2dVertex
 10
179.5448870088192
 20
172.16100898418
 30
0.0
  0
SEQEND
  5
7FB
330
7F8
100
AcDbEntity
  8
_____1
  0
SPLINE
  5
7FC
330
1F
100
AcDbEntity
  8
_____1
 62
     7
100
AcDbSpline
210
0.0
220
0.0
230
1.0
 70
     8
 71
     3
 72
    20
 73
    16
 74
     0
 42
0.0000000001
 43
0.0000000001
 40
0.0
 40
0.0
 40
0.0
 40
0.0
 40
1.0
 40
1.0
 40
1.0
 40
2.0
 40
2.0
 40
2.0
 40
3.0
 40
3.0
 40
3.0
 40
4.0
 40
4.0
 40
4.0
 40
5.0
 40
5.0
 40
5.0
 40
5.0
 10
167.3836919232145
 20
127.7779868232474
 30
0.0
 10
167.3836919232145
 20
127.7779868232474
 30
0.0
 10
167.3836919232145
 20
125.2244803650462
 30
0.0
 10
167.3836919232145
 20
125.2244803650462
 30
0.0
 10
167.3836919232145
 20
125.2244803650462
 30
0.0
 10
167.3836919232145
 20
125.2244803650462
 30
0.0
 10
167.3836919232145
 20
125.2244803650462
 30
0.0
 10
167.4412250557725
 20
124.7945321648526
 30
0.0
 10
167.8453350227814
 20
124.4369310175762
 30
0.0
 10
168.3989622324858
 20
124.323931811115
 30
0.0
 10
168.3989622324858
 20
124.323931811115
 30
0.0
 10
168.3989622324858
 20
124.323931811115
 30
0.0
 10
168.3989622324858
 20
124.323931811115
 30
0.0
 10
168.3989622324858
 20
124.323931811115
 30
0.0
 10
192.8222937680036
 20
124.2488286799915
 30
0.0
 10
192.8222937680036
 20
124.2488286799915
 30
0.0
  0
POLYLINE
  5
7FD
330
1F
100
AcDbEntity
  8
_____1
 62
     7
100
AcDb2dPolyline
 66
     1
 10
0.0
 20
0.0
 30
0.0
  0
VERTEX
  5
7FE
330
7FD
100
AcDbEntity
  8
_____1
 62
     7
100
AcDbVertex
100
AcDb2dVertex
 10
167.3836919232145
 20
127.7779868232474
 30
0.0
  0
VERTEX
  5
7FF
330
7FD
100
AcDbEntity
  8
_____1
 62
     7
100
AcDbVertex
100
AcDb2dVertex
 10
169.7225687910947
 20
127.8138158399302
 30
0.0
  0
VERTEX
  5
800
330
7FD
100
AcDbEntity
  8
_____1
 62
     7
100
AcDbVertex
100
AcDb2dVertex
 10
169.7225687910947
 20
124.5485521849342
 30
0.0
  0
SEQEND
  5
801
330
7FD
100
AcDbEntity
  8
_____1
  0
POLYLINE
  5
802
330
1F
100
AcDbEntity
  8
_____1
 62
     7
100
AcDb2dPolyline
 66
     1
 10
0.0
 20
0.0
 30
0.0
  0
VERTEX
  5
803
330
802
100
AcDbEntity
  8
_____1
 62
     7
100
AcDbVertex
100
AcDb2dVertex
 10
167.5545687720094
 20
140.4028920670739
 30
0.0
  0
VERTEX
  5
804
330
802
100
AcDbEntity
  8
_____1
 62
     7
100
AcDbVertex
100
AcDb2dVertex
 10
167.5883307300374
 20
132.6004346648422
 30
0.0
  0
SEQEND
  5
805
330
802
100
AcDbEntity
  8
_____1
  0
POLYLINE
  5
806
330
1F
100
AcDbEntity
  8
_____1
 62
     7
100
AcDb2dPolyline
 66
     1
 10
0.0
 20
0.0
 30
0.0
  0
VERTEX
  5
807
330
806
100
AcDbEntity
  8
_____1
 62
     7
100
AcDbVertex
100
AcDb2dVertex
 10
167.0336699910056
 20
127.760072314906
 30
0.0
  0
VERTEX
  5
808
330
806
100
AcDbEntity
  8
_____1
 62
     7
100
AcDbVertex
100
AcDb2dVertex
 10
167.0336699910056
 20
132.6321295642155
 30
0.0
  0
VERTEX
  5
809
330
806
100
AcDbEntity
  8
_____1
 62
     7
100
AcDbVertex
100
AcDb2dVertex
 10
167.2283180143304
 20
132.6045687821517
 30
0.0
  0
VERTEX
  5
80A
330
806
100
AcDbEntity
  8
_____1
 62
     7
100
AcDbVertex
100
AcDb2dVertex
 10
169.6075025259788
 20
132.5845872151556
 30
0.0
  0
VERTEX
  5
80B
330
806
100
AcDbEntity
  8
_____1
 62
     7
100
AcDbVertex
100
AcDb2dVertex
 10
169.6464321306437
 20
140.4345869664471
 30
0.0
  0
VERTEX
  5
80C
330
806
100
AcDbEntity
  8
_____1
 62
     7
100
AcDbVertex
100
AcDb2dVertex
 10
167.1514923343279
 20
140.3960018715579
 30
0.0
  0
VERTEX
  5
80D
330
806
100
AcDbEntity
  8
_____1
 62
     7
100
AcDbVertex
100
AcDb2dVertex
 10
167.1514923343279
 20
145.0530850207705
 30
0.0
  0
VERTEX
  5
80E
330
806
100
AcDbEntity
  8
_____1
 62
     7
100
AcDbVertex
100
AcDb2dVertex
 10
192.8222937680036
 20
145.0530850207705
 30
0.0
  0
SEQEND
  5
80F
330
806
100
AcDbEntity
  8
_____1
  0
POLYLINE
  5
810
330
1F
100
AcDbEntity
  8
_____1
 62
     7
100
AcDb2dPolyline
 66
     1
 10
0.0
 20
0.0
 30
0.0
  0
VERTEX
  5
811
330
810
100
AcDbEntity
  8
_____1
 62
     7
100
AcDbVertex
100
AcDb2dVertex
 10
167.0336699910056
 20
127.760072314906
 30
0.0
  0
VERTEX
  5
812
330
810
100
AcDbEntity
  8
_____1
 62
     7
100
AcDbVertex
100
AcDb2dVertex
 10
167.3836919232145
 20
127.760072314906
 30
0.0
  0
SEQEND
  5
813
330
810
100
AcDbEntity
  8
_____1
  0
SPLINE
  5
814
330
1F
100
AcDbEntity
  8
_____1
 62
     7
100
AcDbSpline
210
0.0
220
0.0
230
1.0
 70
    11
 71
     3
 72
    20
 73
    16
 74
     0
 42
0.0000000001
 43
0.0000000001
 40
0.0
 40
0.0
 40
0.0
 40
0.0
 40
1.0
 40
1.0
 40
1.0
 40
2.0
 40
2.0
 40
2.0
 40
3.0
 40
3.0
 40
3.0
 40
4.0
 40
4.0
 40
4.0
 40
5.0
 40
5.0
 40
5.0
 40
5.0
 10
169.4910582217597
 20
143.6564423896928
 30
0.0
 10
169.4914027315355
 20
144.0050862827986
 30
0.0
 10
169.2030480491941
 20
144.288273318503
 30
0.0
 10
168.8471694507966
 20
144.288273318503
 30
0.0
 10
168.4912908523992
 20
144.288273318503
 30
0.0
 10
168.202591660282
 20
144.0057753023502
 30
0.0
 10
168.202591660282
 20
143.6571314092444
 30
0.0
 10
168.2022471505062
 20
143.3084875161387
 30
0.0
 10
168.4906018328476
 20
143.0259894999859
 30
0.0
 10
168.846480431245
 20
143.0259894999859
 30
0.0
 10
169.2023590296425
 20
143.0253004804343
 30
0.0
 10
169.4910582217597
 20
143.3077984965871
 30
0.0
 10
169.4910582217597
 20
143.6564423896928
 30
0.0
 10
169.4910582217597
 20
143.6564423896928
 30
0.0
 10
169.4910582217597
 20
143.6564423896928
 30
0.0
 10
169.4910582217597
 20
143.6564423896928
 30
0.0
  0
ENDSEC
  0
SECTION
  2
OBJECTS
  0
DICTIONARY
  5
C
330
0
100
AcDbDictionary
  3
ACAD_GROUP
350
D
  3
ACAD_LAYOUT
350
1A
  3
ACAD_MLINESTYLE
350
17
  3
ACAD_PLOTSETTINGS
350
19
  3
ACAD_TABLESTYLE
350
815
  3
ACAD_VISUALSTYLE
350
2A
  3
ACDBHEADERROUNDTRIPXREC
350
816
  0
DICTIONARY
  5
836
330
29
100
AcDbDictionary
280
     1
  3
ACAD_XREC_ROUNDTRIP
360
837
  0
DICTIONARY
  5
D
102
{ACAD_REACTORS
330
C
102
}
330
C
100
AcDbDictionary
  0
DICTIONARY
  5
1A
102
{ACAD_REACTORS
330
C
102
}
330
C
100
AcDbDictionary
  0
DICTIONARY
  5
17
102
{ACAD_REACTORS
330
C
102
}
330
C
100
AcDbDictionary
  3
STANDARD
350
18
  0
DICTIONARY
  5
19
102
{ACAD_REACTORS
330
C
102
}
330
C
100
AcDbDictionary
  0
DICTIONARY
  5
815
102
{ACAD_REACTORS
330
C
102
}
330
C
100
AcDbDictionary
  0
DICTIONARY
  5
2A
102
{ACAD_REACTORS
330
C
102
}
330
C
100
AcDbDictionary
  3
2DWIREFRAME
350
2F
  3
3D_HIDDEN
350
31
  3
3DWIREFRAME
350
30
  3
BASIC
350
32
  3
BRIGHTEN
350
36
  3
COLORCHANGE
350
3A
  3
CONCEPTUAL
350
34
  3
DIM
350
35
  3
FACEPATTERN
350
39
  3
FLAT
350
2B
  3
FLATWITHEDGES
350
2C
  3
GOURAUD
350
2D
  3
GOURAUDWITHEDGES
350
2E
  3
LINEPATTERN
350
38
  3
REALISTIC
350
33
  3
THICKEN
350
37
  0
DICTIONARY
  5
816
102
{ACAD_REACTORS
330
C
102
}
330
C
100
AcDbDictionary
  3
CEPSNTYPE
350
81F
  3
DIMSTYLEDATA
350
835
  3
FINGERPRINTGUID
350
820
  3
HYPERLINKBASE
350
819
  3
INSUNITS
350
81E
  3
LAYOUTDICT
350
81B
  3
LWETCUNION
350
81D
  3
PLOTSETDICT
350
81C
  3
PSVPSCALE
350
822
  3
PUCSBASE
350
825
  3
PUCSORGBACK
350
82B
  3
PUCSORGBOTTOM
350
827
  3
PUCSORGFRONT
350
82A
  3
PUCSORGLEFT
350
828
  3
PUCSORGRIGHT
350
829
  3
PUCSORGTOP
350
826
  3
PUCSORTHOREF
350
823
  3
PUCSORTHOVIEW
350
824
  3
STYLESHEET
350
81A
  3
TSTACKALIGN
350
817
  3
TSTACKSIZE
350
818
  3
UCSBASE
350
82E
  3
UCSORGBACK
350
834
  3
UCSORGBOTTOM
350
830
  3
UCSORGFRONT
350
833
  3
UCSORGLEFT
350
831
  3
UCSORGRIGHT
350
832
  3
UCSORGTOP
350
82F
  3
UCSORTHOREF
350
82C
  3
UCSORTHOVIEW
350
82D
  3
VERSIONGUID
350
821
  0
XRECORD
  5
837
102
{ACAD_REACTORS
330
836
102
}
330
836
100
AcDbXrecord
102
UCS
 74
     0
 71
     1
 10
0.0
 20
0.0
 30
0.0
 10
1.0
 20
0.0
 30
0.0
 10
0.0
 20
1.0
 30
0.0
146
0.0
 79
     0
102
VIEW
281
     0
  0
MLINESTYLE
  5
18
102
{ACAD_REACTORS
330
17
102
}
330
17
100
AcDbMlineStyle
  2
Standard
 70
     0
  3

 62
   256
 51
90.0
 52
90.0
 71
     2
 49
0.5
 62
   256
  6
BYLAYER
 49
-0.5
 62
   256
  6
BYLAYER
  0
ACAD_PROXY_OBJECT_WRAPPER
  5
2F
102
{ACAD_REACTORS
330
2A
102
}
330
2A
100
AcDbVisualStyle
  2
2dWireframe
 70
     4
 71
     0
 72
     2
 73
     0
 90
        0
 40
-0.6
 41
-30.0
 62
     5
 63
     7
421
 16777215
 74
     1
 91
        4
 64
     7
 65
   257
 75
     1
175
     1
 42
1.0
 92
        0
 66
   257
 43
1.0
 76
     1
 77
     6
 78
     2
 67
     7
 79
     5
170
     0
171
     0
290
     0
174
     0
 93
        1
 44
0.0
173
     0
291
     0
 45
0.0
1001
ACAD
1000
AcDbSavedByObjectVersion
1070
     0
1000
AcadProxyRoundTripData
1071
      501
1071
       25
1070
     1
  0
ACAD_PROXY_OBJECT_WRAPPER
  5
31
102
{ACAD_REACTORS
330
2A
102
}
330
2A
100
AcDbVisualStyle
  2
3D Hidden
 70
     6
 71
     1
 72
     2
 73
     2
 90
        0
 40
-0.6
 41
-30.0
 62
     5
 63
     7
421
 16777215
 74
     2
 91
        2
 64
     7
 65
   257
 75
     2
175
     1
 42
40.0
 92
        0
 66
   257
 43
1.0
 76
     1
 77
     6
 78
     2
 67
     7
 79
     3
170
     0
171
     0
290
     0
174
     0
 93
        1
 44
0.0
173
     0
291
     0
 45
0.0
1001
ACAD
1000
AcDbSavedByObjectVersion
1070
     0
1000
AcadProxyRoundTripData
1071
      501
1071
       25
1070
     1
  0
ACAD_PROXY_OBJECT_WRAPPER
  5
30
102
{ACAD_REACTORS
330
2A
102
}
330
2A
100
AcDbVisualStyle
  2
3dWireframe
 70
     5
 71
     0
 72
     2
 73
     0
 90
        0
 40
-0.6
 41
-30.0
 62
     5
 63
     7
421
 16777215
 74
     1
 91
        4
 64
     7
 65
   257
 75
     1
175
     1
 42
1.0
 92
        0
 66
   257
 43
1.0
 76
     1
 77
     6
 78
     2
 67
     7
 79
     5
170
     0
171
     0
290
     0
174
     0
 93
        1
 44
0.0
173
     0
291
     0
 45
0.0
1001
ACAD
1000
AcDbSavedByObjectVersion
1070
     0
1000
AcadProxyRoundTripData
1071
      501
1071
       25
1070
     1
  0
ACAD_PROXY_OBJECT_WRAPPER
  5
32
102
{ACAD_REACTORS
330
2A
102
}
330
2A
100
AcDbVisualStyle
  2
Basic
 70
     7
 71
     1
 72
     0
 73
     1
 90
        0
 40
-0.6
 41
-30.0
 62
     5
 63
     7
421
 16777215
 74
     0
 91
        4
 64
     7
 65
   257
 75
     1
175
     1
 42
1.0
 92
        8
 66
     7
 43
1.0
 76
     1
 77
     6
 78
     2
 67
     7
 79
     5
170
     0
171
     0
290
     0
174
     0
 93
        1
 44
0.0
173
     0
291
     1
 45
0.0
1001
ACAD
1000
AcDbSavedByObjectVersion
1070
     0
1000
AcadProxyRoundTripData
1071
      501
1071
       25
1070
     1
  0
ACAD_PROXY_OBJECT_WRAPPER
  5
36
102
{ACAD_REACTORS
330
2A
102
}
330
2A
100
AcDbVisualStyle
  2
Brighten
 70
    12
 71
     2
 72
     2
 73
     0
 90
        0
 40
-0.6
 41
-30.0
 62
     5
 63
     7
421
 16777215
 74
     1
 91
        4
 64
     7
 65
   257
 75
     1
175
     1
 42
1.0
 92
        8
 66
     7
 43
1.0
 76
     1
 77
     6
 78
     2
 67
     7
 79
     5
170
     0
171
     0
290
     0
174
     0
 93
        1
 44
50.0
173
     0
291
     1
 45
0.0
1001
ACAD
1000
AcDbSavedByObjectVersion
1070
     0
1000
AcadProxyRoundTripData
1071
      501
1071
       25
1070
     1
  0
ACAD_PROXY_OBJECT_WRAPPER
  5
3A
102
{ACAD_REACTORS
330
2A
102
}
330
2A
100
AcDbVisualStyle
  2
ColorChange
 70
    16
 71
     2
 72
     2
 73
     3
 90
        0
 40
-0.6
 41
-30.0
 62
     5
 63
     8
421
  8421504
 74
     1
 91
        4
 64
     7
 65
   257
 75
     1
175
     1
 42
1.0
 92
        8
 66
     8
424
  8421504
 43
1.0
 76
     1
 77
     6
 78
     2
 67
     7
 79
     5
170
     0
171
     0
290
     0
174
     0
 93
        1
 44
0.0
173
     0
291
     1
 45
0.0
1001
ACAD
1000
AcDbSavedByObjectVersion
1070
     0
1000
AcadProxyRoundTripData
1071
      501
1071
       25
1070
     1
  0
ACAD_PROXY_OBJECT_WRAPPER
  5
34
102
{ACAD_REACTORS
330
2A
102
}
330
2A
100
AcDbVisualStyle
  2
Conceptual
 70
     9
 71
     3
 72
     2
 73
     0
 90
        0
 40
-0.6
 41
-30.0
 62
     5
 63
     7
421
 16777215
 74
     2
 91
        2
 64
     7
 65
   257
 75
     1
175
     1
 42
40.0
 92
        8
 66
     7
 43
1.0
 76
     1
 77
     6
 78
     2
 67
     7
 79
     3
170
     0
171
     0
290
     0
174
     0
 93
        1
 44
0.0
173
     0
291
     0
 45
0.0
1001
ACAD
1000
AcDbSavedByObjectVersion
1070
     0
1000
AcadProxyRoundTripData
1071
      501
1071
       25
1070
     1
  0
ACAD_PROXY_OBJECT_WRAPPER
  5
35
102
{ACAD_REACTORS
330
2A
102
}
330
2A
100
AcDbVisualStyle
  2
Dim
 70
    11
 71
     2
 72
     2
 73
     0
 90
        0
 40
-0.6
 41
-30.0
 62
     5
 63
     7
421
 16777215
 74
     1
 91
        4
 64
     7
 65
   257
 75
     1
175
     1
 42
1.0
 92
        8
 66
     7
 43
1.0
 76
     1
 77
     6
 78
     2
 67
     7
 79
     5
170
     0
171
     0
290
     0
174
     0
 93
        1
 44
-50.0
173
     0
291
     1
 45
0.0
1001
ACAD
1000
AcDbSavedByObjectVersion
1070
     0
1000
AcadProxyRoundTripData
1071
      501
1071
       25
1070
     1
  0
ACAD_PROXY_OBJECT_WRAPPER
  5
39
102
{ACAD_REACTORS
330
2A
102
}
330
2A
100
AcDbVisualStyle
  2
Facepattern
 70
    15
 71
     2
 72
     2
 73
     0
 90
        0
 40
-0.6
 41
-30.0
 62
     5
 63
     7
421
 16777215
 74
     1
 91
        4
 64
     7
 65
   257
 75
     1
175
     1
 42
1.0
 92
        8
 66
     7
 43
1.0
 76
     1
 77
     6
 78
     2
 67
     7
 79
     5
170
     0
171
     0
290
     0
174
     0
 93
        1
 44
0.0
173
     0
291
     1
 45
0.0
1001
ACAD
1000
AcDbSavedByObjectVersion
1070
     0
1000
AcadProxyRoundTripData
1071
      501
1071
       25
1070
     1
  0
ACAD_PROXY_OBJECT_WRAPPER
  5
2B
102
{ACAD_REACTORS
330
2A
102
}
330
2A
100
AcDbVisualStyle
  2
Flat
 70
     0
 71
     2
 72
     1
 73
     1
 90
        2
 40
-0.6
 41
30.0
 62
     5
 63
     7
421
 16777215
 74
     0
 91
        4
 64
     7
 65
   257
 75
     1
175
     1
 42
1.0
 92
        8
 66
     7
 43
1.0
 76
     1
 77
     6
 78
     2
 67
     7
 79
     5
170
     0
171
     0
290
     0
174
     0
 93
       13
 44
0.0
173
     0
291
     1
 45
0.0
1001
ACAD
1000
AcDbSavedByObjectVersion
1070
     0
1000
AcadProxyRoundTripData
1071
      501
1071
       25
1070
     1
  0
ACAD_PROXY_OBJECT_WRAPPER
  5
2C
102
{ACAD_REACTORS
330
2A
102
}
330
2A
100
AcDbVisualStyle
  2
FlatWithEdges
 70
     1
 71
     2
 72
     1
 73
     1
 90
        2
 40
-0.6
 41
30.0
 62
     5
 63
     7
421
 16777215
 74
     1
 91
        4
 64
     7
 65
   257
 75
     1
175
     1
 42
1.0
 92
        0
 66
   257
 43
1.0
 76
     1
 77
     6
 78
     2
 67
     7
 79
     5
170
     0
171
     0
290
     0
174
     0
 93
       13
 44
0.0
173
     0
291
     1
 45
0.0
1001
ACAD
1000
AcDbSavedByObjectVersion
1070
     0
1000
AcadProxyRoundTripData
1071
      501
1071
       25
1070
     1
  0
ACAD_PROXY_OBJECT_WRAPPER
  5
2D
102
{ACAD_REACTORS
330
2A
102
}
330
2A
100
AcDbVisualStyle
  2
Gouraud
 70
     2
 71
     2
 72
     2
 73
     1
 90
        2
 40
-0.6
 41
30.0
 62
     5
 63
     7
421
 16777215
 74
     0
 91
        4
 64
     7
 65
   257
 75
     1
175
     1
 42
1.0
 92
        0
 66
     7
 43
1.0
 76
     1
 77
     6
 78
     2
 67
     7
 79
     5
170
     0
171
     0
290
     0
174
     0
 93
       13
 44
0.0
173
     0
291
     1
 45
0.0
1001
ACAD
1000
AcDbSavedByObjectVersion
1070
     0
1000
AcadProxyRoundTripData
1071
      501
1071
       25
1070
     1
  0
ACAD_PROXY_OBJECT_WRAPPER
  5
2E
102
{ACAD_REACTORS
330
2A
102
}
330
2A
100
AcDbVisualStyle
  2
GouraudWithEdges
 70
     3
 71
     2
 72
     2
 73
     1
 90
        2
 40
-0.6
 41
30.0
 62
     5
 63
     7
421
 16777215
 74
     1
 91
        4
 64
     7
 65
   257
 75
     1
175
     1
 42
1.0
 92
        0
 66
   257
 43
1.0
 76
     1
 77
     6
 78
     2
 67
     7
 79
     5
170
     0
171
     0
290
     0
174
     0
 93
       13
 44
0.0
173
     0
291
     1
 45
0.0
1001
ACAD
1000
AcDbSavedByObjectVersion
1070
     0
1000
AcadProxyRoundTripData
1071
      501
1071
       25
1070
     1
  0
ACAD_PROXY_OBJECT_WRAPPER
  5
38
102
{ACAD_REACTORS
330
2A
102
}
330
2A
100
AcDbVisualStyle
  2
Linepattern
 70
    14
 71
     2
 72
     2
 73
     0
 90
        0
 40
-0.6
 41
-30.0
 62
     5
 63
     7
421
 16777215
 74
     1
 91
        4
 64
     7
 65
   257
 75
     7
175
     7
 42
1.0
 92
        8
 66
     7
 43
1.0
 76
     1
 77
     6
 78
     2
 67
     7
 79
     5
170
     0
171
     0
290
     0
174
     0
 93
        1
 44
0.0
173
     0
291
     1
 45
0.0
1001
ACAD
1000
AcDbSavedByObjectVersion
1070
     0
1000
AcadProxyRoundTripData
1071
      501
1071
       25
1070
     1
  0
ACAD_PROXY_OBJECT_WRAPPER
  5
33
102
{ACAD_REACTORS
330
2A
102
}
330
2A
100
AcDbVisualStyle
  2
Realistic
 70
     8
 71
     2
 72
     2
 73
     0
 90
        0
 40
-0.6
 41
-30.0
 62
     5
 63
     7
421
 16777215
 74
     1
 91
        0
 64
     7
 65
   257
 75
     1
175
     1
 42
1.0
 92
        8
 66
     8
424
  7895160
 43
1.0
 76
     1
 77
     6
 78
     2
 67
     7
 79
     5
170
     0
171
     0
290
     0
174
     0
 93
       13
 44
0.0
173
     0
291
     0
 45
0.0
1001
ACAD
1000
AcDbSavedByObjectVersion
1070
     0
1000
AcadProxyRoundTripData
1071
      501
1071
       25
1070
     1
  0
ACAD_PROXY_OBJECT_WRAPPER
  5
37
102
{ACAD_REACTORS
330
2A
102
}
330
2A
100
AcDbVisualStyle
  2
Thicken
 70
    13
 71
     2
 72
     2
 73
     0
 90
        0
 40
-0.6
 41
-30.0
 62
     5
 63
     7
421
 16777215
 74
     1
 91
        4
 64
     7
 65
   257
 75
     1
175
     1
 42
1.0
 92
       12
 66
     7
 43
1.0
 76
     1
 77
     6
 78
     2
 67
     7
 79
     5
170
     0
171
     0
290
     0
174
     0
 93
        1
 44
0.0
173
     0
291
     1
 45
0.0
1001
ACAD
1000
AcDbSavedByObjectVersion
1070
     0
1000
AcadProxyRoundTripData
1071
      501
1071
       25
1070
     1
  0
XRECORD
  5
81F
102
{ACAD_REACTORS
330
816
102
}
330
816
100
AcDbXrecord
 90
        0
  0
XRECORD
  5
835
102
{ACAD_REACTORS
330
816
102
}
330
816
100
AcDbXrecord
1000
DSTYLE
1002
{
1070
   340
340
11
1002
}
  0
XRECORD
  5
820
102
{ACAD_REACTORS
330
816
102
}
330
816
100
AcDbXrecord
  1
{EFFE1CFD-0E44-48E5-B717-C0BF3CD16349}
  0
XRECORD
  5
819
102
{ACAD_REACTORS
330
816
102
}
330
816
100
AcDbXrecord
  1

  0
XRECORD
  5
81E
102
{ACAD_REACTORS
330
816
102
}
330
816
100
AcDbXrecord
 90
        1
  0
XRECORD
  5
81B
102
{ACAD_REACTORS
330
816
102
}
330
816
100
AcDbXrecord
340
1A
  0
XRECORD
  5
81D
102
{ACAD_REACTORS
330
816
102
}
330
816
100
AcDbXrecord
 90
    10269
  0
XRECORD
  5
81C
102
{ACAD_REACTORS
330
816
102
}
330
816
100
AcDbXrecord
340
19
  0
XRECORD
  5
822
102
{ACAD_REACTORS
330
816
102
}
330
816
100
AcDbXrecord
 40
0.0
  0
XRECORD
  5
825
102
{ACAD_REACTORS
330
816
102
}
330
816
100
AcDbXrecord
340
0
  0
XRECORD
  5
82B
102
{ACAD_REACTORS
330
816
102
}
330
816
100
AcDbXrecord
 10
0.0
 20
0.0
 30
0.0
  0
XRECORD
  5
827
102
{ACAD_REACTORS
330
816
102
}
330
816
100
AcDbXrecord
 10
0.0
 20
0.0
 30
0.0
  0
XRECORD
  5
82A
102
{ACAD_REACTORS
330
816
102
}
330
816
100
AcDbXrecord
 10
0.0
 20
0.0
 30
0.0
  0
XRECORD
  5
828
102
{ACAD_REACTORS
330
816
102
}
330
816
100
AcDbXrecord
 10
0.0
 20
0.0
 30
0.0
  0
XRECORD
  5
829
102
{ACAD_REACTORS
330
816
102
}
330
816
100
AcDbXrecord
 10
0.0
 20
0.0
 30
0.0
  0
XRECORD
  5
826
102
{ACAD_REACTORS
330
816
102
}
330
816
100
AcDbXrecord
 10
0.0
 20
0.0
 30
0.0
  0
XRECORD
  5
823
102
{ACAD_REACTORS
330
816
102
}
330
816
100
AcDbXrecord
340
0
  0
XRECORD
  5
824
102
{ACAD_REACTORS
330
816
102
}
330
816
100
AcDbXrecord
 70
     0
  0
XRECORD
  5
81A
102
{ACAD_REACTORS
330
816
102
}
330
816
100
AcDbXrecord
  1

  0
XRECORD
  5
817
102
{ACAD_REACTORS
330
816
102
}
330
816
100
AcDbXrecord
 90
        1
  0
XRECORD
  5
818
102
{ACAD_REACTORS
330
816
102
}
330
816
100
AcDbXrecord
 90
       70
  0
XRECORD
  5
82E
102
{ACAD_REACTORS
330
816
102
}
330
816
100
AcDbXrecord
340
0
  0
XRECORD
  5
834
102
{ACAD_REACTORS
330
816
102
}
330
816
100
AcDbXrecord
 10
0.0
 20
0.0
 30
0.0
  0
XRECORD
  5
830
102
{ACAD_REACTORS
330
816
102
}
330
816
100
AcDbXrecord
 10
0.0
 20
0.0
 30
0.0
  0
XRECORD
  5
833
102
{ACAD_REACTORS
330
816
102
}
330
816
100
AcDbXrecord
 10
0.0
 20
0.0
 30
0.0
  0
XRECORD
  5
831
102
{ACAD_REACTORS
330
816
102
}
330
816
100
AcDbXrecord
 10
0.0
 20
0.0
 30
0.0
  0
XRECORD
  5
832
102
{ACAD_REACTORS
330
816
102
}
330
816
100
AcDbXrecord
 10
0.0
 20
0.0
 30
0.0
  0
XRECORD
  5
82F
102
{ACAD_REACTORS
330
816
102
}
330
816
100
AcDbXrecord
 10
0.0
 20
0.0
 30
0.0
  0
XRECORD
  5
82C
102
{ACAD_REACTORS
330
816
102
}
330
816
100
AcDbXrecord
340
0
  0
XRECORD
  5
82D
102
{ACAD_REACTORS
330
816
102
}
330
816
100
AcDbXrecord
 70
     0
  0
XRECORD
  5
821
102
{ACAD_REACTORS
330
816
102
}
330
816
100
AcDbXrecord
  1
{FAEB1C32-E019-11D5-929B-00C0DF256EC4}
  0
ENDSEC
  0
EOF
