  0
SECTION
  2
HEADER
  9
$ACADVER
  1
AC1014
  9
$ACADMAINTVER
 70
     9
  9
$DWGCODEPAGE
  3
ASCII
  9
$INSBASE
 10
0.0
 20
0.0
 30
0.0
  9
$EXTMIN
 10
1.000000000000000E+20
 20
1.000000000000000E+20
 30
1.000000000000000E+20
  9
$EXTMAX
 10
-1.000000000000000E+20
 20
-1.000000000000000E+20
 30
-1.000000000000000E+20
  9
$LIMMIN
 10
0.0
 20
0.0
  9
$LIMMAX
 10
12.0
 20
9.0
  9
$ORTHOMODE
 70
     0
  9
$REGENMODE
 70
     1
  9
$FILLMODE
 70
     1
  9
$QTEXTMODE
 70
     0
  9
$MIRRTEXT
 70
     1
  9
$DRAGMODE
 70
     2
  9
$LTSCALE
 40
1.0
  9
$OSMODE
 70
    37
  9
$ATTMODE
 70
     1
  9
$TEXTSIZE
 40
0.2
  9
$TRACEWID
 40
0.05
  9
$TEXTSTYLE
  7
STANDARD
  9
$CLAYER
  8
0
  9
$CELTYPE
  6
BYLAYER
  9
$CECOLOR
 62
   256
  9
$CELTSCALE
 40
1.0
  9
$DELOBJ
 70
     1
  9
$DISPSILH
 70
     0
  9
$DIMSCALE
 40
1.0
  9
$DIMASZ
 40
0.18
  9
$DIMEXO
 40
0.0625
  9
$DIMDLI
 40
0.38
  9
$DIMRND
 40
0.0
  9
$DIMDLE
 40
0.0
  9
$DIMEXE
 40
0.18
  9
$DIMTP
 40
0.0
  9
$DIMTM
 40
0.0
  9
$DIMTXT
 40
0.18
  9
$DIMCEN
 40
0.09
  9
$DIMTSZ
 40
0.0
  9
$DIMTOL
 70
     0
  9
$DIMLIM
 70
     0
  9
$DIMTIH
 70
     1
  9
$DIMTOH
 70
     1
  9
$DIMSE1
 70
     0
  9
$DIMSE2
 70
     0
  9
$DIMTAD
 70
     0
  9
$DIMZIN
 70
     0
  9
$DIMBLK
  1

  9
$DIMASO
 70
     1
  9
$DIMSHO
 70
     1
  9
$DIMPOST
  1

  9
$DIMAPOST
  1

  9
$DIMALT
 70
     0
  9
$DIMALTD
 70
     2
  9
$DIMALTF
 40
25.4
  9
$DIMLFAC
 40
1.0
  9
$DIMTOFL
 70
     0
  9
$DIMTVP
 40
0.0
  9
$DIMTIX
 70
     0
  9
$DIMSOXD
 70
     0
  9
$DIMSAH
 70
     0
  9
$DIMBLK1
  1

  9
$DIMBLK2
  1

  9
$DIMSTYLE
  2
STANDARD
  9
$DIMCLRD
 70
     0
  9
$DIMCLRE
 70
     0
  9
$DIMCLRT
 70
     0
  9
$DIMTFAC
 40
1.0
  9
$DIMGAP
 40
0.09
  9
$DIMJUST
 70
     0
  9
$DIMSD1
 70
     0
  9
$DIMSD2
 70
     0
  9
$DIMTOLJ
 70
     1
  9
$DIMTZIN
 70
     0
  9
$DIMALTZ
 70
     0
  9
$DIMALTTZ
 70
     0
  9
$DIMFIT
 70
     3
  9
$DIMUPT
 70
     0
  9
$DIMUNIT
 70
     2
  9
$DIMDEC
 70
     4
  9
$DIMTDEC
 70
     4
  9
$DIMALTU
 70
     2
  9
$DIMALTTD
 70
     2
  9
$DIMTXSTY
  7
STANDARD
  9
$DIMAUNIT
 70
     0
  9
$LUNITS
 70
     2
  9
$LUPREC
 70
     4
  9
$SKETCHINC
 40
0.1
  9
$FILLETRAD
 40
0.5
  9
$AUNITS
 70
     0
  9
$AUPREC
 70
     0
  9
$MENU
  1
.
  9
$ELEVATION
 40
0.0
  9
$PELEVATION
 40
0.0
  9
$THICKNESS
 40
0.0
  9
$LIMCHECK
 70
     0
  9
$CHAMFERA
 40
0.5
  9
$CHAMFERB
 40
0.5
  9
$CHAMFERC
 40
1.0
  9
$CHAMFERD
 40
0.0
  9
$SKPOLY
 70
     0
  9
$TDCREATE
 40
2456673.699804965
  9
$TDUPDATE
 40
2456673.699804977
  9
$TDINDWG
 40
0.0000000116
  9
$TDUSRTIMER
 40
0.0000000116
  9
$USRTIMER
 70
     1
  9
$ANGBASE
 50
0.0
  9
$ANGDIR
 70
     0
  9
$PDMODE
 70
     0
  9
$PDSIZE
 40
0.0
  9
$PLINEWID
 40
0.0
  9
$COORDS
 70
     1
  9
$SPLFRAME
 70
     0
  9
$SPLINETYPE
 70
     6
  9
$SPLINESEGS
 70
     8
  9
$ATTDIA
 70
     0
  9
$ATTREQ
 70
     1
  9
$HANDLING
 70
     1
  9
$HANDSEED
  5
828
  9
$SURFTAB1
 70
     6
  9
$SURFTAB2
 70
     6
  9
$SURFTYPE
 70
     6
  9
$SURFU
 70
     6
  9
$SURFV
 70
     6
  9
$UCSNAME
  2

  9
$UCSORG
 10
0.0
 20
0.0
 30
0.0
  9
$UCSXDIR
 10
1.0
 20
0.0
 30
0.0
  9
$UCSYDIR
 10
0.0
 20
1.0
 30
0.0
  9
$PUCSNAME
  2

  9
$PUCSORG
 10
0.0
 20
0.0
 30
0.0
  9
$PUCSXDIR
 10
1.0
 20
0.0
 30
0.0
  9
$PUCSYDIR
 10
0.0
 20
1.0
 30
0.0
  9
$USERI1
 70
     0
  9
$USERI2
 70
     0
  9
$USERI3
 70
     0
  9
$USERI4
 70
     0
  9
$USERI5
 70
     0
  9
$USERR1
 40
0.0
  9
$USERR2
 40
0.0
  9
$USERR3
 40
0.0
  9
$USERR4
 40
0.0
  9
$USERR5
 40
0.0
  9
$WORLDVIEW
 70
     1
  9
$SHADEDGE
 70
     3
  9
$SHADEDIF
 70
    70
  9
$TILEMODE
 70
     1
  9
$MAXACTVP
 70
    64
  9
$PINSBASE
 10
0.0
 20
0.0
 30
0.0
  9
$PLIMCHECK
 70
     0
  9
$PEXTMIN
 10
1.000000000000000E+20
 20
1.000000000000000E+20
 30
1.000000000000000E+20
  9
$PEXTMAX
 10
-1.000000000000000E+20
 20
-1.000000000000000E+20
 30
-1.000000000000000E+20
  9
$PLIMMIN
 10
0.0
 20
0.0
  9
$PLIMMAX
 10
12.0
 20
9.0
  9
$UNITMODE
 70
     0
  9
$VISRETAIN
 70
     1
  9
$PLINEGEN
 70
     0
  9
$PSLTSCALE
 70
     1
  9
$TREEDEPTH
 70
  3020
  9
$PICKSTYLE
 70
     1
  9
$CMLSTYLE
  2
STANDARD
  9
$CMLJUST
 70
     0
  9
$CMLSCALE
 40
1.0
  9
$PROXYGRAPHICS
 70
     1
  9
$MEASUREMENT
 70
     0
  0
ENDSEC
  0
SECTION
  2
CLASSES
  0
CLASS
  1
ACDBDICTIONARYWDFLT
  2
AcDbDictionaryWithDefault
  3
ObjectDBX Classes
 90
        0
280
     0
281
     0
  0
CLASS
  1
VISUALSTYLE
  2
AcDbVisualStyle
  3
ObjectDBX Classes
 90
     4095
280
     1
281
     0
  0
CLASS
  1
ACAD_PROXY_OBJECT_WRAPPER
  2
AcDbProxyObjectWrapper
  3
AutoCAD 2000
 90
        0
280
     0
281
     0
  0
CLASS
  1
XRECORD
  2
AcDbXrecord
  3
AutoCAD 2000
 90
        0
280
     0
281
     0
  0
CLASS
  1
LWPOLYLINE
  2
AcDbPolyline
  3
AutoCAD 2000
 90
        0
280
     0
281
     1
  0
CLASS
  1
HATCH
  2
AcDbHatch
  3
AutoCAD 2000
 90
        0
280
     0
281
     1
  0
CLASS
  1
ACDBPLACEHOLDER
  2
AcDbPlaceHolder
  3
ObjectDBX Classes
 90
        0
280
     0
281
     0
  0
CLASS
  1
LAYOUT
  2
AcDbLayout
  3
ObjectDBX Classes
 90
        0
280
     0
281
     0
  0
ENDSEC
  0
SECTION
  2
TABLES
  0
TABLE
  2
VPORT
  5
8
330
0
100
AcDbSymbolTable
 70
     1
  0
VPORT
  5
29
102
{ACAD_XDICTIONARY
360
826
102
}
330
8
100
AcDbSymbolTableRecord
100
AcDbViewportTableRecord
  2
*ACTIVE
 70
     0
 10
0.0
 20
0.0
 11
1.0
 21
1.0
 12
0.0
 22
0.0
 13
0.0
 23
0.0
 14
0.5
 24
0.5
 15
0.5
 25
0.5
 16
0.0
 26
0.0
 36
1.0
 17
105.0008091239277
 27
148.5001637099431
 37
0.0
 40
297.0003274198861
 41
0.7070753762199199
 42
50.0
 43
0.0
 44
0.0
 50
0.0
 51
0.0
 71
     0
 72
   100
 73
     1
 74
     3
 75
     0
 76
     0
 77
     0
 78
     0
  0
ENDTAB
  0
TABLE
  2
LTYPE
  5
5
330
0
100
AcDbSymbolTable
 70
     3
  0
LTYPE
  5
14
330
5
100
AcDbSymbolTableRecord
100
AcDbLinetypeTableRecord
  2
BYBLOCK
 70
     0
  3

 72
    65
 73
     0
 40
0.0
  0
LTYPE
  5
15
330
5
100
AcDbSymbolTableRecord
100
AcDbLinetypeTableRecord
  2
BYLAYER
 70
     0
  3

 72
    65
 73
     0
 40
0.0
  0
LTYPE
  5
16
330
5
100
AcDbSymbolTableRecord
100
AcDbLinetypeTableRecord
  2
CONTINUOUS
 70
     0
  3
Solid line
 72
    65
 73
     0
 40
0.0
  0
LTYPE
  5
4DF
330
5
100
AcDbSymbolTableRecord
100
AcDbLinetypeTableRecord
  2
AI-LINETYPE-1
 70
     0
  3
Adobe Illustrator Linetype No. 1
 72
    65
 73
     2
 40
0.3559949241975741
 49
0.0035277800253007
 74
     0
 49
-0.3524671441722733
 74
     0
  0
LTYPE
  5
572
330
5
100
AcDbSymbolTableRecord
100
AcDbLinetypeTableRecord
  2
AI-LINETYPE-2
 70
     0
  3
Adobe Illustrator Linetype No. 2
 72
    65
 73
     2
 40
0.3559949241975741
 49
0.0035277800253007
 74
     0
 49
-0.3524671441722733
 74
     0
  0
ENDTAB
  0
TABLE
  2
LAYER
  5
2
330
0
100
AcDbSymbolTable
 70
     1
  0
LAYER
  5
10
330
2
100
AcDbSymbolTableRecord
100
AcDbLayerTableRecord
  2
0
 70
     0
 62
     7
  6
CONTINUOUS
  0
ENDTAB
  0
TABLE
  2
STYLE
  5
3
330
0
100
AcDbSymbolTable
 70
     1
  0
STYLE
  5
11
330
3
100
AcDbSymbolTableRecord
100
AcDbTextStyleTableRecord
  2
STANDARD
 70
     0
 40
0.0
 41
1.0
 50
0.0
 71
     0
 42
0.2
  3
txt
  4

  0
ENDTAB
  0
TABLE
  2
VIEW
  5
6
330
0
100
AcDbSymbolTable
 70
     0
  0
ENDTAB
  0
TABLE
  2
UCS
  5
7
330
0
100
AcDbSymbolTable
 70
     0
  0
ENDTAB
  0
TABLE
  2
APPID
  5
9
330
0
100
AcDbSymbolTable
 70
     1
  0
APPID
  5
12
330
9
100
AcDbSymbolTableRecord
100
AcDbRegAppTableRecord
  2
ACAD
 70
     0
  0
ENDTAB
  0
TABLE
  2
DIMSTYLE
  5
A
330
0
100
AcDbSymbolTable
 70
     1
  0
DIMSTYLE
105
27
330
A
100
AcDbSymbolTableRecord
100
AcDbDimStyleTableRecord
  2
STANDARD
 70
     0
  3

  4

  5

  6

  7

 40
1.0
 41
0.18
 42
0.0625
 43
0.38
 44
0.18
 45
0.0
 46
0.0
 47
0.0
 48
0.0
140
0.18
141
0.09
142
0.0
143
25.4
144
1.0
145
0.0
146
1.0
147
0.09
 71
     0
 72
     0
 73
     1
 74
     1
 75
     0
 76
     0
 77
     0
 78
     0
170
     0
171
     2
172
     0
173
     0
174
     0
175
     0
176
     0
177
     0
178
     0
270
     2
271
     4
272
     4
273
     2
274
     2
340
11
275
     0
280
     0
281
     0
282
     0
283
     1
284
     0
285
     0
286
     0
287
     3
288
     0
  0
ENDTAB
  0
TABLE
  2
BLOCK_RECORD
  5
1
330
0
100
AcDbSymbolTable
 70
     1
  0
BLOCK_RECORD
  5
1F
330
1
100
AcDbSymbolTableRecord
100
AcDbBlockTableRecord
  2
*MODEL_SPACE
  0
BLOCK_RECORD
  5
1B
330
1
100
AcDbSymbolTableRecord
100
AcDbBlockTableRecord
  2
*PAPER_SPACE
  0
ENDTAB
  0
ENDSEC
  0
SECTION
  2
BLOCKS
  0
BLOCK
  5
20
330
1F
100
AcDbEntity
  8
0
100
AcDbBlockBegin
  2
*MODEL_SPACE
 70
     0
 71
     0
 10
0.0
 20
0.0
 30
0.0
  3
*MODEL_SPACE
  1

  0
ENDBLK
  5
21
330
1F
100
AcDbEntity
  8
0
100
AcDbBlockEnd
  0
BLOCK
  5
1C
330
1B
100
AcDbEntity
 67
     1
  8
0
100
AcDbBlockBegin
  2
*PAPER_SPACE
 70
     0
 71
     0
 10
0.0
 20
0.0
 30
0.0
  3
*PAPER_SPACE
  1

  0
ENDBLK
  5
1D
330
1B
100
AcDbEntity
 67
     1
  8
0
100
AcDbBlockEnd
  0
ENDSEC
  0
SECTION
  2
ENTITIES
  0
POLYLINE
  5
3B
330
1F
100
AcDbEntity
  8
0
 62
     7
100
AcDb2dPolyline
 66
     1
 10
0.0
 20
0.0
 30
0.0
  0
VERTEX
  5
3C
330
3B
100
AcDbEntity
  8
0
 62
     7
100
AcDbVertex
100
AcDb2dVertex
 10
105.9017883150786
 20
177.1245335789633
 30
0.0
  0
VERTEX
  5
3D
330
3B
100
AcDbEntity
  8
0
 62
     7
100
AcDbVertex
100
AcDb2dVertex
 10
105.9017883150786
 20
178.6336586518384
 30
0.0
  0
SEQEND
  5
3E
330
3B
100
AcDbEntity
  8
0
  0
POLYLINE
  5
3F
330
1F
100
AcDbEntity
  8
0
 62
     7
100
AcDb2dPolyline
 66
     1
 10
0.0
 20
0.0
 30
0.0
  0
VERTEX
  5
40
330
3F
100
AcDbEntity
  8
0
 62
     7
100
AcDbVertex
100
AcDb2dVertex
 10
36.47600604174676
 20
178.6336586518384
 30
0.0
  0
VERTEX
  5
41
330
3F
100
AcDbEntity
  8
0
 62
     7
100
AcDbVertex
100
AcDb2dVertex
 10
36.47600604174676
 20
177.1245335789633
 30
0.0
  0
SEQEND
  5
42
330
3F
100
AcDbEntity
  8
0
  0
POLYLINE
  5
43
330
1F
100
AcDbEntity
  8
0
 62
     7
100
AcDb2dPolyline
 66
     1
 10
0.0
 20
0.0
 30
0.0
  0
VERTEX
  5
44
330
43
100
AcDbEntity
  8
0
 62
     7
100
AcDbVertex
100
AcDb2dVertex
 10
105.9531202716722
 20
121.4865492976578
 30
0.0
  0
VERTEX
  5
45
330
43
100
AcDbEntity
  8
0
 62
     7
100
AcDbVertex
100
AcDb2dVertex
 10
105.9531202716722
 20
122.9193654551941
 30
0.0
  0
SEQEND
  5
46
330
43
100
AcDbEntity
  8
0
  0
POLYLINE
  5
47
330
1F
100
AcDbEntity
  8
0
 62
     7
100
AcDb2dPolyline
 66
     1
 10
0.0
 20
0.0
 30
0.0
  0
VERTEX
  5
48
330
47
100
AcDbEntity
  8
0
 62
     7
100
AcDbVertex
100
AcDb2dVertex
 10
36.31408644712256
 20
122.9193654551941
 30
0.0
  0
VERTEX
  5
49
330
47
100
AcDbEntity
  8
0
 62
     7
100
AcDbVertex
100
AcDb2dVertex
 10
36.31408644712256
 20
121.4865492976578
 30
0.0
  0
SEQEND
  5
4A
330
47
100
AcDbEntity
  8
0
  0
POLYLINE
  5
4B
330
1F
100
AcDbEntity
  8
0
 62
     7
100
AcDb2dPolyline
 66
     1
 10
0.0
 20
0.0
 30
0.0
  0
VERTEX
  5
4C
330
4B
100
AcDbEntity
  8
0
 62
     7
100
AcDbVertex
100
AcDb2dVertex
 10
25.10718344047319
 20
149.5854556311449
 30
0.0
  0
VERTEX
  5
4D
330
4B
100
AcDbEntity
  8
0
 62
     7
100
AcDbVertex
100
AcDb2dVertex
 10
25.10718344047319
 20
139.4093258736777
 30
0.0
  0
SEQEND
  5
4E
330
4B
100
AcDbEntity
  8
0
  0
POLYLINE
  5
4F
330
1F
100
AcDbEntity
  8
0
 62
     7
100
AcDb2dPolyline
 66
     1
 10
0.0
 20
0.0
 30
0.0
  0
VERTEX
  5
50
330
4F
100
AcDbEntity
  8
0
 62
     7
100
AcDbVertex
100
AcDb2dVertex
 10
25.10718344047319
 20
139.4093258736777
 30
0.0
  0
VERTEX
  5
51
330
4F
100
AcDbEntity
  8
0
 62
     7
100
AcDbVertex
100
AcDb2dVertex
 10
17.65784855843263
 20
139.4093258736777
 30
0.0
  0
SEQEND
  5
52
330
4F
100
AcDbEntity
  8
0
  0
SPLINE
  5
53
330
1F
100
AcDbEntity
  8
0
 62
     7
100
AcDbSpline
210
0.0
220
0.0
230
1.0
 70
     8
 71
     3
 72
     8
 73
     4
 74
     0
 42
0.0000000001
 43
0.0000000001
 40
0.0
 40
0.0
 40
0.0
 40
0.0
 40
1.0
 40
1.0
 40
1.0
 40
1.0
 10
14.1629691378684
 20
144.4973907524113
 30
0.0
 10
14.1629691378684
 20
141.687224511242
 30
0.0
 10
15.72807704931039
 20
139.4093258736777
 30
0.0
 10
17.65784855843263
 20
139.4093258736777
 30
0.0
  0
SPLINE
  5
54
330
1F
100
AcDbEntity
  8
0
 62
     7
100
AcDbSpline
210
0.0
220
0.0
230
1.0
 70
     8
 71
     3
 72
     8
 73
     4
 74
     0
 42
0.0000000001
 43
0.0000000001
 40
0.0
 40
0.0
 40
0.0
 40
0.0
 40
1.0
 40
1.0
 40
1.0
 40
1.0
 10
17.65784855843263
 20
149.5854556311449
 30
0.0
 10
15.72807704931039
 20
149.5854556311449
 30
0.0
 10
14.1629691378684
 20
147.3082460131322
 30
0.0
 10
14.1629691378684
 20
144.4973907524113
 30
0.0
  0
POLYLINE
  5
55
330
1F
100
AcDbEntity
  8
0
 62
     7
100
AcDb2dPolyline
 66
     1
 10
0.0
 20
0.0
 30
0.0
  0
VERTEX
  5
56
330
55
100
AcDbEntity
  8
0
 62
     7
100
AcDbVertex
100
AcDb2dVertex
 10
17.65784855843263
 20
149.5854556311449
 30
0.0
  0
VERTEX
  5
57
330
55
100
AcDbEntity
  8
0
 62
     7
100
AcDbVertex
100
AcDb2dVertex
 10
25.10718344047319
 20
149.5854556311449
 30
0.0
  0
SEQEND
  5
58
330
55
100
AcDbEntity
  8
0
  0
SPLINE
  5
59
330
1F
100
AcDbEntity
  8
0
 62
     7
100
AcDbSpline
210
0.0
220
0.0
230
1.0
 70
    11
 71
     3
 72
    32
 73
    28
 74
     0
 42
0.0000000001
 43
0.0000000001
 40
0.0
 40
0.0
 40
0.0
 40
0.0
 40
1.0
 40
1.0
 40
1.0
 40
2.0
 40
2.0
 40
2.0
 40
3.0
 40
3.0
 40
3.0
 40
4.0
 40
4.0
 40
4.0
 40
5.0
 40
5.0
 40
5.0
 40
6.0
 40
6.0
 40
6.0
 40
7.0
 40
7.0
 40
7.0
 40
8.0
 40
8.0
 40
8.0
 40
9.0
 40
9.0
 40
9.0
 40
9.0
 10
20.34846990740071
 20
145.9891180816087
 30
0.0
 10
19.99190228945168
 20
146.3584325612622
 30
0.0
 10
19.49890880028736
 20
146.5847754839603
 30
0.0
 10
18.95389433497782
 20
146.5847754839603
 30
0.0
 10
18.95389433497782
 20
146.5847754839603
 30
0.0
 10
18.95389433497782
 20
146.5847754839603
 30
0.0
 10
18.95389433497782
 20
146.5847754839603
 30
0.0
 10
17.86489893368613
 20
146.5847754839603
 30
0.0
 10
16.98157586854476
 20
145.6735471269794
 30
0.0
 10
16.98157586854476
 20
144.5501007481081
 30
0.0
 10
16.98157586854476
 20
144.5501007481081
 30
0.0
 10
16.98157586854476
 20
144.5501007481081
 30
0.0
 10
16.98157586854476
 20
144.5501007481081
 30
0.0
 10
16.98157586854476
 20
143.426309859461
 30
0.0
 10
17.86489893368613
 20
142.5150815024801
 30
0.0
 10
18.95389433497782
 20
142.5150815024801
 30
0.0
 10
18.95389433497782
 20
142.5150815024801
 30
0.0
 10
18.95389433497782
 20
142.5150815024801
 30
0.0
 10
18.95389433497782
 20
142.5150815024801
 30
0.0
 10
20.04288973626951
 20
142.5150815024801
 30
0.0
 10
20.92604054652299
 20
143.426309859461
 30
0.0
 10
20.92604054652299
 20
144.5501007481081
 30
0.0
 10
20.92604054652299
 20
144.5501007481081
 30
0.0
 10
20.92604054652299
 20
144.5501007481081
 30
0.0
 10
20.92604054652299
 20
144.5501007481081
 30
0.0
 10
20.92604054652299
 20
145.1123407022075
 30
0.0
 10
20.70520978023765
 20
145.6215261508342
 30
0.0
 10
20.34846990740071
 20
145.9891180816087
 30
0.0
  0
POLYLINE
  5
5A
330
1F
100
AcDbEntity
  8
0
 62
     7
100
AcDb2dPolyline
 66
     1
 10
0.0
 20
0.0
 30
0.0
  0
VERTEX
  5
5B
330
5A
100
AcDbEntity
  8
0
 62
     7
100
AcDbVertex
100
AcDb2dVertex
 10
25.10718344047319
 20
121.4865492976578
 30
0.0
  0
VERTEX
  5
5C
330
5A
100
AcDbEntity
  8
0
 62
     7
100
AcDbVertex
100
AcDb2dVertex
 10
25.10718344047319
 20
178.6868854121989
 30
0.0
  0
VERTEX
  5
5D
330
5A
100
AcDbEntity
  8
0
 62
     7
100
AcDbVertex
100
AcDb2dVertex
 10
117.1465873970656
 20
178.6234956134524
 30
0.0
  0
VERTEX
  5
5E
330
5A
100
AcDbEntity
  8
0
 62
     7
100
AcDbVertex
100
AcDb2dVertex
 10
117.1465873970656
 20
121.4865492976578
 30
0.0
  0
VERTEX
  5
5F
330
5A
100
AcDbEntity
  8
0
 62
     7
100
AcDbVertex
100
AcDb2dVertex
 10
25.10718344047319
 20
121.4865492976578
 30
0.0
  0
SEQEND
  5
60
330
5A
100
AcDbEntity
  8
0
  0
POLYLINE
  5
61
330
1F
100
AcDbEntity
  8
0
 62
     7
100
AcDb2dPolyline
 66
     1
 10
0.0
 20
0.0
 30
0.0
  0
VERTEX
  5
62
330
61
100
AcDbEntity
  8
0
 62
     7
100
AcDbVertex
100
AcDb2dVertex
 10
36.31408644712256
 20
122.8918046731304
 30
0.0
  0
VERTEX
  5
63
330
61
100
AcDbEntity
  8
0
 62
     7
100
AcDbVertex
100
AcDb2dVertex
 10
27.59471627660943
 20
122.8918046731304
 30
0.0
  0
VERTEX
  5
64
330
61
100
AcDbEntity
  8
0
 62
     7
100
AcDbVertex
100
AcDb2dVertex
 10
27.59471627660943
 20
177.136763676004
 30
0.0
  0
VERTEX
  5
65
330
61
100
AcDbEntity
  8
0
 62
     7
100
AcDbVertex
100
AcDb2dVertex
 10
114.6289099555472
 20
177.1595013212066
 30
0.0
  0
VERTEX
  5
66
330
61
100
AcDbEntity
  8
0
 62
     7
100
AcDbVertex
100
AcDb2dVertex
 10
114.6289099555472
 20
122.9141978085571
 30
0.0
  0
VERTEX
  5
67
330
61
100
AcDbEntity
  8
0
 62
     7
100
AcDbVertex
100
AcDb2dVertex
 10
105.9114345888009
 20
122.9141978085571
 30
0.0
  0
VERTEX
  5
68
330
61
100
AcDbEntity
  8
0
 62
     7
100
AcDbVertex
100
AcDb2dVertex
 10
36.31408644712256
 20
122.8918046731304
 30
0.0
  0
SEQEND
  5
69
330
61
100
AcDbEntity
  8
0
  0
SPLINE
  5
6A
330
1F
100
AcDbEntity
  8
0
 62
     7
100
AcDbSpline
210
0.0
220
0.0
230
1.0
 70
     8
 71
     3
 72
    14
 73
    10
 74
     0
 42
0.0000000001
 43
0.0000000001
 40
0.0
 40
0.0
 40
0.0
 40
0.0
 40
1.0
 40
1.0
 40
1.0
 40
2.0
 40
2.0
 40
2.0
 40
3.0
 40
3.0
 40
3.0
 40
3.0
 10
128.062724152943
 20
155.5535707321499
 30
0.0
 10
128.062724152943
 20
158.3644259928708
 30
0.0
 10
126.4986497708284
 20
160.6423246304351
 30
0.0
 10
124.5669834579392
 20
160.6423246304351
 30
0.0
 10
124.5669834579392
 20
160.6423246304351
 30
0.0
 10
124.5669834579392
 20
160.6423246304351
 30
0.0
 10
124.5669834579392
 20
160.6423246304351
 30
0.0
 10
124.5669834579392
 20
160.6423246304351
 30
0.0
 10
117.000515252128
 20
160.6423246304351
 30
0.0
 10
117.000515252128
 20
160.6423246304351
 30
0.0
  0
SPLINE
  5
6B
330
1F
100
AcDbEntity
  8
0
 62
     7
100
AcDbSpline
210
0.0
220
0.0
230
1.0
 70
     8
 71
     3
 72
    14
 73
    10
 74
     0
 42
0.0000000001
 43
0.0000000001
 40
0.0
 40
0.0
 40
0.0
 40
0.0
 40
1.0
 40
1.0
 40
1.0
 40
2.0
 40
2.0
 40
2.0
 40
3.0
 40
3.0
 40
3.0
 40
3.0
 10
128.062724152943
 20
155.5535707321499
 30
0.0
 10
128.062724152943
 20
152.7437490007563
 30
0.0
 10
126.4986497708284
 20
150.4667116376315
 30
0.0
 10
124.5669834579392
 20
150.4667116376315
 30
0.0
 10
124.5669834579392
 20
150.4667116376315
 30
0.0
 10
124.5669834579392
 20
150.4667116376315
 30
0.0
 10
124.5669834579392
 20
150.4667116376315
 30
0.0
 10
124.5669834579392
 20
150.4667116376315
 30
0.0
 10
117.1276393593968
 20
150.4667116376315
 30
0.0
 10
117.1276393593968
 20
150.4667116376315
 30
0.0
  0
SPLINE
  5
6C
330
1F
100
AcDbEntity
  8
0
 62
     7
100
AcDbSpline
210
0.0
220
0.0
230
1.0
 70
    11
 71
     3
 72
    20
 73
    16
 74
     0
 42
0.0000000001
 43
0.0000000001
 40
0.0
 40
0.0
 40
0.0
 40
0.0
 40
1.0
 40
1.0
 40
1.0
 40
2.0
 40
2.0
 40
2.0
 40
3.0
 40
3.0
 40
3.0
 40
4.0
 40
4.0
 40
4.0
 40
5.0
 40
5.0
 40
5.0
 40
5.0
 10
123.2716267009456
 20
153.4672195299283
 30
0.0
 10
124.3609666120131
 20
153.4672195299283
 30
0.0
 10
125.2442896771545
 20
154.3781033771333
 30
0.0
 10
125.2442896771545
 20
155.5020665206683
 30
0.0
 10
125.2442896771545
 20
156.6258574093154
 30
0.0
 10
124.3609666120131
 20
157.5367412565205
 30
0.0
 10
123.2716267009456
 20
157.5367412565205
 30
0.0
 10
122.1819422801024
 20
157.5367412565205
 30
0.0
 10
121.298619214961
 20
156.6258574093154
 30
0.0
 10
121.298619214961
 20
155.5020665206683
 30
0.0
 10
121.298619214961
 20
154.3781033771333
 30
0.0
 10
122.1819422801024
 20
153.4672195299283
 30
0.0
 10
123.2716267009456
 20
153.4672195299283
 30
0.0
 10
123.2716267009456
 20
153.4672195299283
 30
0.0
 10
123.2716267009456
 20
153.4672195299283
 30
0.0
 10
123.2716267009456
 20
153.4672195299283
 30
0.0
  0
POLYLINE
  5
6D
330
1F
100
AcDbEntity
  8
0
 62
     7
100
AcDb2dPolyline
 66
     1
 10
0.0
 20
0.0
 30
0.0
  0
VERTEX
  5
6E
330
6D
100
AcDbEntity
  8
0
 62
     7
100
AcDbVertex
100
AcDb2dVertex
 10
30.57489809213419
 20
133.9488459273084
 30
0.0
  0
VERTEX
  5
6F
330
6D
100
AcDbEntity
  8
0
 62
     7
100
AcDbVertex
100
AcDb2dVertex
 10
36.94557286615694
 20
133.9488459273084
 30
0.0
  0
VERTEX
  5
70
330
6D
100
AcDbEntity
  8
0
 62
     7
100
AcDbVertex
100
AcDb2dVertex
 10
36.94488384660535
 20
143.8851968808215
 30
0.0
  0
VERTEX
  5
71
330
6D
100
AcDbEntity
  8
0
 62
     7
100
AcDbVertex
100
AcDb2dVertex
 10
30.5738645628068
 20
143.8851968808215
 30
0.0
  0
VERTEX
  5
72
330
6D
100
AcDbEntity
  8
0
 62
     7
100
AcDbVertex
100
AcDb2dVertex
 10
30.57489809213419
 20
133.9488459273084
 30
0.0
  0
SEQEND
  5
73
330
6D
100
AcDbEntity
  8
0
  0
POLYLINE
  5
74
330
1F
100
AcDbEntity
  8
0
 62
     7
100
AcDb2dPolyline
 66
     1
 10
0.0
 20
0.0
 30
0.0
  0
VERTEX
  5
75
330
74
100
AcDbEntity
  8
0
 62
     7
100
AcDbVertex
100
AcDb2dVertex
 10
30.5738645628068
 20
142.5298954228394
 30
0.0
  0
VERTEX
  5
76
330
74
100
AcDbEntity
  8
0
 62
     7
100
AcDbVertex
100
AcDb2dVertex
 10
36.94488384660535
 20
142.5298954228394
 30
0.0
  0
SEQEND
  5
77
330
74
100
AcDbEntity
  8
0
  0
POLYLINE
  5
78
330
1F
100
AcDbEntity
  8
0
 62
     7
100
AcDb2dPolyline
 66
     1
 10
0.0
 20
0.0
 30
0.0
  0
VERTEX
  5
79
330
78
100
AcDbEntity
  8
0
 62
     7
100
AcDbVertex
100
AcDb2dVertex
 10
35.95235118253659
 20
142.5298954228394
 30
0.0
  0
VERTEX
  5
7A
330
78
100
AcDbEntity
  8
0
 62
     7
100
AcDbVertex
100
AcDb2dVertex
 10
35.95235118253659
 20
143.4325110354253
 30
0.0
  0
VERTEX
  5
7B
330
78
100
AcDbEntity
  8
0
 62
     7
100
AcDbVertex
100
AcDb2dVertex
 10
31.56777526597875
 20
143.4325110354253
 30
0.0
  0
VERTEX
  5
7C
330
78
100
AcDbEntity
  8
0
 62
     7
100
AcDbVertex
100
AcDb2dVertex
 10
31.56777526597875
 20
142.6060320832903
 30
0.0
  0
SEQEND
  5
7D
330
78
100
AcDbEntity
  8
0
  0
POLYLINE
  5
7E
330
1F
100
AcDbEntity
  8
0
 62
     7
100
AcDb2dPolyline
 66
     1
 10
0.0
 20
0.0
 30
0.0
  0
VERTEX
  5
7F
330
7E
100
AcDbEntity
  8
0
 62
     7
100
AcDbVertex
100
AcDb2dVertex
 10
36.94557286615694
 20
135.3034583657389
 30
0.0
  0
VERTEX
  5
80
330
7E
100
AcDbEntity
  8
0
 62
     7
100
AcDbVertex
100
AcDb2dVertex
 10
30.57489809213419
 20
135.3034583657389
 30
0.0
  0
SEQEND
  5
81
330
7E
100
AcDbEntity
  8
0
  0
POLYLINE
  5
82
330
1F
100
AcDbEntity
  8
0
 62
     7
100
AcDb2dPolyline
 66
     1
 10
0.0
 20
0.0
 30
0.0
  0
VERTEX
  5
83
330
82
100
AcDbEntity
  8
0
 62
     7
100
AcDbVertex
100
AcDb2dVertex
 10
36.94557286615694
 20
136.6577262943937
 30
0.0
  0
VERTEX
  5
84
330
82
100
AcDbEntity
  8
0
 62
     7
100
AcDbVertex
100
AcDb2dVertex
 10
30.57489809213419
 20
136.6577262943937
 30
0.0
  0
SEQEND
  5
85
330
82
100
AcDbEntity
  8
0
  0
POLYLINE
  5
86
330
1F
100
AcDbEntity
  8
0
 62
     7
100
AcDb2dPolyline
 66
     1
 10
0.0
 20
0.0
 30
0.0
  0
VERTEX
  5
87
330
86
100
AcDbEntity
  8
0
 62
     7
100
AcDbVertex
100
AcDb2dVertex
 10
31.56777526597875
 20
136.6584153139453
 30
0.0
  0
VERTEX
  5
88
330
86
100
AcDbEntity
  8
0
 62
     7
100
AcDbVertex
100
AcDb2dVertex
 10
31.56777526597875
 20
136.1120228095326
 30
0.0
  0
VERTEX
  5
89
330
86
100
AcDbEntity
  8
0
 62
     7
100
AcDbVertex
100
AcDb2dVertex
 10
35.95235118253659
 20
136.1120228095326
 30
0.0
  0
VERTEX
  5
8A
330
86
100
AcDbEntity
  8
0
 62
     7
100
AcDbVertex
100
AcDb2dVertex
 10
35.95235118253659
 20
136.5833121828217
 30
0.0
  0
SEQEND
  5
8B
330
86
100
AcDbEntity
  8
0
  0
SPLINE
  5
8C
330
1F
100
AcDbEntity
  8
0
 62
     7
100
AcDbSpline
210
0.0
220
0.0
230
1.0
 70
    11
 71
     3
 72
    23
 73
    19
 74
     0
 42
0.0000000001
 43
0.0000000001
 40
0.0
 40
0.0
 40
0.0
 40
0.0
 40
1.0
 40
1.0
 40
1.0
 40
2.0
 40
2.0
 40
2.0
 40
3.0
 40
3.0
 40
3.0
 40
4.0
 40
4.0
 40
4.0
 40
5.0
 40
5.0
 40
5.0
 40
6.0
 40
6.0
 40
6.0
 40
6.0
 10
36.64550485143848
 20
139.5932940939528
 30
0.0
 10
36.64550485143848
 20
141.2149016086254
 30
0.0
 10
35.33688446807673
 20
142.5292064032878
 30
0.0
 10
33.72251165869589
 20
142.5292064032878
 30
0.0
 10
32.10831110420293
 20
142.5292064032878
 30
0.0
 10
30.79969072084119
 20
141.2149016086254
 30
0.0
 10
30.79969072084119
 20
139.5932940939528
 30
0.0
 10
30.79969072084119
 20
137.9720310890561
 30
0.0
 10
32.10831110420293
 20
136.6577262943937
 30
0.0
 10
33.72251165869589
 20
136.6577262943937
 30
0.0
 10
35.33688446807673
 20
136.6577262943937
 30
0.0
 10
36.64550485143848
 20
137.9720310890561
 30
0.0
 10
36.64550485143848
 20
139.5932940939528
 30
0.0
 10
36.64550485143848
 20
139.5932940939528
 30
0.0
 10
36.64550485143848
 20
139.5932940939528
 30
0.0
 10
36.64550485143848
 20
139.5932940939528
 30
0.0
 10
36.64550485143848
 20
139.5932940939528
 30
0.0
 10
36.64550485143848
 20
139.5932940939528
 30
0.0
 10
36.64550485143848
 20
139.5932940939528
 30
0.0
  0
POLYLINE
  5
8D
330
1F
100
AcDbEntity
  8
0
 62
     7
100
AcDb2dPolyline
 66
     1
 10
0.0
 20
0.0
 30
0.0
  0
VERTEX
  5
8E
330
8D
100
AcDbEntity
  8
0
 62
     7
100
AcDbVertex
100
AcDb2dVertex
 10
32.49674587641312
 20
140.7122618457388
 30
0.0
  0
VERTEX
  5
8F
330
8D
100
AcDbEntity
  8
0
 62
     7
100
AcDbVertex
100
AcDb2dVertex
 10
34.72331255738376
 20
138.4753598714943
 30
0.0
  0
SEQEND
  5
90
330
8D
100
AcDbEntity
  8
0
  0
POLYLINE
  5
91
330
1F
100
AcDbEntity
  8
0
 62
     7
100
AcDb2dPolyline
 66
     1
 10
0.0
 20
0.0
 30
0.0
  0
VERTEX
  5
92
330
91
100
AcDbEntity
  8
0
 62
     7
100
AcDbVertex
100
AcDb2dVertex
 10
35.14671507183725
 20
141.1366978895197
 30
0.0
  0
VERTEX
  5
93
330
91
100
AcDbEntity
  8
0
 62
     7
100
AcDbVertex
100
AcDb2dVertex
 10
32.07282659729593
 20
138.0495457886102
 30
0.0
  0
SEQEND
  5
94
330
91
100
AcDbEntity
  8
0
  0
POLYLINE
  5
95
330
1F
100
AcDbEntity
  8
0
 62
     7
100
AcDb2dPolyline
 66
     1
 10
0.0
 20
0.0
 30
0.0
  0
VERTEX
  5
96
330
95
100
AcDbEntity
  8
0
 62
     7
100
AcDbVertex
100
AcDb2dVertex
 10
33.19730650549462
 20
134.0232600388804
 30
0.0
  0
VERTEX
  5
97
330
95
100
AcDbEntity
  8
0
 62
     7
100
AcDbVertex
100
AcDb2dVertex
 10
33.19730650549462
 20
135.3034583657389
 30
0.0
  0
SEQEND
  5
98
330
95
100
AcDbEntity
  8
0
  0
POLYLINE
  5
99
330
1F
100
AcDbEntity
  8
0
 62
     7
100
AcDb2dPolyline
 66
     1
 10
0.0
 20
0.0
 30
0.0
  0
VERTEX
  5
9A
330
99
100
AcDbEntity
  8
0
 62
     7
100
AcDbVertex
100
AcDb2dVertex
 10
34.02206290875066
 20
134.0232600388804
 30
0.0
  0
VERTEX
  5
9B
330
99
100
AcDbEntity
  8
0
 62
     7
100
AcDbVertex
100
AcDb2dVertex
 10
34.02206290875066
 20
135.3034583657389
 30
0.0
  0
SEQEND
  5
9C
330
99
100
AcDbEntity
  8
0
  0
POLYLINE
  5
9D
330
1F
100
AcDbEntity
  8
0
 62
     7
100
AcDb2dPolyline
 66
     1
 10
0.0
 20
0.0
 30
0.0
  0
VERTEX
  5
9E
330
9D
100
AcDbEntity
  8
0
 62
     7
100
AcDbVertex
100
AcDb2dVertex
 10
101.1745974264915
 20
133.9488459273084
 30
0.0
  0
VERTEX
  5
9F
330
9D
100
AcDbEntity
  8
0
 62
     7
100
AcDbVertex
100
AcDb2dVertex
 10
107.5447554358505
 20
133.9488459273084
 30
0.0
  0
VERTEX
  5
A0
330
9D
100
AcDbEntity
  8
0
 62
     7
100
AcDbVertex
100
AcDb2dVertex
 10
107.5447554358505
 20
143.8851968808215
 30
0.0
  0
VERTEX
  5
A1
330
9D
100
AcDbEntity
  8
0
 62
     7
100
AcDbVertex
100
AcDb2dVertex
 10
101.1745974264915
 20
143.8851968808215
 30
0.0
  0
VERTEX
  5
A2
330
9D
100
AcDbEntity
  8
0
 62
     7
100
AcDbVertex
100
AcDb2dVertex
 10
101.1745974264915
 20
133.9488459273084
 30
0.0
  0
SEQEND
  5
A3
330
9D
100
AcDbEntity
  8
0
  0
POLYLINE
  5
A4
330
1F
100
AcDbEntity
  8
0
 62
     7
100
AcDb2dPolyline
 66
     1
 10
0.0
 20
0.0
 30
0.0
  0
VERTEX
  5
A5
330
A4
100
AcDbEntity
  8
0
 62
     7
100
AcDbVertex
100
AcDb2dVertex
 10
101.1745974264915
 20
142.5298954228394
 30
0.0
  0
VERTEX
  5
A6
330
A4
100
AcDbEntity
  8
0
 62
     7
100
AcDbVertex
100
AcDb2dVertex
 10
107.5447554358505
 20
142.5298954228394
 30
0.0
  0
SEQEND
  5
A7
330
A4
100
AcDbEntity
  8
0
  0
POLYLINE
  5
A8
330
1F
100
AcDbEntity
  8
0
 62
     7
100
AcDb2dPolyline
 66
     1
 10
0.0
 20
0.0
 30
0.0
  0
VERTEX
  5
A9
330
A8
100
AcDbEntity
  8
0
 62
     7
100
AcDbVertex
100
AcDb2dVertex
 10
106.5522227717818
 20
142.5298954228394
 30
0.0
  0
VERTEX
  5
AA
330
A8
100
AcDbEntity
  8
0
 62
     7
100
AcDbVertex
100
AcDb2dVertex
 10
106.5522227717818
 20
143.4325110354253
 30
0.0
  0
VERTEX
  5
AB
330
A8
100
AcDbEntity
  8
0
 62
     7
100
AcDbVertex
100
AcDb2dVertex
 10
102.1673023454481
 20
143.4325110354253
 30
0.0
  0
VERTEX
  5
AC
330
A8
100
AcDbEntity
  8
0
 62
     7
100
AcDbVertex
100
AcDb2dVertex
 10
102.1673023454481
 20
142.6060320832903
 30
0.0
  0
SEQEND
  5
AD
330
A8
100
AcDbEntity
  8
0
  0
POLYLINE
  5
AE
330
1F
100
AcDbEntity
  8
0
 62
     7
100
AcDb2dPolyline
 66
     1
 10
0.0
 20
0.0
 30
0.0
  0
VERTEX
  5
AF
330
AE
100
AcDbEntity
  8
0
 62
     7
100
AcDbVertex
100
AcDb2dVertex
 10
107.5447554358505
 20
135.3034583657389
 30
0.0
  0
VERTEX
  5
B0
330
AE
100
AcDbEntity
  8
0
 62
     7
100
AcDbVertex
100
AcDb2dVertex
 10
101.1745974264915
 20
135.3034583657389
 30
0.0
  0
SEQEND
  5
B1
330
AE
100
AcDbEntity
  8
0
  0
POLYLINE
  5
B2
330
1F
100
AcDbEntity
  8
0
 62
     7
100
AcDb2dPolyline
 66
     1
 10
0.0
 20
0.0
 30
0.0
  0
VERTEX
  5
B3
330
B2
100
AcDbEntity
  8
0
 62
     7
100
AcDbVertex
100
AcDb2dVertex
 10
107.5447554358505
 20
136.6577262943937
 30
0.0
  0
VERTEX
  5
B4
330
B2
100
AcDbEntity
  8
0
 62
     7
100
AcDbVertex
100
AcDb2dVertex
 10
101.1745974264915
 20
136.6577262943937
 30
0.0
  0
SEQEND
  5
B5
330
B2
100
AcDbEntity
  8
0
  0
POLYLINE
  5
B6
330
1F
100
AcDbEntity
  8
0
 62
     7
100
AcDb2dPolyline
 66
     1
 10
0.0
 20
0.0
 30
0.0
  0
VERTEX
  5
B7
330
B6
100
AcDbEntity
  8
0
 62
     7
100
AcDbVertex
100
AcDb2dVertex
 10
102.1673023454481
 20
136.6584153139453
 30
0.0
  0
VERTEX
  5
B8
330
B6
100
AcDbEntity
  8
0
 62
     7
100
AcDbVertex
100
AcDb2dVertex
 10
102.1673023454481
 20
136.1120228095326
 30
0.0
  0
VERTEX
  5
B9
330
B6
100
AcDbEntity
  8
0
 62
     7
100
AcDbVertex
100
AcDb2dVertex
 10
106.5522227717818
 20
136.1120228095326
 30
0.0
  0
VERTEX
  5
BA
330
B6
100
AcDbEntity
  8
0
 62
     7
100
AcDbVertex
100
AcDb2dVertex
 10
106.5522227717818
 20
136.5833121828217
 30
0.0
  0
SEQEND
  5
BB
330
B6
100
AcDbEntity
  8
0
  0
SPLINE
  5
BC
330
1F
100
AcDbEntity
  8
0
 62
     7
100
AcDbSpline
210
0.0
220
0.0
230
1.0
 70
    11
 71
     3
 72
    23
 73
    19
 74
     0
 42
0.0000000001
 43
0.0000000001
 40
0.0
 40
0.0
 40
0.0
 40
0.0
 40
1.0
 40
1.0
 40
1.0
 40
2.0
 40
2.0
 40
2.0
 40
3.0
 40
3.0
 40
3.0
 40
4.0
 40
4.0
 40
4.0
 40
5.0
 40
5.0
 40
5.0
 40
6.0
 40
6.0
 40
6.0
 40
6.0
 10
107.2457209504595
 20
139.5932940939528
 30
0.0
 10
107.2457209504595
 20
141.2149016086254
 30
0.0
 10
105.9369283122098
 20
142.5292064032878
 30
0.0
 10
104.322555502829
 20
142.5292064032878
 30
0.0
 10
102.7081826934481
 20
142.5292064032878
 30
0.0
 10
101.3995623100864
 20
141.2149016086254
 30
0.0
 10
101.3995623100864
 20
139.5932940939528
 30
0.0
 10
101.3995623100864
 20
137.9720310890561
 30
0.0
 10
102.7081826934481
 20
136.6573817846179
 30
0.0
 10
104.322555502829
 20
136.6573817846179
 30
0.0
 10
105.9369283122098
 20
136.6573817846179
 30
0.0
 10
107.2457209504595
 20
137.9720310890561
 30
0.0
 10
107.2457209504595
 20
139.5932940939528
 30
0.0
 10
107.2457209504595
 20
139.5932940939528
 30
0.0
 10
107.2457209504595
 20
139.5932940939528
 30
0.0
 10
107.2457209504595
 20
139.5932940939528
 30
0.0
 10
107.2457209504595
 20
139.5932940939528
 30
0.0
 10
107.2457209504595
 20
139.5932940939528
 30
0.0
 10
107.2457209504595
 20
139.5932940939528
 30
0.0
  0
POLYLINE
  5
BD
330
1F
100
AcDbEntity
  8
0
 62
     7
100
AcDb2dPolyline
 66
     1
 10
0.0
 20
0.0
 30
0.0
  0
VERTEX
  5
BE
330
BD
100
AcDbEntity
  8
0
 62
     7
100
AcDbVertex
100
AcDb2dVertex
 10
103.0967897205462
 20
140.7122618457388
 30
0.0
  0
VERTEX
  5
BF
330
BD
100
AcDbEntity
  8
0
 62
     7
100
AcDbVertex
100
AcDb2dVertex
 10
105.3226673819652
 20
138.4753598714943
 30
0.0
  0
SEQEND
  5
C0
330
BD
100
AcDbEntity
  8
0
  0
POLYLINE
  5
C1
330
1F
100
AcDbEntity
  8
0
 62
     7
100
AcDb2dPolyline
 66
     1
 10
0.0
 20
0.0
 30
0.0
  0
VERTEX
  5
C2
330
C1
100
AcDbEntity
  8
0
 62
     7
100
AcDbVertex
100
AcDb2dVertex
 10
105.7453808768671
 20
141.1366978895197
 30
0.0
  0
VERTEX
  5
C3
330
C1
100
AcDbEntity
  8
0
 62
     7
100
AcDbVertex
100
AcDb2dVertex
 10
102.6732149512048
 20
138.0495457886102
 30
0.0
  0
SEQEND
  5
C4
330
C1
100
AcDbEntity
  8
0
  0
POLYLINE
  5
C5
330
1F
100
AcDbEntity
  8
0
 62
     7
100
AcDb2dPolyline
 66
     1
 10
0.0
 20
0.0
 30
0.0
  0
VERTEX
  5
C6
330
C5
100
AcDbEntity
  8
0
 62
     7
100
AcDbVertex
100
AcDb2dVertex
 10
103.7963168203003
 20
134.0232600388804
 30
0.0
  0
VERTEX
  5
C7
330
C5
100
AcDbEntity
  8
0
 62
     7
100
AcDbVertex
100
AcDb2dVertex
 10
103.7963168203003
 20
135.3034583657389
 30
0.0
  0
SEQEND
  5
C8
330
C5
100
AcDbEntity
  8
0
  0
POLYLINE
  5
C9
330
1F
100
AcDbEntity
  8
0
 62
     7
100
AcDb2dPolyline
 66
     1
 10
0.0
 20
0.0
 30
0.0
  0
VERTEX
  5
CA
330
C9
100
AcDbEntity
  8
0
 62
     7
100
AcDbVertex
100
AcDb2dVertex
 10
104.6224512626595
 20
134.0232600388804
 30
0.0
  0
VERTEX
  5
CB
330
C9
100
AcDbEntity
  8
0
 62
     7
100
AcDbVertex
100
AcDb2dVertex
 10
104.6224512626595
 20
135.3034583657389
 30
0.0
  0
SEQEND
  5
CC
330
C9
100
AcDbEntity
  8
0
  0
POLYLINE
  5
CD
330
1F
100
AcDbEntity
  8
0
 62
     7
100
AcDb2dPolyline
 66
     1
 10
0.0
 20
0.0
 30
0.0
  0
VERTEX
  5
CE
330
CD
100
AcDbEntity
  8
0
 62
     7
100
AcDbVertex
100
AcDb2dVertex
 10
93.33045434138852
 20
133.9488459273084
 30
0.0
  0
VERTEX
  5
CF
330
CD
100
AcDbEntity
  8
0
 62
     7
100
AcDbVertex
100
AcDb2dVertex
 10
99.70078460563546
 20
133.9488459273084
 30
0.0
  0
VERTEX
  5
D0
330
CD
100
AcDbEntity
  8
0
 62
     7
100
AcDbVertex
100
AcDb2dVertex
 10
99.70078460563546
 20
143.8851968808215
 30
0.0
  0
VERTEX
  5
D1
330
CD
100
AcDbEntity
  8
0
 62
     7
100
AcDbVertex
100
AcDb2dVertex
 10
93.33045434138852
 20
143.8851968808215
 30
0.0
  0
VERTEX
  5
D2
330
CD
100
AcDbEntity
  8
0
 62
     7
100
AcDbVertex
100
AcDb2dVertex
 10
93.33045434138852
 20
133.9488459273084
 30
0.0
  0
SEQEND
  5
D3
330
CD
100
AcDbEntity
  8
0
  0
POLYLINE
  5
D4
330
1F
100
AcDbEntity
  8
0
 62
     7
100
AcDb2dPolyline
 66
     1
 10
0.0
 20
0.0
 30
0.0
  0
VERTEX
  5
D5
330
D4
100
AcDbEntity
  8
0
 62
     7
100
AcDbVertex
100
AcDb2dVertex
 10
93.33045434138852
 20
142.5298954228394
 30
0.0
  0
VERTEX
  5
D6
330
D4
100
AcDbEntity
  8
0
 62
     7
100
AcDbVertex
100
AcDb2dVertex
 10
99.70061235074758
 20
142.5298954228394
 30
0.0
  0
SEQEND
  5
D7
330
D4
100
AcDbEntity
  8
0
  0
POLYLINE
  5
D8
330
1F
100
AcDbEntity
  8
0
 62
     7
100
AcDb2dPolyline
 66
     1
 10
0.0
 20
0.0
 30
0.0
  0
VERTEX
  5
D9
330
D8
100
AcDbEntity
  8
0
 62
     7
100
AcDbVertex
100
AcDb2dVertex
 10
98.70790743179092
 20
142.5298954228394
 30
0.0
  0
VERTEX
  5
DA
330
D8
100
AcDbEntity
  8
0
 62
     7
100
AcDbVertex
100
AcDb2dVertex
 10
98.70790743179092
 20
143.4325110354253
 30
0.0
  0
VERTEX
  5
DB
330
D8
100
AcDbEntity
  8
0
 62
     7
100
AcDbVertex
100
AcDb2dVertex
 10
94.32298700545728
 20
143.4325110354253
 30
0.0
  0
VERTEX
  5
DC
330
D8
100
AcDbEntity
  8
0
 62
     7
100
AcDbVertex
100
AcDb2dVertex
 10
94.32298700545728
 20
142.6060320832903
 30
0.0
  0
SEQEND
  5
DD
330
D8
100
AcDbEntity
  8
0
  0
POLYLINE
  5
DE
330
1F
100
AcDbEntity
  8
0
 62
     7
100
AcDb2dPolyline
 66
     1
 10
0.0
 20
0.0
 30
0.0
  0
VERTEX
  5
DF
330
DE
100
AcDbEntity
  8
0
 62
     7
100
AcDbVertex
100
AcDb2dVertex
 10
99.70061235074758
 20
135.3034583657389
 30
0.0
  0
VERTEX
  5
E0
330
DE
100
AcDbEntity
  8
0
 62
     7
100
AcDbVertex
100
AcDb2dVertex
 10
93.33045434138852
 20
135.3034583657389
 30
0.0
  0
SEQEND
  5
E1
330
DE
100
AcDbEntity
  8
0
  0
POLYLINE
  5
E2
330
1F
100
AcDbEntity
  8
0
 62
     7
100
AcDb2dPolyline
 66
     1
 10
0.0
 20
0.0
 30
0.0
  0
VERTEX
  5
E3
330
E2
100
AcDbEntity
  8
0
 62
     7
100
AcDbVertex
100
AcDb2dVertex
 10
99.70061235074758
 20
136.6577262943937
 30
0.0
  0
VERTEX
  5
E4
330
E2
100
AcDbEntity
  8
0
 62
     7
100
AcDbVertex
100
AcDb2dVertex
 10
93.33045434138852
 20
136.6577262943937
 30
0.0
  0
SEQEND
  5
E5
330
E2
100
AcDbEntity
  8
0
  0
POLYLINE
  5
E6
330
1F
100
AcDbEntity
  8
0
 62
     7
100
AcDb2dPolyline
 66
     1
 10
0.0
 20
0.0
 30
0.0
  0
VERTEX
  5
E7
330
E6
100
AcDbEntity
  8
0
 62
     7
100
AcDbVertex
100
AcDb2dVertex
 10
94.32298700545728
 20
136.6584153139453
 30
0.0
  0
VERTEX
  5
E8
330
E6
100
AcDbEntity
  8
0
 62
     7
100
AcDbVertex
100
AcDb2dVertex
 10
94.32298700545728
 20
136.1120228095326
 30
0.0
  0
VERTEX
  5
E9
330
E6
100
AcDbEntity
  8
0
 62
     7
100
AcDbVertex
100
AcDb2dVertex
 10
98.70790743179092
 20
136.1120228095326
 30
0.0
  0
VERTEX
  5
EA
330
E6
100
AcDbEntity
  8
0
 62
     7
100
AcDbVertex
100
AcDb2dVertex
 10
98.70790743179092
 20
136.5833121828217
 30
0.0
  0
SEQEND
  5
EB
330
E6
100
AcDbEntity
  8
0
  0
SPLINE
  5
EC
330
1F
100
AcDbEntity
  8
0
 62
     7
100
AcDbSpline
210
0.0
220
0.0
230
1.0
 70
    11
 71
     3
 72
    23
 73
    19
 74
     0
 42
0.0000000001
 43
0.0000000001
 40
0.0
 40
0.0
 40
0.0
 40
0.0
 40
1.0
 40
1.0
 40
1.0
 40
2.0
 40
2.0
 40
2.0
 40
3.0
 40
3.0
 40
3.0
 40
4.0
 40
4.0
 40
4.0
 40
5.0
 40
5.0
 40
5.0
 40
6.0
 40
6.0
 40
6.0
 40
6.0
 10
99.40019982625331
 20
139.5932940939528
 30
0.0
 10
99.40019982625331
 20
141.2145570988496
 30
0.0
 10
98.09175169777946
 20
142.528861893512
 30
0.0
 10
96.47772339817441
 20
142.528861893512
 30
0.0
 10
94.86369509856937
 20
142.528861893512
 30
0.0
 10
93.55524697009551
 20
141.2145570988496
 30
0.0
 10
93.55524697009551
 20
139.5932940939528
 30
0.0
 10
93.55524697009551
 20
137.9723755988319
 30
0.0
 10
94.86369509856937
 20
136.6580708041695
 30
0.0
 10
96.47772339817441
 20
136.6580708041695
 30
0.0
 10
98.09175169777946
 20
136.6580708041695
 30
0.0
 10
99.40019982625331
 20
137.9723755988319
 30
0.0
 10
99.40019982625331
 20
139.5932940939528
 30
0.0
 10
99.40019982625331
 20
139.5932940939528
 30
0.0
 10
99.40019982625331
 20
139.5932940939528
 30
0.0
 10
99.40019982625331
 20
139.5932940939528
 30
0.0
 10
99.40019982625331
 20
139.5932940939528
 30
0.0
 10
99.40019982625331
 20
139.5932940939528
 30
0.0
 10
99.40019982625331
 20
139.5932940939528
 30
0.0
  0
POLYLINE
  5
ED
330
1F
100
AcDbEntity
  8
0
 62
     7
100
AcDb2dPolyline
 66
     1
 10
0.0
 20
0.0
 30
0.0
  0
VERTEX
  5
EE
330
ED
100
AcDbEntity
  8
0
 62
     7
100
AcDbVertex
100
AcDb2dVertex
 10
95.25247438055534
 20
140.7122618457388
 30
0.0
  0
VERTEX
  5
EF
330
ED
100
AcDbEntity
  8
0
 62
     7
100
AcDbVertex
100
AcDb2dVertex
 10
97.47749076753489
 20
138.4753598714943
 30
0.0
  0
SEQEND
  5
F0
330
ED
100
AcDbEntity
  8
0
  0
POLYLINE
  5
F1
330
1F
100
AcDbEntity
  8
0
 62
     7
100
AcDb2dPolyline
 66
     1
 10
0.0
 20
0.0
 30
0.0
  0
VERTEX
  5
F2
330
F1
100
AcDbEntity
  8
0
 62
     7
100
AcDbVertex
100
AcDb2dVertex
 10
97.90227132109158
 20
141.1366978895197
 30
0.0
  0
VERTEX
  5
F3
330
F1
100
AcDbEntity
  8
0
 62
     7
100
AcDbVertex
100
AcDb2dVertex
 10
94.82752157211077
 20
138.0495457886102
 30
0.0
  0
SEQEND
  5
F4
330
F1
100
AcDbEntity
  8
0
  0
POLYLINE
  5
F5
330
1F
100
AcDbEntity
  8
0
 62
     7
100
AcDb2dPolyline
 66
     1
 10
0.0
 20
0.0
 30
0.0
  0
VERTEX
  5
F6
330
F5
100
AcDbEntity
  8
0
 62
     7
100
AcDbVertex
100
AcDb2dVertex
 10
95.95441304874004
 20
134.0232600388804
 30
0.0
  0
VERTEX
  5
F7
330
F5
100
AcDbEntity
  8
0
 62
     7
100
AcDbVertex
100
AcDb2dVertex
 10
95.95441304874004
 20
135.3034583657389
 30
0.0
  0
SEQEND
  5
F8
330
F5
100
AcDbEntity
  8
0
  0
POLYLINE
  5
F9
330
1F
100
AcDbEntity
  8
0
 62
     7
100
AcDb2dPolyline
 66
     1
 10
0.0
 20
0.0
 30
0.0
  0
VERTEX
  5
FA
330
F9
100
AcDbEntity
  8
0
 62
     7
100
AcDbVertex
100
AcDb2dVertex
 10
96.77727464822918
 20
134.0232600388804
 30
0.0
  0
VERTEX
  5
FB
330
F9
100
AcDbEntity
  8
0
 62
     7
100
AcDbVertex
100
AcDb2dVertex
 10
96.77727464822918
 20
135.3034583657389
 30
0.0
  0
SEQEND
  5
FC
330
F9
100
AcDbEntity
  8
0
  0
POLYLINE
  5
FD
330
1F
100
AcDbEntity
  8
0
 62
     7
100
AcDb2dPolyline
 66
     1
 10
0.0
 20
0.0
 30
0.0
  0
VERTEX
  5
FE
330
FD
100
AcDbEntity
  8
0
 62
     7
100
AcDbVertex
100
AcDb2dVertex
 10
85.48544998184605
 20
133.9488459273084
 30
0.0
  0
VERTEX
  5
FF
330
FD
100
AcDbEntity
  8
0
 62
     7
100
AcDbVertex
100
AcDb2dVertex
 10
91.85664152053251
 20
133.9488459273084
 30
0.0
  0
VERTEX
  5
100
330
FD
100
AcDbEntity
  8
0
 62
     7
100
AcDbVertex
100
AcDb2dVertex
 10
91.85664152053251
 20
143.8851968808215
 30
0.0
  0
VERTEX
  5
101
330
FD
100
AcDbEntity
  8
0
 62
     7
100
AcDbVertex
100
AcDb2dVertex
 10
85.48544998184605
 20
143.8851968808215
 30
0.0
  0
VERTEX
  5
102
330
FD
100
AcDbEntity
  8
0
 62
     7
100
AcDbVertex
100
AcDb2dVertex
 10
85.48544998184605
 20
133.9488459273084
 30
0.0
  0
SEQEND
  5
103
330
FD
100
AcDbEntity
  8
0
  0
POLYLINE
  5
104
330
1F
100
AcDbEntity
  8
0
 62
     7
100
AcDb2dPolyline
 66
     1
 10
0.0
 20
0.0
 30
0.0
  0
VERTEX
  5
105
330
104
100
AcDbEntity
  8
0
 62
     7
100
AcDbVertex
100
AcDb2dVertex
 10
85.48544998184605
 20
142.5298954228394
 30
0.0
  0
VERTEX
  5
106
330
104
100
AcDbEntity
  8
0
 62
     7
100
AcDbVertex
100
AcDb2dVertex
 10
91.85612475586881
 20
142.5298954228394
 30
0.0
  0
SEQEND
  5
107
330
104
100
AcDbEntity
  8
0
  0
POLYLINE
  5
108
330
1F
100
AcDbEntity
  8
0
 62
     7
100
AcDb2dPolyline
 66
     1
 10
0.0
 20
0.0
 30
0.0
  0
VERTEX
  5
109
330
108
100
AcDbEntity
  8
0
 62
     7
100
AcDbVertex
100
AcDb2dVertex
 10
90.86376434668794
 20
142.5298954228394
 30
0.0
  0
VERTEX
  5
10A
330
108
100
AcDbEntity
  8
0
 62
     7
100
AcDbVertex
100
AcDb2dVertex
 10
90.86376434668794
 20
143.4325110354253
 30
0.0
  0
VERTEX
  5
10B
330
108
100
AcDbEntity
  8
0
 62
     7
100
AcDbVertex
100
AcDb2dVertex
 10
86.47849941057851
 20
143.4325110354253
 30
0.0
  0
VERTEX
  5
10C
330
108
100
AcDbEntity
  8
0
 62
     7
100
AcDbVertex
100
AcDb2dVertex
 10
86.47849941057851
 20
142.6060320832903
 30
0.0
  0
SEQEND
  5
10D
330
108
100
AcDbEntity
  8
0
  0
POLYLINE
  5
10E
330
1F
100
AcDbEntity
  8
0
 62
     7
100
AcDb2dPolyline
 66
     1
 10
0.0
 20
0.0
 30
0.0
  0
VERTEX
  5
10F
330
10E
100
AcDbEntity
  8
0
 62
     7
100
AcDbVertex
100
AcDb2dVertex
 10
91.85612475586881
 20
135.3034583657389
 30
0.0
  0
VERTEX
  5
110
330
10E
100
AcDbEntity
  8
0
 62
     7
100
AcDbVertex
100
AcDb2dVertex
 10
85.48544998184605
 20
135.3034583657389
 30
0.0
  0
SEQEND
  5
111
330
10E
100
AcDbEntity
  8
0
  0
POLYLINE
  5
112
330
1F
100
AcDbEntity
  8
0
 62
     7
100
AcDb2dPolyline
 66
     1
 10
0.0
 20
0.0
 30
0.0
  0
VERTEX
  5
113
330
112
100
AcDbEntity
  8
0
 62
     7
100
AcDbVertex
100
AcDb2dVertex
 10
91.85612475586881
 20
136.6577262943937
 30
0.0
  0
VERTEX
  5
114
330
112
100
AcDbEntity
  8
0
 62
     7
100
AcDbVertex
100
AcDb2dVertex
 10
85.48544998184605
 20
136.6577262943937
 30
0.0
  0
SEQEND
  5
115
330
112
100
AcDbEntity
  8
0
  0
POLYLINE
  5
116
330
1F
100
AcDbEntity
  8
0
 62
     7
100
AcDb2dPolyline
 66
     1
 10
0.0
 20
0.0
 30
0.0
  0
VERTEX
  5
117
330
116
100
AcDbEntity
  8
0
 62
     7
100
AcDbVertex
100
AcDb2dVertex
 10
86.47849941057851
 20
136.6584153139453
 30
0.0
  0
VERTEX
  5
118
330
116
100
AcDbEntity
  8
0
 62
     7
100
AcDbVertex
100
AcDb2dVertex
 10
86.47849941057851
 20
136.1120228095326
 30
0.0
  0
VERTEX
  5
119
330
116
100
AcDbEntity
  8
0
 62
     7
100
AcDbVertex
100
AcDb2dVertex
 10
90.86376434668794
 20
136.1120228095326
 30
0.0
  0
VERTEX
  5
11A
330
116
100
AcDbEntity
  8
0
 62
     7
100
AcDbVertex
100
AcDb2dVertex
 10
90.86376434668794
 20
136.5833121828217
 30
0.0
  0
SEQEND
  5
11B
330
116
100
AcDbEntity
  8
0
  0
SPLINE
  5
11C
330
1F
100
AcDbEntity
  8
0
 62
     7
100
AcDbSpline
210
0.0
220
0.0
230
1.0
 70
    11
 71
     3
 72
    23
 73
    19
 74
     0
 42
0.0000000001
 43
0.0000000001
 40
0.0
 40
0.0
 40
0.0
 40
0.0
 40
1.0
 40
1.0
 40
1.0
 40
2.0
 40
2.0
 40
2.0
 40
3.0
 40
3.0
 40
3.0
 40
4.0
 40
4.0
 40
4.0
 40
5.0
 40
5.0
 40
5.0
 40
6.0
 40
6.0
 40
6.0
 40
6.0
 10
91.55622899603824
 20
139.5932940939528
 30
0.0
 10
91.55622899603824
 20
141.2145570988496
 30
0.0
 10
90.24778086756439
 20
142.528861893512
 30
0.0
 10
88.63375256795933
 20
142.528861893512
 30
0.0
 10
87.0197242683543
 20
142.528861893512
 30
0.0
 10
85.71127613988044
 20
141.2145570988496
 30
0.0
 10
85.71127613988044
 20
139.5932940939528
 30
0.0
 10
85.71127613988044
 20
137.9723755988319
 30
0.0
 10
87.0197242683543
 20
136.6580708041695
 30
0.0
 10
88.63375256795933
 20
136.6580708041695
 30
0.0
 10
90.24778086756439
 20
136.6580708041695
 30
0.0
 10
91.55622899603824
 20
137.9723755988319
 30
0.0
 10
91.55622899603824
 20
139.5932940939528
 30
0.0
 10
91.55622899603824
 20
139.5932940939528
 30
0.0
 10
91.55622899603824
 20
139.5932940939528
 30
0.0
 10
91.55622899603824
 20
139.5932940939528
 30
0.0
 10
91.55622899603824
 20
139.5932940939528
 30
0.0
 10
91.55622899603824
 20
139.5932940939528
 30
0.0
 10
91.55622899603824
 20
139.5932940939528
 30
0.0
  0
POLYLINE
  5
11D
330
1F
100
AcDbEntity
  8
0
 62
     7
100
AcDb2dPolyline
 66
     1
 10
0.0
 20
0.0
 30
0.0
  0
VERTEX
  5
11E
330
11D
100
AcDbEntity
  8
0
 62
     7
100
AcDbVertex
100
AcDb2dVertex
 10
87.40833129545237
 20
140.7122618457388
 30
0.0
  0
VERTEX
  5
11F
330
11D
100
AcDbEntity
  8
0
 62
     7
100
AcDbVertex
100
AcDb2dVertex
 10
89.63403670198352
 20
138.4753598714943
 30
0.0
  0
SEQEND
  5
120
330
11D
100
AcDbEntity
  8
0
  0
POLYLINE
  5
121
330
1F
100
AcDbEntity
  8
0
 62
     7
100
AcDb2dPolyline
 66
     1
 10
0.0
 20
0.0
 30
0.0
  0
VERTEX
  5
122
330
121
100
AcDbEntity
  8
0
 62
     7
100
AcDbVertex
100
AcDb2dVertex
 10
90.0577837262128
 20
141.1366978895197
 30
0.0
  0
VERTEX
  5
123
330
121
100
AcDbEntity
  8
0
 62
     7
100
AcDbVertex
100
AcDb2dVertex
 10
86.98423976144728
 20
138.0495457886102
 30
0.0
  0
SEQEND
  5
124
330
121
100
AcDbEntity
  8
0
  0
POLYLINE
  5
125
330
1F
100
AcDbEntity
  8
0
 62
     7
100
AcDb2dPolyline
 66
     1
 10
0.0
 20
0.0
 30
0.0
  0
VERTEX
  5
126
330
125
100
AcDbEntity
  8
0
 62
     7
100
AcDbVertex
100
AcDb2dVertex
 10
88.10854741475808
 20
134.0232600388804
 30
0.0
  0
VERTEX
  5
127
330
125
100
AcDbEntity
  8
0
 62
     7
100
AcDbVertex
100
AcDb2dVertex
 10
88.10854741475808
 20
135.3034583657389
 30
0.0
  0
SEQEND
  5
128
330
125
100
AcDbEntity
  8
0
  0
POLYLINE
  5
129
330
1F
100
AcDbEntity
  8
0
 62
     7
100
AcDb2dPolyline
 66
     1
 10
0.0
 20
0.0
 30
0.0
  0
VERTEX
  5
12A
330
129
100
AcDbEntity
  8
0
 62
     7
100
AcDbVertex
100
AcDb2dVertex
 10
88.93330381801411
 20
134.0232600388804
 30
0.0
  0
VERTEX
  5
12B
330
129
100
AcDbEntity
  8
0
 62
     7
100
AcDbVertex
100
AcDb2dVertex
 10
88.93330381801411
 20
135.3034583657389
 30
0.0
  0
SEQEND
  5
12C
330
129
100
AcDbEntity
  8
0
  0
POLYLINE
  5
12D
330
1F
100
AcDbEntity
  8
0
 62
     7
100
AcDb2dPolyline
 66
     1
 10
0.0
 20
0.0
 30
0.0
  0
VERTEX
  5
12E
330
12D
100
AcDbEntity
  8
0
 62
     7
100
AcDbVertex
100
AcDb2dVertex
 10
77.64130689674309
 20
133.9488459273084
 30
0.0
  0
VERTEX
  5
12F
330
12D
100
AcDbEntity
  8
0
 62
     7
100
AcDbVertex
100
AcDb2dVertex
 10
84.01163716099003
 20
133.9488459273084
 30
0.0
  0
VERTEX
  5
130
330
12D
100
AcDbEntity
  8
0
 62
     7
100
AcDbVertex
100
AcDb2dVertex
 10
84.01163716099003
 20
143.8851968808215
 30
0.0
  0
VERTEX
  5
131
330
12D
100
AcDbEntity
  8
0
 62
     7
100
AcDbVertex
100
AcDb2dVertex
 10
77.64061787719149
 20
143.8851968808215
 30
0.0
  0
VERTEX
  5
132
330
12D
100
AcDbEntity
  8
0
 62
     7
100
AcDbVertex
100
AcDb2dVertex
 10
77.64130689674309
 20
133.9488459273084
 30
0.0
  0
SEQEND
  5
133
330
12D
100
AcDbEntity
  8
0
  0
POLYLINE
  5
134
330
1F
100
AcDbEntity
  8
0
 62
     7
100
AcDb2dPolyline
 66
     1
 10
0.0
 20
0.0
 30
0.0
  0
VERTEX
  5
135
330
134
100
AcDbEntity
  8
0
 62
     7
100
AcDbVertex
100
AcDb2dVertex
 10
77.64061787719149
 20
142.5298954228394
 30
0.0
  0
VERTEX
  5
136
330
134
100
AcDbEntity
  8
0
 62
     7
100
AcDbVertex
100
AcDb2dVertex
 10
84.01163716099003
 20
142.5298954228394
 30
0.0
  0
SEQEND
  5
137
330
134
100
AcDbEntity
  8
0
  0
POLYLINE
  5
138
330
1F
100
AcDbEntity
  8
0
 62
     7
100
AcDb2dPolyline
 66
     1
 10
0.0
 20
0.0
 30
0.0
  0
VERTEX
  5
139
330
138
100
AcDbEntity
  8
0
 62
     7
100
AcDbVertex
100
AcDb2dVertex
 10
83.01875998714549
 20
142.5298954228394
 30
0.0
  0
VERTEX
  5
13A
330
138
100
AcDbEntity
  8
0
 62
     7
100
AcDbVertex
100
AcDb2dVertex
 10
83.01875998714549
 20
143.4325110354253
 30
0.0
  0
VERTEX
  5
13B
330
138
100
AcDbEntity
  8
0
 62
     7
100
AcDbVertex
100
AcDb2dVertex
 10
78.63504534502714
 20
143.4325110354253
 30
0.0
  0
VERTEX
  5
13C
330
138
100
AcDbEntity
  8
0
 62
     7
100
AcDbVertex
100
AcDb2dVertex
 10
78.63504534502714
 20
142.6060320832903
 30
0.0
  0
SEQEND
  5
13D
330
138
100
AcDbEntity
  8
0
  0
POLYLINE
  5
13E
330
1F
100
AcDbEntity
  8
0
 62
     7
100
AcDb2dPolyline
 66
     1
 10
0.0
 20
0.0
 30
0.0
  0
VERTEX
  5
13F
330
13E
100
AcDbEntity
  8
0
 62
     7
100
AcDbVertex
100
AcDb2dVertex
 10
84.01163716099003
 20
135.3034583657389
 30
0.0
  0
VERTEX
  5
140
330
13E
100
AcDbEntity
  8
0
 62
     7
100
AcDbVertex
100
AcDb2dVertex
 10
77.64130689674309
 20
135.3034583657389
 30
0.0
  0
SEQEND
  5
141
330
13E
100
AcDbEntity
  8
0
  0
POLYLINE
  5
142
330
1F
100
AcDbEntity
  8
0
 62
     7
100
AcDb2dPolyline
 66
     1
 10
0.0
 20
0.0
 30
0.0
  0
VERTEX
  5
143
330
142
100
AcDbEntity
  8
0
 62
     7
100
AcDbVertex
100
AcDb2dVertex
 10
84.01163716099003
 20
136.6577262943937
 30
0.0
  0
VERTEX
  5
144
330
142
100
AcDbEntity
  8
0
 62
     7
100
AcDbVertex
100
AcDb2dVertex
 10
77.64130689674309
 20
136.6577262943937
 30
0.0
  0
SEQEND
  5
145
330
142
100
AcDbEntity
  8
0
  0
POLYLINE
  5
146
330
1F
100
AcDbEntity
  8
0
 62
     7
100
AcDb2dPolyline
 66
     1
 10
0.0
 20
0.0
 30
0.0
  0
VERTEX
  5
147
330
146
100
AcDbEntity
  8
0
 62
     7
100
AcDbVertex
100
AcDb2dVertex
 10
78.63504534502714
 20
136.6584153139453
 30
0.0
  0
VERTEX
  5
148
330
146
100
AcDbEntity
  8
0
 62
     7
100
AcDbVertex
100
AcDb2dVertex
 10
78.63504534502714
 20
136.1120228095326
 30
0.0
  0
VERTEX
  5
149
330
146
100
AcDbEntity
  8
0
 62
     7
100
AcDbVertex
100
AcDb2dVertex
 10
83.01875998714549
 20
136.1120228095326
 30
0.0
  0
VERTEX
  5
14A
330
146
100
AcDbEntity
  8
0
 62
     7
100
AcDbVertex
100
AcDb2dVertex
 10
83.01875998714549
 20
136.5833121828217
 30
0.0
  0
SEQEND
  5
14B
330
146
100
AcDbEntity
  8
0
  0
SPLINE
  5
14C
330
1F
100
AcDbEntity
  8
0
 62
     7
100
AcDbSpline
210
0.0
220
0.0
230
1.0
 70
    11
 71
     3
 72
    23
 73
    19
 74
     0
 42
0.0000000001
 43
0.0000000001
 40
0.0
 40
0.0
 40
0.0
 40
0.0
 40
1.0
 40
1.0
 40
1.0
 40
2.0
 40
2.0
 40
2.0
 40
3.0
 40
3.0
 40
3.0
 40
4.0
 40
4.0
 40
4.0
 40
5.0
 40
5.0
 40
5.0
 40
6.0
 40
6.0
 40
6.0
 40
6.0
 10
83.71208591093527
 20
139.5932940939528
 30
0.0
 10
83.71208591093527
 20
141.2149016086254
 30
0.0
 10
82.40329327268563
 20
142.5295509130636
 30
0.0
 10
80.78892046330478
 20
142.5295509130636
 30
0.0
 10
79.17454765392394
 20
142.5295509130636
 30
0.0
 10
77.86592727056218
 20
141.2149016086254
 30
0.0
 10
77.86592727056218
 20
139.5932940939528
 30
0.0
 10
77.86592727056218
 20
137.9720310890561
 30
0.0
 10
79.17454765392394
 20
136.6573817846179
 30
0.0
 10
80.78892046330478
 20
136.6573817846179
 30
0.0
 10
82.40329327268563
 20
136.6573817846179
 30
0.0
 10
83.71208591093527
 20
137.9720310890561
 30
0.0
 10
83.71208591093527
 20
139.5932940939528
 30
0.0
 10
83.71208591093527
 20
139.5932940939528
 30
0.0
 10
83.71208591093527
 20
139.5932940939528
 30
0.0
 10
83.71208591093527
 20
139.5932940939528
 30
0.0
 10
83.71208591093527
 20
139.5932940939528
 30
0.0
 10
83.71208591093527
 20
139.5932940939528
 30
0.0
 10
83.71208591093527
 20
139.5932940939528
 30
0.0
  0
POLYLINE
  5
14D
330
1F
100
AcDbEntity
  8
0
 62
     7
100
AcDb2dPolyline
 66
     1
 10
0.0
 20
0.0
 30
0.0
  0
VERTEX
  5
14E
330
14D
100
AcDbEntity
  8
0
 62
     7
100
AcDbVertex
100
AcDb2dVertex
 10
79.56332693590991
 20
140.7122618457388
 30
0.0
  0
VERTEX
  5
14F
330
14D
100
AcDbEntity
  8
0
 62
     7
100
AcDbVertex
100
AcDb2dVertex
 10
81.78954910710475
 20
138.4753598714943
 30
0.0
  0
SEQEND
  5
150
330
14D
100
AcDbEntity
  8
0
  0
POLYLINE
  5
151
330
1F
100
AcDbEntity
  8
0
 62
     7
100
AcDb2dPolyline
 66
     1
 10
0.0
 20
0.0
 30
0.0
  0
VERTEX
  5
152
330
151
100
AcDbEntity
  8
0
 62
     7
100
AcDbVertex
100
AcDb2dVertex
 10
82.21329613133403
 20
141.1366978895197
 30
0.0
  0
VERTEX
  5
153
330
151
100
AcDbEntity
  8
0
 62
     7
100
AcDbVertex
100
AcDb2dVertex
 10
79.13992442145641
 20
138.0495457886102
 30
0.0
  0
SEQEND
  5
154
330
151
100
AcDbEntity
  8
0
  0
POLYLINE
  5
155
330
1F
100
AcDbEntity
  8
0
 62
     7
100
AcDb2dPolyline
 66
     1
 10
0.0
 20
0.0
 30
0.0
  0
VERTEX
  5
156
330
155
100
AcDbEntity
  8
0
 62
     7
100
AcDbVertex
100
AcDb2dVertex
 10
80.26474883943091
 20
134.0232600388804
 30
0.0
  0
VERTEX
  5
157
330
155
100
AcDbEntity
  8
0
 62
     7
100
AcDbVertex
100
AcDb2dVertex
 10
80.26474883943091
 20
135.3034583657389
 30
0.0
  0
SEQEND
  5
158
330
155
100
AcDbEntity
  8
0
  0
POLYLINE
  5
159
330
1F
100
AcDbEntity
  8
0
 62
     7
100
AcDb2dPolyline
 66
     1
 10
0.0
 20
0.0
 30
0.0
  0
VERTEX
  5
15A
330
159
100
AcDbEntity
  8
0
 62
     7
100
AcDbVertex
100
AcDb2dVertex
 10
81.08967749757484
 20
134.0232600388804
 30
0.0
  0
VERTEX
  5
15B
330
159
100
AcDbEntity
  8
0
 62
     7
100
AcDbVertex
100
AcDb2dVertex
 10
81.08967749757484
 20
135.3034583657389
 30
0.0
  0
SEQEND
  5
15C
330
159
100
AcDbEntity
  8
0
  0
POLYLINE
  5
15D
330
1F
100
AcDbEntity
  8
0
 62
     7
100
AcDb2dPolyline
 66
     1
 10
0.0
 20
0.0
 30
0.0
  0
VERTEX
  5
15E
330
15D
100
AcDbEntity
  8
0
 62
     7
100
AcDbVertex
100
AcDb2dVertex
 10
69.79664704697642
 20
133.9488459273084
 30
0.0
  0
VERTEX
  5
15F
330
15D
100
AcDbEntity
  8
0
 62
     7
100
AcDbVertex
100
AcDb2dVertex
 10
76.16766633077496
 20
133.9488459273084
 30
0.0
  0
VERTEX
  5
160
330
15D
100
AcDbEntity
  8
0
 62
     7
100
AcDbVertex
100
AcDb2dVertex
 10
76.16766633077496
 20
143.8851968808215
 30
0.0
  0
VERTEX
  5
161
330
15D
100
AcDbEntity
  8
0
 62
     7
100
AcDbVertex
100
AcDb2dVertex
 10
69.79664704697642
 20
143.8851968808215
 30
0.0
  0
VERTEX
  5
162
330
15D
100
AcDbEntity
  8
0
 62
     7
100
AcDbVertex
100
AcDb2dVertex
 10
69.79664704697642
 20
133.9488459273084
 30
0.0
  0
SEQEND
  5
163
330
15D
100
AcDbEntity
  8
0
  0
POLYLINE
  5
164
330
1F
100
AcDbEntity
  8
0
 62
     7
100
AcDb2dPolyline
 66
     1
 10
0.0
 20
0.0
 30
0.0
  0
VERTEX
  5
165
330
164
100
AcDbEntity
  8
0
 62
     7
100
AcDbVertex
100
AcDb2dVertex
 10
69.79664704697642
 20
142.5298954228394
 30
0.0
  0
VERTEX
  5
166
330
164
100
AcDbEntity
  8
0
 62
     7
100
AcDbVertex
100
AcDb2dVertex
 10
76.16749407588708
 20
142.5298954228394
 30
0.0
  0
SEQEND
  5
167
330
164
100
AcDbEntity
  8
0
  0
POLYLINE
  5
168
330
1F
100
AcDbEntity
  8
0
 62
     7
100
AcDb2dPolyline
 66
     1
 10
0.0
 20
0.0
 30
0.0
  0
VERTEX
  5
169
330
168
100
AcDbEntity
  8
0
 62
     7
100
AcDbVertex
100
AcDb2dVertex
 10
75.17478915693042
 20
142.5298954228394
 30
0.0
  0
VERTEX
  5
16A
330
168
100
AcDbEntity
  8
0
 62
     7
100
AcDbVertex
100
AcDb2dVertex
 10
75.17478915693042
 20
143.4325110354253
 30
0.0
  0
VERTEX
  5
16B
330
168
100
AcDbEntity
  8
0
 62
     7
100
AcDbVertex
100
AcDb2dVertex
 10
70.78935196593308
 20
143.4325110354253
 30
0.0
  0
VERTEX
  5
16C
330
168
100
AcDbEntity
  8
0
 62
     7
100
AcDbVertex
100
AcDb2dVertex
 10
70.78935196593308
 20
142.6060320832903
 30
0.0
  0
SEQEND
  5
16D
330
168
100
AcDbEntity
  8
0
  0
POLYLINE
  5
16E
330
1F
100
AcDbEntity
  8
0
 62
     7
100
AcDb2dPolyline
 66
     1
 10
0.0
 20
0.0
 30
0.0
  0
VERTEX
  5
16F
330
16E
100
AcDbEntity
  8
0
 62
     7
100
AcDbVertex
100
AcDb2dVertex
 10
76.16749407588708
 20
135.3034583657389
 30
0.0
  0
VERTEX
  5
170
330
16E
100
AcDbEntity
  8
0
 62
     7
100
AcDbVertex
100
AcDb2dVertex
 10
69.79664704697642
 20
135.3034583657389
 30
0.0
  0
SEQEND
  5
171
330
16E
100
AcDbEntity
  8
0
  0
POLYLINE
  5
172
330
1F
100
AcDbEntity
  8
0
 62
     7
100
AcDb2dPolyline
 66
     1
 10
0.0
 20
0.0
 30
0.0
  0
VERTEX
  5
173
330
172
100
AcDbEntity
  8
0
 62
     7
100
AcDbVertex
100
AcDb2dVertex
 10
76.16749407588708
 20
136.6577262943937
 30
0.0
  0
VERTEX
  5
174
330
172
100
AcDbEntity
  8
0
 62
     7
100
AcDbVertex
100
AcDb2dVertex
 10
69.79664704697642
 20
136.6577262943937
 30
0.0
  0
SEQEND
  5
175
330
172
100
AcDbEntity
  8
0
  0
POLYLINE
  5
176
330
1F
100
AcDbEntity
  8
0
 62
     7
100
AcDb2dPolyline
 66
     1
 10
0.0
 20
0.0
 30
0.0
  0
VERTEX
  5
177
330
176
100
AcDbEntity
  8
0
 62
     7
100
AcDbVertex
100
AcDb2dVertex
 10
70.78935196593308
 20
136.6584153139453
 30
0.0
  0
VERTEX
  5
178
330
176
100
AcDbEntity
  8
0
 62
     7
100
AcDbVertex
100
AcDb2dVertex
 10
70.78935196593308
 20
136.1120228095326
 30
0.0
  0
VERTEX
  5
179
330
176
100
AcDbEntity
  8
0
 62
     7
100
AcDbVertex
100
AcDb2dVertex
 10
75.17478915693042
 20
136.1120228095326
 30
0.0
  0
VERTEX
  5
17A
330
176
100
AcDbEntity
  8
0
 62
     7
100
AcDbVertex
100
AcDb2dVertex
 10
75.17478915693042
 20
136.5833121828217
 30
0.0
  0
SEQEND
  5
17B
330
176
100
AcDbEntity
  8
0
  0
SPLINE
  5
17C
330
1F
100
AcDbEntity
  8
0
 62
     7
100
AcDbSpline
210
0.0
220
0.0
230
1.0
 70
    11
 71
     3
 72
    23
 73
    19
 74
     0
 42
0.0000000001
 43
0.0000000001
 40
0.0
 40
0.0
 40
0.0
 40
0.0
 40
1.0
 40
1.0
 40
1.0
 40
2.0
 40
2.0
 40
2.0
 40
3.0
 40
3.0
 40
3.0
 40
4.0
 40
4.0
 40
4.0
 40
5.0
 40
5.0
 40
5.0
 40
6.0
 40
6.0
 40
6.0
 40
6.0
 10
75.86708155139282
 20
139.5932940939528
 30
0.0
 10
75.86708155139282
 20
141.2145570988496
 30
0.0
 10
74.55846116803106
 20
142.5292064032878
 30
0.0
 10
72.94426061353812
 20
142.5292064032878
 30
0.0
 10
71.33023231393307
 20
142.5292064032878
 30
0.0
 10
70.02161193057133
 20
141.2145570988496
 30
0.0
 10
70.02161193057133
 20
139.5932940939528
 30
0.0
 10
70.02161193057133
 20
137.9720310890561
 30
0.0
 10
71.33023231393307
 20
136.6577262943937
 30
0.0
 10
72.94426061353812
 20
136.6577262943937
 30
0.0
 10
74.55846116803106
 20
136.6577262943937
 30
0.0
 10
75.86708155139282
 20
137.9720310890561
 30
0.0
 10
75.86708155139282
 20
139.5932940939528
 30
0.0
 10
75.86708155139282
 20
139.5932940939528
 30
0.0
 10
75.86708155139282
 20
139.5932940939528
 30
0.0
 10
75.86708155139282
 20
139.5932940939528
 30
0.0
 10
75.86708155139282
 20
139.5932940939528
 30
0.0
 10
75.86708155139282
 20
139.5932940939528
 30
0.0
 10
75.86708155139282
 20
139.5932940939528
 30
0.0
  0
POLYLINE
  5
17D
330
1F
100
AcDbEntity
  8
0
 62
     7
100
AcDb2dPolyline
 66
     1
 10
0.0
 20
0.0
 30
0.0
  0
VERTEX
  5
17E
330
17D
100
AcDbEntity
  8
0
 62
     7
100
AcDbVertex
100
AcDb2dVertex
 10
71.71935610569484
 20
140.7122618457388
 30
0.0
  0
VERTEX
  5
17F
330
17D
100
AcDbEntity
  8
0
 62
     7
100
AcDbVertex
100
AcDb2dVertex
 10
73.94523376711389
 20
138.4753598714943
 30
0.0
  0
SEQEND
  5
180
330
17D
100
AcDbEntity
  8
0
  0
POLYLINE
  5
181
330
1F
100
AcDbEntity
  8
0
 62
     7
100
AcDb2dPolyline
 66
     1
 10
0.0
 20
0.0
 30
0.0
  0
VERTEX
  5
182
330
181
100
AcDbEntity
  8
0
 62
     7
100
AcDbVertex
100
AcDb2dVertex
 10
74.36932530111896
 20
141.1366978895197
 30
0.0
  0
VERTEX
  5
183
330
181
100
AcDbEntity
  8
0
 62
     7
100
AcDbVertex
100
AcDb2dVertex
 10
71.29457555213816
 20
138.0495457886102
 30
0.0
  0
SEQEND
  5
184
330
181
100
AcDbEntity
  8
0
  0
POLYLINE
  5
185
330
1F
100
AcDbEntity
  8
0
 62
     7
100
AcDb2dPolyline
 66
     1
 10
0.0
 20
0.0
 30
0.0
  0
VERTEX
  5
186
330
185
100
AcDbEntity
  8
0
 62
     7
100
AcDbVertex
100
AcDb2dVertex
 10
72.41991673477635
 20
134.0232600388804
 30
0.0
  0
VERTEX
  5
187
330
185
100
AcDbEntity
  8
0
 62
     7
100
AcDbVertex
100
AcDb2dVertex
 10
72.41991673477635
 20
135.3034583657389
 30
0.0
  0
SEQEND
  5
188
330
185
100
AcDbEntity
  8
0
  0
POLYLINE
  5
189
330
1F
100
AcDbEntity
  8
0
 62
     7
100
AcDb2dPolyline
 66
     1
 10
0.0
 20
0.0
 30
0.0
  0
VERTEX
  5
18A
330
189
100
AcDbEntity
  8
0
 62
     7
100
AcDbVertex
100
AcDb2dVertex
 10
73.24398411848078
 20
134.0232600388804
 30
0.0
  0
VERTEX
  5
18B
330
189
100
AcDbEntity
  8
0
 62
     7
100
AcDbVertex
100
AcDb2dVertex
 10
73.24398411848078
 20
135.3034583657389
 30
0.0
  0
SEQEND
  5
18C
330
189
100
AcDbEntity
  8
0
  0
POLYLINE
  5
18D
330
1F
100
AcDbEntity
  8
0
 62
     7
100
AcDb2dPolyline
 66
     1
 10
0.0
 20
0.0
 30
0.0
  0
VERTEX
  5
18E
330
18D
100
AcDbEntity
  8
0
 62
     7
100
AcDbVertex
100
AcDb2dVertex
 10
61.95284847164925
 20
133.9488459273084
 30
0.0
  0
VERTEX
  5
18F
330
18D
100
AcDbEntity
  8
0
 62
     7
100
AcDbVertex
100
AcDb2dVertex
 10
68.32352324567201
 20
133.9488459273084
 30
0.0
  0
VERTEX
  5
190
330
18D
100
AcDbEntity
  8
0
 62
     7
100
AcDbVertex
100
AcDb2dVertex
 10
68.32352324567201
 20
143.8851968808215
 30
0.0
  0
VERTEX
  5
191
330
18D
100
AcDbEntity
  8
0
 62
     7
100
AcDbVertex
100
AcDb2dVertex
 10
61.95284847164925
 20
143.8851968808215
 30
0.0
  0
VERTEX
  5
192
330
18D
100
AcDbEntity
  8
0
 62
     7
100
AcDbVertex
100
AcDb2dVertex
 10
61.95284847164925
 20
133.9488459273084
 30
0.0
  0
SEQEND
  5
193
330
18D
100
AcDbEntity
  8
0
  0
POLYLINE
  5
194
330
1F
100
AcDbEntity
  8
0
 62
     7
100
AcDb2dPolyline
 66
     1
 10
0.0
 20
0.0
 30
0.0
  0
VERTEX
  5
195
330
194
100
AcDbEntity
  8
0
 62
     7
100
AcDbVertex
100
AcDb2dVertex
 10
61.95284847164925
 20
142.5298954228394
 30
0.0
  0
VERTEX
  5
196
330
194
100
AcDbEntity
  8
0
 62
     7
100
AcDbVertex
100
AcDb2dVertex
 10
68.32352324567201
 20
142.5298954228394
 30
0.0
  0
SEQEND
  5
197
330
194
100
AcDbEntity
  8
0
  0
POLYLINE
  5
198
330
1F
100
AcDbEntity
  8
0
 62
     7
100
AcDb2dPolyline
 66
     1
 10
0.0
 20
0.0
 30
0.0
  0
VERTEX
  5
199
330
198
100
AcDbEntity
  8
0
 62
     7
100
AcDbVertex
100
AcDb2dVertex
 10
67.32995705227584
 20
142.5298954228394
 30
0.0
  0
VERTEX
  5
19A
330
198
100
AcDbEntity
  8
0
 62
     7
100
AcDbVertex
100
AcDb2dVertex
 10
67.32995705227584
 20
143.4325110354253
 30
0.0
  0
VERTEX
  5
19B
330
198
100
AcDbEntity
  8
0
 62
     7
100
AcDbVertex
100
AcDb2dVertex
 10
62.94538113571801
 20
143.4325110354253
 30
0.0
  0
VERTEX
  5
19C
330
198
100
AcDbEntity
  8
0
 62
     7
100
AcDbVertex
100
AcDb2dVertex
 10
62.94538113571801
 20
142.6060320832903
 30
0.0
  0
SEQEND
  5
19D
330
198
100
AcDbEntity
  8
0
  0
POLYLINE
  5
19E
330
1F
100
AcDbEntity
  8
0
 62
     7
100
AcDb2dPolyline
 66
     1
 10
0.0
 20
0.0
 30
0.0
  0
VERTEX
  5
19F
330
19E
100
AcDbEntity
  8
0
 62
     7
100
AcDbVertex
100
AcDb2dVertex
 10
68.32352324567201
 20
135.3034583657389
 30
0.0
  0
VERTEX
  5
1A0
330
19E
100
AcDbEntity
  8
0
 62
     7
100
AcDbVertex
100
AcDb2dVertex
 10
61.95284847164925
 20
135.3034583657389
 30
0.0
  0
SEQEND
  5
1A1
330
19E
100
AcDbEntity
  8
0
  0
POLYLINE
  5
1A2
330
1F
100
AcDbEntity
  8
0
 62
     7
100
AcDb2dPolyline
 66
     1
 10
0.0
 20
0.0
 30
0.0
  0
VERTEX
  5
1A3
330
1A2
100
AcDbEntity
  8
0
 62
     7
100
AcDbVertex
100
AcDb2dVertex
 10
68.32352324567201
 20
136.6577262943937
 30
0.0
  0
VERTEX
  5
1A4
330
1A2
100
AcDbEntity
  8
0
 62
     7
100
AcDbVertex
100
AcDb2dVertex
 10
61.95284847164925
 20
136.6577262943937
 30
0.0
  0
SEQEND
  5
1A5
330
1A2
100
AcDbEntity
  8
0
  0
POLYLINE
  5
1A6
330
1F
100
AcDbEntity
  8
0
 62
     7
100
AcDb2dPolyline
 66
     1
 10
0.0
 20
0.0
 30
0.0
  0
VERTEX
  5
1A7
330
1A6
100
AcDbEntity
  8
0
 62
     7
100
AcDbVertex
100
AcDb2dVertex
 10
62.94538113571801
 20
136.6584153139453
 30
0.0
  0
VERTEX
  5
1A8
330
1A6
100
AcDbEntity
  8
0
 62
     7
100
AcDbVertex
100
AcDb2dVertex
 10
62.94538113571801
 20
136.1120228095326
 30
0.0
  0
VERTEX
  5
1A9
330
1A6
100
AcDbEntity
  8
0
 62
     7
100
AcDbVertex
100
AcDb2dVertex
 10
67.32995705227584
 20
136.1120228095326
 30
0.0
  0
VERTEX
  5
1AA
330
1A6
100
AcDbEntity
  8
0
 62
     7
100
AcDbVertex
100
AcDb2dVertex
 10
67.32995705227584
 20
136.5833121828217
 30
0.0
  0
SEQEND
  5
1AB
330
1A6
100
AcDbEntity
  8
0
  0
SPLINE
  5
1AC
330
1F
100
AcDbEntity
  8
0
 62
     7
100
AcDbSpline
210
0.0
220
0.0
230
1.0
 70
    11
 71
     3
 72
    23
 73
    19
 74
     0
 42
0.0000000001
 43
0.0000000001
 40
0.0
 40
0.0
 40
0.0
 40
0.0
 40
1.0
 40
1.0
 40
1.0
 40
2.0
 40
2.0
 40
2.0
 40
3.0
 40
3.0
 40
3.0
 40
4.0
 40
4.0
 40
4.0
 40
5.0
 40
5.0
 40
5.0
 40
6.0
 40
6.0
 40
6.0
 40
6.0
 10
68.02293846628984
 20
139.5932940939528
 30
0.0
 10
68.02293846628984
 20
141.2145570988496
 30
0.0
 10
66.71466259270389
 20
142.5285173837362
 30
0.0
 10
65.10063429309884
 20
142.5285173837362
 30
0.0
 10
63.48677824838169
 20
142.5285173837362
 30
0.0
 10
62.17833011990784
 20
141.2145570988496
 30
0.0
 10
62.17833011990784
 20
139.5932940939528
 30
0.0
 10
62.17833011990784
 20
137.9723755988319
 30
0.0
 10
63.48677824838169
 20
136.6580708041695
 30
0.0
 10
65.10063429309884
 20
136.6580708041695
 30
0.0
 10
66.71466259270389
 20
136.6580708041695
 30
0.0
 10
68.02293846628984
 20
137.9723755988319
 30
0.0
 10
68.02293846628984
 20
139.5932940939528
 30
0.0
 10
68.02293846628984
 20
139.5932940939528
 30
0.0
 10
68.02293846628984
 20
139.5932940939528
 30
0.0
 10
68.02293846628984
 20
139.5932940939528
 30
0.0
 10
68.02293846628984
 20
139.5932940939528
 30
0.0
 10
68.02293846628984
 20
139.5932940939528
 30
0.0
 10
68.02293846628984
 20
139.5932940939528
 30
0.0
  0
POLYLINE
  5
1AD
330
1F
100
AcDbEntity
  8
0
 62
     7
100
AcDb2dPolyline
 66
     1
 10
0.0
 20
0.0
 30
0.0
  0
VERTEX
  5
1AE
330
1AD
100
AcDbEntity
  8
0
 62
     7
100
AcDbVertex
100
AcDb2dVertex
 10
63.87521302059187
 20
140.7122618457388
 30
0.0
  0
VERTEX
  5
1AF
330
1AD
100
AcDbEntity
  8
0
 62
     7
100
AcDbVertex
100
AcDb2dVertex
 10
66.10160744667461
 20
138.4753598714943
 30
0.0
  0
SEQEND
  5
1B0
330
1AD
100
AcDbEntity
  8
0
  0
POLYLINE
  5
1B1
330
1F
100
AcDbEntity
  8
0
 62
     7
100
AcDb2dPolyline
 66
     1
 10
0.0
 20
0.0
 30
0.0
  0
VERTEX
  5
1B2
330
1B1
100
AcDbEntity
  8
0
 62
     7
100
AcDbVertex
100
AcDb2dVertex
 10
66.52397643180072
 20
141.1366978895197
 30
0.0
  0
VERTEX
  5
1B3
330
1B1
100
AcDbEntity
  8
0
 62
     7
100
AcDbVertex
100
AcDb2dVertex
 10
63.45129374147469
 20
138.0495457886102
 30
0.0
  0
SEQEND
  5
1B4
330
1B1
100
AcDbEntity
  8
0
  0
POLYLINE
  5
1B5
330
1F
100
AcDbEntity
  8
0
 62
     7
100
AcDb2dPolyline
 66
     1
 10
0.0
 20
0.0
 30
0.0
  0
VERTEX
  5
1B6
330
1B5
100
AcDbEntity
  8
0
 62
     7
100
AcDbVertex
100
AcDb2dVertex
 10
64.57542913989758
 20
134.0232600388804
 30
0.0
  0
VERTEX
  5
1B7
330
1B5
100
AcDbEntity
  8
0
 62
     7
100
AcDbVertex
100
AcDb2dVertex
 10
64.57542913989758
 20
135.3034583657389
 30
0.0
  0
SEQEND
  5
1B8
330
1B5
100
AcDbEntity
  8
0
  0
POLYLINE
  5
1B9
330
1F
100
AcDbEntity
  8
0
 62
     7
100
AcDb2dPolyline
 66
     1
 10
0.0
 20
0.0
 30
0.0
  0
VERTEX
  5
1BA
330
1B9
100
AcDbEntity
  8
0
 62
     7
100
AcDbVertex
100
AcDb2dVertex
 10
65.40053005292941
 20
134.0232600388804
 30
0.0
  0
VERTEX
  5
1BB
330
1B9
100
AcDbEntity
  8
0
 62
     7
100
AcDbVertex
100
AcDb2dVertex
 10
65.40053005292941
 20
135.3034583657389
 30
0.0
  0
SEQEND
  5
1BC
330
1B9
100
AcDbEntity
  8
0
  0
POLYLINE
  5
1BD
330
1F
100
AcDbEntity
  8
0
 62
     7
100
AcDb2dPolyline
 66
     1
 10
0.0
 20
0.0
 30
0.0
  0
VERTEX
  5
1BE
330
1BD
100
AcDbEntity
  8
0
 62
     7
100
AcDbVertex
100
AcDb2dVertex
 10
54.10749960233099
 20
133.9488459273084
 30
0.0
  0
VERTEX
  5
1BF
330
1BD
100
AcDbEntity
  8
0
 62
     7
100
AcDbVertex
100
AcDb2dVertex
 10
60.47782986657795
 20
133.9488459273084
 30
0.0
  0
VERTEX
  5
1C0
330
1BD
100
AcDbEntity
  8
0
 62
     7
100
AcDbVertex
100
AcDb2dVertex
 10
60.47782986657795
 20
143.8851968808215
 30
0.0
  0
VERTEX
  5
1C1
330
1BD
100
AcDbEntity
  8
0
 62
     7
100
AcDbVertex
100
AcDb2dVertex
 10
54.10749960233099
 20
143.8851968808215
 30
0.0
  0
VERTEX
  5
1C2
330
1BD
100
AcDbEntity
  8
0
 62
     7
100
AcDbVertex
100
AcDb2dVertex
 10
54.10749960233099
 20
133.9488459273084
 30
0.0
  0
SEQEND
  5
1C3
330
1BD
100
AcDbEntity
  8
0
  0
POLYLINE
  5
1C4
330
1F
100
AcDbEntity
  8
0
 62
     7
100
AcDb2dPolyline
 66
     1
 10
0.0
 20
0.0
 30
0.0
  0
VERTEX
  5
1C5
330
1C4
100
AcDbEntity
  8
0
 62
     7
100
AcDbVertex
100
AcDb2dVertex
 10
54.10749960233099
 20
142.5298954228394
 30
0.0
  0
VERTEX
  5
1C6
330
1C4
100
AcDbEntity
  8
0
 62
     7
100
AcDbVertex
100
AcDb2dVertex
 10
60.47851888612954
 20
142.5298954228394
 30
0.0
  0
SEQEND
  5
1C7
330
1C4
100
AcDbEntity
  8
0
  0
POLYLINE
  5
1C8
330
1F
100
AcDbEntity
  8
0
 62
     7
100
AcDb2dPolyline
 66
     1
 10
0.0
 20
0.0
 30
0.0
  0
VERTEX
  5
1C9
330
1C8
100
AcDbEntity
  8
0
 62
     7
100
AcDbVertex
100
AcDb2dVertex
 10
59.48564171228499
 20
142.5298954228394
 30
0.0
  0
VERTEX
  5
1CA
330
1C8
100
AcDbEntity
  8
0
 62
     7
100
AcDbVertex
100
AcDb2dVertex
 10
59.48564171228499
 20
143.4325110354253
 30
0.0
  0
VERTEX
  5
1CB
330
1C8
100
AcDbEntity
  8
0
 62
     7
100
AcDbVertex
100
AcDb2dVertex
 10
55.10175481527874
 20
143.4325110354253
 30
0.0
  0
VERTEX
  5
1CC
330
1C8
100
AcDbEntity
  8
0
 62
     7
100
AcDbVertex
100
AcDb2dVertex
 10
55.10175481527874
 20
142.6060320832903
 30
0.0
  0
SEQEND
  5
1CD
330
1C8
100
AcDbEntity
  8
0
  0
POLYLINE
  5
1CE
330
1F
100
AcDbEntity
  8
0
 62
     7
100
AcDb2dPolyline
 66
     1
 10
0.0
 20
0.0
 30
0.0
  0
VERTEX
  5
1CF
330
1CE
100
AcDbEntity
  8
0
 62
     7
100
AcDbVertex
100
AcDb2dVertex
 10
60.47851888612954
 20
135.3034583657389
 30
0.0
  0
VERTEX
  5
1D0
330
1CE
100
AcDbEntity
  8
0
 62
     7
100
AcDbVertex
100
AcDb2dVertex
 10
54.10749960233099
 20
135.3034583657389
 30
0.0
  0
SEQEND
  5
1D1
330
1CE
100
AcDbEntity
  8
0
  0
POLYLINE
  5
1D2
330
1F
100
AcDbEntity
  8
0
 62
     7
100
AcDb2dPolyline
 66
     1
 10
0.0
 20
0.0
 30
0.0
  0
VERTEX
  5
1D3
330
1D2
100
AcDbEntity
  8
0
 62
     7
100
AcDbVertex
100
AcDb2dVertex
 10
60.47851888612954
 20
136.6577262943937
 30
0.0
  0
VERTEX
  5
1D4
330
1D2
100
AcDbEntity
  8
0
 62
     7
100
AcDbVertex
100
AcDb2dVertex
 10
54.10749960233099
 20
136.6577262943937
 30
0.0
  0
SEQEND
  5
1D5
330
1D2
100
AcDbEntity
  8
0
  0
POLYLINE
  5
1D6
330
1F
100
AcDbEntity
  8
0
 62
     7
100
AcDb2dPolyline
 66
     1
 10
0.0
 20
0.0
 30
0.0
  0
VERTEX
  5
1D7
330
1D6
100
AcDbEntity
  8
0
 62
     7
100
AcDbVertex
100
AcDb2dVertex
 10
55.10175481527874
 20
136.6584153139453
 30
0.0
  0
VERTEX
  5
1D8
330
1D6
100
AcDbEntity
  8
0
 62
     7
100
AcDbVertex
100
AcDb2dVertex
 10
55.10175481527874
 20
136.1120228095326
 30
0.0
  0
VERTEX
  5
1D9
330
1D6
100
AcDbEntity
  8
0
 62
     7
100
AcDbVertex
100
AcDb2dVertex
 10
59.48564171228499
 20
136.1120228095326
 30
0.0
  0
VERTEX
  5
1DA
330
1D6
100
AcDbEntity
  8
0
 62
     7
100
AcDbVertex
100
AcDb2dVertex
 10
59.48564171228499
 20
136.5833121828217
 30
0.0
  0
SEQEND
  5
1DB
330
1D6
100
AcDbEntity
  8
0
  0
SPLINE
  5
1DC
330
1F
100
AcDbEntity
  8
0
 62
     7
100
AcDbSpline
210
0.0
220
0.0
230
1.0
 70
    11
 71
     3
 72
    23
 73
    19
 74
     0
 42
0.0000000001
 43
0.0000000001
 40
0.0
 40
0.0
 40
0.0
 40
0.0
 40
1.0
 40
1.0
 40
1.0
 40
2.0
 40
2.0
 40
2.0
 40
3.0
 40
3.0
 40
3.0
 40
4.0
 40
4.0
 40
4.0
 40
5.0
 40
5.0
 40
5.0
 40
6.0
 40
6.0
 40
6.0
 40
6.0
 10
60.17827861652318
 20
139.5932940939528
 30
0.0
 10
60.17827861652318
 20
141.2145570988496
 30
0.0
 10
58.86983048804933
 20
142.5292064032878
 30
0.0
 10
57.25562993355638
 20
142.5292064032878
 30
0.0
 10
55.64142937906343
 20
142.5292064032878
 30
0.0
 10
54.33280899570169
 20
141.2145570988496
 30
0.0
 10
54.33280899570169
 20
139.5932940939528
 30
0.0
 10
54.33280899570169
 20
137.9720310890561
 30
0.0
 10
55.64142937906343
 20
136.6577262943937
 30
0.0
 10
57.25562993355638
 20
136.6577262943937
 30
0.0
 10
58.86983048804933
 20
136.6577262943937
 30
0.0
 10
60.17827861652318
 20
137.9720310890561
 30
0.0
 10
60.17827861652318
 20
139.5932940939528
 30
0.0
 10
60.17827861652318
 20
139.5932940939528
 30
0.0
 10
60.17827861652318
 20
139.5932940939528
 30
0.0
 10
60.17827861652318
 20
139.5932940939528
 30
0.0
 10
60.17827861652318
 20
139.5932940939528
 30
0.0
 10
60.17827861652318
 20
139.5932940939528
 30
0.0
 10
60.17827861652318
 20
139.5932940939528
 30
0.0
  0
POLYLINE
  5
1DD
330
1F
100
AcDbEntity
  8
0
 62
     7
100
AcDb2dPolyline
 66
     1
 10
0.0
 20
0.0
 30
0.0
  0
VERTEX
  5
1DE
330
1DD
100
AcDbEntity
  8
0
 62
     7
100
AcDbVertex
100
AcDb2dVertex
 10
56.03003640616151
 20
140.7122618457388
 30
0.0
  0
VERTEX
  5
1DF
330
1DD
100
AcDbEntity
  8
0
 62
     7
100
AcDbVertex
100
AcDb2dVertex
 10
58.25694759690795
 20
138.4753598714943
 30
0.0
  0
SEQEND
  5
1E0
330
1DD
100
AcDbEntity
  8
0
  0
POLYLINE
  5
1E1
330
1F
100
AcDbEntity
  8
0
 62
     7
100
AcDb2dPolyline
 66
     1
 10
0.0
 20
0.0
 30
0.0
  0
VERTEX
  5
1E2
330
1E1
100
AcDbEntity
  8
0
 62
     7
100
AcDbVertex
100
AcDb2dVertex
 10
58.67966109180985
 20
141.1366978895197
 30
0.0
  0
VERTEX
  5
1E3
330
1E1
100
AcDbEntity
  8
0
 62
     7
100
AcDbVertex
100
AcDb2dVertex
 10
55.60594487215643
 20
138.0495457886102
 30
0.0
  0
SEQEND
  5
1E4
330
1E1
100
AcDbEntity
  8
0
  0
POLYLINE
  5
1E5
330
1F
100
AcDbEntity
  8
0
 62
     7
100
AcDb2dPolyline
 66
     1
 10
0.0
 20
0.0
 30
0.0
  0
VERTEX
  5
1E6
330
1E5
100
AcDbEntity
  8
0
 62
     7
100
AcDbVertex
100
AcDb2dVertex
 10
56.73059703524302
 20
134.0232600388804
 30
0.0
  0
VERTEX
  5
1E7
330
1E5
100
AcDbEntity
  8
0
 62
     7
100
AcDbVertex
100
AcDb2dVertex
 10
56.73059703524302
 20
135.3034583657389
 30
0.0
  0
SEQEND
  5
1E8
330
1E5
100
AcDbEntity
  8
0
  0
POLYLINE
  5
1E9
330
1F
100
AcDbEntity
  8
0
 62
     7
100
AcDb2dPolyline
 66
     1
 10
0.0
 20
0.0
 30
0.0
  0
VERTEX
  5
1EA
330
1E9
100
AcDbEntity
  8
0
 62
     7
100
AcDbVertex
100
AcDb2dVertex
 10
57.55535343849905
 20
134.0232600388804
 30
0.0
  0
VERTEX
  5
1EB
330
1E9
100
AcDbEntity
  8
0
 62
     7
100
AcDbVertex
100
AcDb2dVertex
 10
57.55535343849905
 20
135.3034583657389
 30
0.0
  0
SEQEND
  5
1EC
330
1E9
100
AcDbEntity
  8
0
  0
POLYLINE
  5
1ED
330
1F
100
AcDbEntity
  8
0
 62
     7
100
AcDb2dPolyline
 66
     1
 10
0.0
 20
0.0
 30
0.0
  0
VERTEX
  5
1EE
330
1ED
100
AcDbEntity
  8
0
 62
     7
100
AcDbVertex
100
AcDb2dVertex
 10
46.26473455633121
 20
133.9488459273084
 30
0.0
  0
VERTEX
  5
1EF
330
1ED
100
AcDbEntity
  8
0
 62
     7
100
AcDbVertex
100
AcDb2dVertex
 10
52.63403129125078
 20
133.9488459273084
 30
0.0
  0
VERTEX
  5
1F0
330
1ED
100
AcDbEntity
  8
0
 62
     7
100
AcDbVertex
100
AcDb2dVertex
 10
52.63403129125078
 20
143.8851968808215
 30
0.0
  0
VERTEX
  5
1F1
330
1ED
100
AcDbEntity
  8
0
 62
     7
100
AcDbVertex
100
AcDb2dVertex
 10
46.26404553677962
 20
143.8851968808215
 30
0.0
  0
VERTEX
  5
1F2
330
1ED
100
AcDbEntity
  8
0
 62
     7
100
AcDbVertex
100
AcDb2dVertex
 10
46.26473455633121
 20
133.9488459273084
 30
0.0
  0
SEQEND
  5
1F3
330
1ED
100
AcDbEntity
  8
0
  0
POLYLINE
  5
1F4
330
1F
100
AcDbEntity
  8
0
 62
     7
100
AcDb2dPolyline
 66
     1
 10
0.0
 20
0.0
 30
0.0
  0
VERTEX
  5
1F5
330
1F4
100
AcDbEntity
  8
0
 62
     7
100
AcDbVertex
100
AcDb2dVertex
 10
46.26404553677962
 20
142.5298954228394
 30
0.0
  0
VERTEX
  5
1F6
330
1F4
100
AcDbEntity
  8
0
 62
     7
100
AcDbVertex
100
AcDb2dVertex
 10
52.63403129125078
 20
142.5298954228394
 30
0.0
  0
SEQEND
  5
1F7
330
1F4
100
AcDbEntity
  8
0
  0
POLYLINE
  5
1F8
330
1F
100
AcDbEntity
  8
0
 62
     7
100
AcDb2dPolyline
 66
     1
 10
0.0
 20
0.0
 30
0.0
  0
VERTEX
  5
1F9
330
1F8
100
AcDbEntity
  8
0
 62
     7
100
AcDbVertex
100
AcDb2dVertex
 10
51.64167088206992
 20
142.5298954228394
 30
0.0
  0
VERTEX
  5
1FA
330
1F8
100
AcDbEntity
  8
0
 62
     7
100
AcDbVertex
100
AcDb2dVertex
 10
51.64167088206992
 20
143.4325110354253
 30
0.0
  0
VERTEX
  5
1FB
330
1F8
100
AcDbEntity
  8
0
 62
     7
100
AcDbVertex
100
AcDb2dVertex
 10
47.25640594596048
 20
143.4325110354253
 30
0.0
  0
VERTEX
  5
1FC
330
1F8
100
AcDbEntity
  8
0
 62
     7
100
AcDbVertex
100
AcDb2dVertex
 10
47.25640594596048
 20
142.6060320832903
 30
0.0
  0
SEQEND
  5
1FD
330
1F8
100
AcDbEntity
  8
0
  0
POLYLINE
  5
1FE
330
1F
100
AcDbEntity
  8
0
 62
     7
100
AcDb2dPolyline
 66
     1
 10
0.0
 20
0.0
 30
0.0
  0
VERTEX
  5
1FF
330
1FE
100
AcDbEntity
  8
0
 62
     7
100
AcDbVertex
100
AcDb2dVertex
 10
52.63403129125078
 20
135.3034583657389
 30
0.0
  0
VERTEX
  5
200
330
1FE
100
AcDbEntity
  8
0
 62
     7
100
AcDbVertex
100
AcDb2dVertex
 10
46.26473455633121
 20
135.3034583657389
 30
0.0
  0
SEQEND
  5
201
330
1FE
100
AcDbEntity
  8
0
  0
POLYLINE
  5
202
330
1F
100
AcDbEntity
  8
0
 62
     7
100
AcDb2dPolyline
 66
     1
 10
0.0
 20
0.0
 30
0.0
  0
VERTEX
  5
203
330
202
100
AcDbEntity
  8
0
 62
     7
100
AcDbVertex
100
AcDb2dVertex
 10
52.63403129125078
 20
136.6577262943937
 30
0.0
  0
VERTEX
  5
204
330
202
100
AcDbEntity
  8
0
 62
     7
100
AcDbVertex
100
AcDb2dVertex
 10
46.26473455633121
 20
136.6577262943937
 30
0.0
  0
SEQEND
  5
205
330
202
100
AcDbEntity
  8
0
  0
POLYLINE
  5
206
330
1F
100
AcDbEntity
  8
0
 62
     7
100
AcDb2dPolyline
 66
     1
 10
0.0
 20
0.0
 30
0.0
  0
VERTEX
  5
207
330
206
100
AcDbEntity
  8
0
 62
     7
100
AcDbVertex
100
AcDb2dVertex
 10
47.25640594596048
 20
136.6584153139453
 30
0.0
  0
VERTEX
  5
208
330
206
100
AcDbEntity
  8
0
 62
     7
100
AcDbVertex
100
AcDb2dVertex
 10
47.25640594596048
 20
136.1120228095326
 30
0.0
  0
VERTEX
  5
209
330
206
100
AcDbEntity
  8
0
 62
     7
100
AcDbVertex
100
AcDb2dVertex
 10
51.64167088206992
 20
136.1120228095326
 30
0.0
  0
VERTEX
  5
20A
330
206
100
AcDbEntity
  8
0
 62
     7
100
AcDbVertex
100
AcDb2dVertex
 10
51.64167088206992
 20
136.5833121828217
 30
0.0
  0
SEQEND
  5
20B
330
206
100
AcDbEntity
  8
0
  0
SPLINE
  5
20C
330
1F
100
AcDbEntity
  8
0
 62
     7
100
AcDbSpline
210
0.0
220
0.0
230
1.0
 70
    11
 71
     3
 72
    23
 73
    19
 74
     0
 42
0.0000000001
 43
0.0000000001
 40
0.0
 40
0.0
 40
0.0
 40
0.0
 40
1.0
 40
1.0
 40
1.0
 40
2.0
 40
2.0
 40
2.0
 40
3.0
 40
3.0
 40
3.0
 40
4.0
 40
4.0
 40
4.0
 40
5.0
 40
5.0
 40
5.0
 40
6.0
 40
6.0
 40
6.0
 40
6.0
 10
52.33413553142022
 20
139.5932940939528
 30
0.0
 10
52.33413553142022
 20
141.2145570988496
 30
0.0
 10
51.02551514805847
 20
142.5292064032878
 30
0.0
 10
49.41131459356551
 20
142.5292064032878
 30
0.0
 10
47.79694178418467
 20
142.5292064032878
 30
0.0
 10
46.48849365571082
 20
141.2145570988496
 30
0.0
 10
46.48849365571082
 20
139.5932940939528
 30
0.0
 10
46.48849365571082
 20
137.9720310890561
 30
0.0
 10
47.79694178418467
 20
136.6577262943937
 30
0.0
 10
49.41131459356551
 20
136.6577262943937
 30
0.0
 10
51.02551514805847
 20
136.6577262943937
 30
0.0
 10
52.33413553142022
 20
137.9720310890561
 30
0.0
 10
52.33413553142022
 20
139.5932940939528
 30
0.0
 10
52.33413553142022
 20
139.5932940939528
 30
0.0
 10
52.33413553142022
 20
139.5932940939528
 30
0.0
 10
52.33413553142022
 20
139.5932940939528
 30
0.0
 10
52.33413553142022
 20
139.5932940939528
 30
0.0
 10
52.33413553142022
 20
139.5932940939528
 30
0.0
 10
52.33413553142022
 20
139.5932940939528
 30
0.0
  0
POLYLINE
  5
20D
330
1F
100
AcDbEntity
  8
0
 62
     7
100
AcDb2dPolyline
 66
     1
 10
0.0
 20
0.0
 30
0.0
  0
VERTEX
  5
20E
330
20D
100
AcDbEntity
  8
0
 62
     7
100
AcDbVertex
100
AcDb2dVertex
 10
48.18658234061014
 20
140.7122618457388
 30
0.0
  0
VERTEX
  5
20F
330
20D
100
AcDbEntity
  8
0
 62
     7
100
AcDbVertex
100
AcDb2dVertex
 10
50.41194323736549
 20
138.4753598714943
 30
0.0
  0
SEQEND
  5
210
330
20D
100
AcDbEntity
  8
0
  0
POLYLINE
  5
211
330
1F
100
AcDbEntity
  8
0
 62
     7
100
AcDb2dPolyline
 66
     1
 10
0.0
 20
0.0
 30
0.0
  0
VERTEX
  5
212
330
211
100
AcDbEntity
  8
0
 62
     7
100
AcDbVertex
100
AcDb2dVertex
 10
50.83620702625847
 20
141.1366978895197
 30
0.0
  0
VERTEX
  5
213
330
211
100
AcDbEntity
  8
0
 62
     7
100
AcDbVertex
100
AcDb2dVertex
 10
47.76197404194136
 20
138.0495457886102
 30
0.0
  0
SEQEND
  5
214
330
211
100
AcDbEntity
  8
0
  0
POLYLINE
  5
215
330
1F
100
AcDbEntity
  8
0
 62
     7
100
AcDb2dPolyline
 66
     1
 10
0.0
 20
0.0
 30
0.0
  0
VERTEX
  5
216
330
215
100
AcDbEntity
  8
0
 62
     7
100
AcDbVertex
100
AcDb2dVertex
 10
48.88679845991585
 20
134.0232600388804
 30
0.0
  0
VERTEX
  5
217
330
215
100
AcDbEntity
  8
0
 62
     7
100
AcDbVertex
100
AcDb2dVertex
 10
48.88679845991585
 20
135.3034583657389
 30
0.0
  0
SEQEND
  5
218
330
215
100
AcDbEntity
  8
0
  0
POLYLINE
  5
219
330
1F
100
AcDbEntity
  8
0
 62
     7
100
AcDb2dPolyline
 66
     1
 10
0.0
 20
0.0
 30
0.0
  0
VERTEX
  5
21A
330
219
100
AcDbEntity
  8
0
 62
     7
100
AcDbVertex
100
AcDb2dVertex
 10
49.71069358873239
 20
134.0232600388804
 30
0.0
  0
VERTEX
  5
21B
330
219
100
AcDbEntity
  8
0
 62
     7
100
AcDbVertex
100
AcDb2dVertex
 10
49.71069358873239
 20
135.3034583657389
 30
0.0
  0
SEQEND
  5
21C
330
219
100
AcDbEntity
  8
0
  0
POLYLINE
  5
21D
330
1F
100
AcDbEntity
  8
0
 62
     7
100
AcDb2dPolyline
 66
     1
 10
0.0
 20
0.0
 30
0.0
  0
VERTEX
  5
21E
330
21D
100
AcDbEntity
  8
0
 62
     7
100
AcDbVertex
100
AcDb2dVertex
 10
38.41938568701296
 20
133.9488459273084
 30
0.0
  0
VERTEX
  5
21F
330
21D
100
AcDbEntity
  8
0
 62
     7
100
AcDbVertex
100
AcDb2dVertex
 10
44.78902693170832
 20
133.9488459273084
 30
0.0
  0
VERTEX
  5
220
330
21D
100
AcDbEntity
  8
0
 62
     7
100
AcDbVertex
100
AcDb2dVertex
 10
44.78902693170832
 20
143.8851968808215
 30
0.0
  0
VERTEX
  5
221
330
21D
100
AcDbEntity
  8
0
 62
     7
100
AcDbVertex
100
AcDb2dVertex
 10
38.41938568701296
 20
143.8851968808215
 30
0.0
  0
VERTEX
  5
222
330
21D
100
AcDbEntity
  8
0
 62
     7
100
AcDbVertex
100
AcDb2dVertex
 10
38.41938568701296
 20
133.9488459273084
 30
0.0
  0
SEQEND
  5
223
330
21D
100
AcDbEntity
  8
0
  0
POLYLINE
  5
224
330
1F
100
AcDbEntity
  8
0
 62
     7
100
AcDb2dPolyline
 66
     1
 10
0.0
 20
0.0
 30
0.0
  0
VERTEX
  5
225
330
224
100
AcDbEntity
  8
0
 62
     7
100
AcDbVertex
100
AcDb2dVertex
 10
38.41938568701296
 20
142.5298954228394
 30
0.0
  0
VERTEX
  5
226
330
224
100
AcDbEntity
  8
0
 62
     7
100
AcDbVertex
100
AcDb2dVertex
 10
44.78902693170832
 20
142.5298954228394
 30
0.0
  0
SEQEND
  5
227
330
224
100
AcDbEntity
  8
0
  0
POLYLINE
  5
228
330
1F
100
AcDbEntity
  8
0
 62
     7
100
AcDb2dPolyline
 66
     1
 10
0.0
 20
0.0
 30
0.0
  0
VERTEX
  5
229
330
228
100
AcDbEntity
  8
0
 62
     7
100
AcDbVertex
100
AcDb2dVertex
 10
43.79735554207905
 20
142.5298954228394
 30
0.0
  0
VERTEX
  5
22A
330
228
100
AcDbEntity
  8
0
 62
     7
100
AcDbVertex
100
AcDb2dVertex
 10
43.79735554207905
 20
143.4325110354253
 30
0.0
  0
VERTEX
  5
22B
330
228
100
AcDbEntity
  8
0
 62
     7
100
AcDbVertex
100
AcDb2dVertex
 10
39.41243511574541
 20
143.4325110354253
 30
0.0
  0
VERTEX
  5
22C
330
228
100
AcDbEntity
  8
0
 62
     7
100
AcDbVertex
100
AcDb2dVertex
 10
39.41243511574541
 20
142.6060320832903
 30
0.0
  0
SEQEND
  5
22D
330
228
100
AcDbEntity
  8
0
  0
POLYLINE
  5
22E
330
1F
100
AcDbEntity
  8
0
 62
     7
100
AcDb2dPolyline
 66
     1
 10
0.0
 20
0.0
 30
0.0
  0
VERTEX
  5
22F
330
22E
100
AcDbEntity
  8
0
 62
     7
100
AcDbVertex
100
AcDb2dVertex
 10
44.78902693170832
 20
135.3034583657389
 30
0.0
  0
VERTEX
  5
230
330
22E
100
AcDbEntity
  8
0
 62
     7
100
AcDbVertex
100
AcDb2dVertex
 10
38.41938568701296
 20
135.3034583657389
 30
0.0
  0
SEQEND
  5
231
330
22E
100
AcDbEntity
  8
0
  0
POLYLINE
  5
232
330
1F
100
AcDbEntity
  8
0
 62
     7
100
AcDb2dPolyline
 66
     1
 10
0.0
 20
0.0
 30
0.0
  0
VERTEX
  5
233
330
232
100
AcDbEntity
  8
0
 62
     7
100
AcDbVertex
100
AcDb2dVertex
 10
44.78902693170832
 20
136.6577262943937
 30
0.0
  0
VERTEX
  5
234
330
232
100
AcDbEntity
  8
0
 62
     7
100
AcDbVertex
100
AcDb2dVertex
 10
38.41938568701296
 20
136.6577262943937
 30
0.0
  0
SEQEND
  5
235
330
232
100
AcDbEntity
  8
0
  0
POLYLINE
  5
236
330
1F
100
AcDbEntity
  8
0
 62
     7
100
AcDb2dPolyline
 66
     1
 10
0.0
 20
0.0
 30
0.0
  0
VERTEX
  5
237
330
236
100
AcDbEntity
  8
0
 62
     7
100
AcDbVertex
100
AcDb2dVertex
 10
39.41243511574541
 20
136.6584153139453
 30
0.0
  0
VERTEX
  5
238
330
236
100
AcDbEntity
  8
0
 62
     7
100
AcDbVertex
100
AcDb2dVertex
 10
39.41243511574541
 20
136.1120228095326
 30
0.0
  0
VERTEX
  5
239
330
236
100
AcDbEntity
  8
0
 62
     7
100
AcDbVertex
100
AcDb2dVertex
 10
43.79735554207905
 20
136.1120228095326
 30
0.0
  0
VERTEX
  5
23A
330
236
100
AcDbEntity
  8
0
 62
     7
100
AcDbVertex
100
AcDb2dVertex
 10
43.79735554207905
 20
136.5833121828217
 30
0.0
  0
SEQEND
  5
23B
330
236
100
AcDbEntity
  8
0
  0
SPLINE
  5
23C
330
1F
100
AcDbEntity
  8
0
 62
     7
100
AcDbSpline
210
0.0
220
0.0
230
1.0
 70
    11
 71
     3
 72
    23
 73
    19
 74
     0
 42
0.0000000001
 43
0.0000000001
 40
0.0
 40
0.0
 40
0.0
 40
0.0
 40
1.0
 40
1.0
 40
1.0
 40
2.0
 40
2.0
 40
2.0
 40
3.0
 40
3.0
 40
3.0
 40
4.0
 40
4.0
 40
4.0
 40
5.0
 40
5.0
 40
5.0
 40
6.0
 40
6.0
 40
6.0
 40
6.0
 10
44.49033695609304
 20
139.5932940939528
 30
0.0
 10
44.49033695609304
 20
141.2149016086254
 30
0.0
 10
43.1815443178434
 20
142.5295509130636
 30
0.0
 10
41.56717150846255
 20
142.5295509130636
 30
0.0
 10
39.9527986990817
 20
142.5295509130636
 30
0.0
 10
38.64417831571996
 20
141.2149016086254
 30
0.0
 10
38.64417831571996
 20
139.5932940939528
 30
0.0
 10
38.64417831571996
 20
137.9720310890561
 30
0.0
 10
39.9527986990817
 20
136.6573817846179
 30
0.0
 10
41.56717150846255
 20
136.6573817846179
 30
0.0
 10
43.1815443178434
 20
136.6573817846179
 30
0.0
 10
44.49033695609304
 20
137.9720310890561
 30
0.0
 10
44.49033695609304
 20
139.5932940939528
 30
0.0
 10
44.49033695609304
 20
139.5932940939528
 30
0.0
 10
44.49033695609304
 20
139.5932940939528
 30
0.0
 10
44.49033695609304
 20
139.5932940939528
 30
0.0
 10
44.49033695609304
 20
139.5932940939528
 30
0.0
 10
44.49033695609304
 20
139.5932940939528
 30
0.0
 10
44.49033695609304
 20
139.5932940939528
 30
0.0
  0
POLYLINE
  5
23D
330
1F
100
AcDbEntity
  8
0
 62
     7
100
AcDb2dPolyline
 66
     1
 10
0.0
 20
0.0
 30
0.0
  0
VERTEX
  5
23E
330
23D
100
AcDbEntity
  8
0
 62
     7
100
AcDbVertex
100
AcDb2dVertex
 10
40.34088896151609
 20
140.7122618457388
 30
0.0
  0
VERTEX
  5
23F
330
23D
100
AcDbEntity
  8
0
 62
     7
100
AcDbVertex
100
AcDb2dVertex
 10
42.56797240715042
 20
138.4753598714943
 30
0.0
  0
SEQEND
  5
240
330
23D
100
AcDbEntity
  8
0
  0
POLYLINE
  5
241
330
1F
100
AcDbEntity
  8
0
 62
     7
100
AcDb2dPolyline
 66
     1
 10
0.0
 20
0.0
 30
0.0
  0
VERTEX
  5
242
330
241
100
AcDbEntity
  8
0
 62
     7
100
AcDbVertex
100
AcDb2dVertex
 10
42.99154717649181
 20
141.1366978895197
 30
0.0
  0
VERTEX
  5
243
330
241
100
AcDbEntity
  8
0
 62
     7
100
AcDbVertex
100
AcDb2dVertex
 10
39.91800321172629
 20
138.0495457886102
 30
0.0
  0
SEQEND
  5
244
330
241
100
AcDbEntity
  8
0
  0
POLYLINE
  5
245
330
1F
100
AcDbEntity
  8
0
 62
     7
100
AcDb2dPolyline
 66
     1
 10
0.0
 20
0.0
 30
0.0
  0
VERTEX
  5
246
330
245
100
AcDbEntity
  8
0
 62
     7
100
AcDbVertex
100
AcDb2dVertex
 10
41.04265537481288
 20
134.0232600388804
 30
0.0
  0
VERTEX
  5
247
330
245
100
AcDbEntity
  8
0
 62
     7
100
AcDbVertex
100
AcDb2dVertex
 10
41.04265537481288
 20
135.3034583657389
 30
0.0
  0
SEQEND
  5
248
330
245
100
AcDbEntity
  8
0
  0
POLYLINE
  5
249
330
1F
100
AcDbEntity
  8
0
 62
     7
100
AcDb2dPolyline
 66
     1
 10
0.0
 20
0.0
 30
0.0
  0
VERTEX
  5
24A
330
249
100
AcDbEntity
  8
0
 62
     7
100
AcDbVertex
100
AcDb2dVertex
 10
41.86689501340521
 20
134.0232600388804
 30
0.0
  0
VERTEX
  5
24B
330
249
100
AcDbEntity
  8
0
 62
     7
100
AcDbVertex
100
AcDb2dVertex
 10
41.86689501340521
 20
135.3034583657389
 30
0.0
  0
SEQEND
  5
24C
330
249
100
AcDbEntity
  8
0
  0
POLYLINE
  5
24D
330
1F
100
AcDbEntity
  8
0
 62
     7
100
AcDb2dPolyline
 66
     1
 10
0.0
 20
0.0
 30
0.0
  0
VERTEX
  5
24E
330
24D
100
AcDbEntity
  8
0
 62
     7
100
AcDbVertex
100
AcDb2dVertex
 10
34.49628061513408
 20
124.0124949737953
 30
0.0
  0
VERTEX
  5
24F
330
24D
100
AcDbEntity
  8
0
 62
     7
100
AcDbVertex
100
AcDb2dVertex
 10
40.86661087938104
 20
124.0124949737953
 30
0.0
  0
VERTEX
  5
250
330
24D
100
AcDbEntity
  8
0
 62
     7
100
AcDbVertex
100
AcDb2dVertex
 10
40.86661087938104
 20
133.9488459273084
 30
0.0
  0
VERTEX
  5
251
330
24D
100
AcDbEntity
  8
0
 62
     7
100
AcDbVertex
100
AcDb2dVertex
 10
34.49628061513408
 20
133.9488459273084
 30
0.0
  0
VERTEX
  5
252
330
24D
100
AcDbEntity
  8
0
 62
     7
100
AcDbVertex
100
AcDb2dVertex
 10
34.49628061513408
 20
124.0124949737953
 30
0.0
  0
SEQEND
  5
253
330
24D
100
AcDbEntity
  8
0
  0
POLYLINE
  5
254
330
1F
100
AcDbEntity
  8
0
 62
     7
100
AcDb2dPolyline
 66
     1
 10
0.0
 20
0.0
 30
0.0
  0
VERTEX
  5
255
330
254
100
AcDbEntity
  8
0
 62
     7
100
AcDbVertex
100
AcDb2dVertex
 10
34.49628061513408
 20
132.5925109399989
 30
0.0
  0
VERTEX
  5
256
330
254
100
AcDbEntity
  8
0
 62
     7
100
AcDbVertex
100
AcDb2dVertex
 10
40.86609411471734
 20
132.5925109399989
 30
0.0
  0
SEQEND
  5
257
330
254
100
AcDbEntity
  8
0
  0
POLYLINE
  5
258
330
1F
100
AcDbEntity
  8
0
 62
     7
100
AcDb2dPolyline
 66
     1
 10
0.0
 20
0.0
 30
0.0
  0
VERTEX
  5
259
330
258
100
AcDbEntity
  8
0
 62
     7
100
AcDbVertex
100
AcDb2dVertex
 10
39.87493948975177
 20
132.5925109399989
 30
0.0
  0
VERTEX
  5
25A
330
258
100
AcDbEntity
  8
0
 62
     7
100
AcDbVertex
100
AcDb2dVertex
 10
39.87493948975177
 20
133.4968491014638
 30
0.0
  0
VERTEX
  5
25B
330
258
100
AcDbEntity
  8
0
 62
     7
100
AcDbVertex
100
AcDb2dVertex
 10
35.48984680853023
 20
133.4968491014638
 30
0.0
  0
VERTEX
  5
25C
330
258
100
AcDbEntity
  8
0
 62
     7
100
AcDbVertex
100
AcDb2dVertex
 10
35.48984680853023
 20
132.6686476004498
 30
0.0
  0
SEQEND
  5
25D
330
258
100
AcDbEntity
  8
0
  0
POLYLINE
  5
25E
330
1F
100
AcDbEntity
  8
0
 62
     7
100
AcDb2dPolyline
 66
     1
 10
0.0
 20
0.0
 30
0.0
  0
VERTEX
  5
25F
330
25E
100
AcDbEntity
  8
0
 62
     7
100
AcDbVertex
100
AcDb2dVertex
 10
40.86609411471734
 20
125.3674519220016
 30
0.0
  0
VERTEX
  5
260
330
25E
100
AcDbEntity
  8
0
 62
     7
100
AcDbVertex
100
AcDb2dVertex
 10
34.49628061513408
 20
125.3674519220016
 30
0.0
  0
SEQEND
  5
261
330
25E
100
AcDbEntity
  8
0
  0
POLYLINE
  5
262
330
1F
100
AcDbEntity
  8
0
 62
     7
100
AcDb2dPolyline
 66
     1
 10
0.0
 20
0.0
 30
0.0
  0
VERTEX
  5
263
330
262
100
AcDbEntity
  8
0
 62
     7
100
AcDbVertex
100
AcDb2dVertex
 10
40.86609411471734
 20
126.722408870208
 30
0.0
  0
VERTEX
  5
264
330
262
100
AcDbEntity
  8
0
 62
     7
100
AcDbVertex
100
AcDb2dVertex
 10
34.49628061513408
 20
126.722408870208
 30
0.0
  0
SEQEND
  5
265
330
262
100
AcDbEntity
  8
0
  0
POLYLINE
  5
266
330
1F
100
AcDbEntity
  8
0
 62
     7
100
AcDb2dPolyline
 66
     1
 10
0.0
 20
0.0
 30
0.0
  0
VERTEX
  5
267
330
266
100
AcDbEntity
  8
0
 62
     7
100
AcDbVertex
100
AcDb2dVertex
 10
35.48984680853023
 20
126.722408870208
 30
0.0
  0
VERTEX
  5
268
330
266
100
AcDbEntity
  8
0
 62
     7
100
AcDbVertex
100
AcDb2dVertex
 10
35.48984680853023
 20
126.1767053853468
 30
0.0
  0
VERTEX
  5
269
330
266
100
AcDbEntity
  8
0
 62
     7
100
AcDbVertex
100
AcDb2dVertex
 10
39.87493948975177
 20
126.1767053853468
 30
0.0
  0
VERTEX
  5
26A
330
266
100
AcDbEntity
  8
0
 62
     7
100
AcDbVertex
100
AcDb2dVertex
 10
39.87493948975177
 20
126.6469612293086
 30
0.0
  0
SEQEND
  5
26B
330
266
100
AcDbEntity
  8
0
  0
SPLINE
  5
26C
330
1F
100
AcDbEntity
  8
0
 62
     7
100
AcDbSpline
210
0.0
220
0.0
230
1.0
 70
    11
 71
     3
 72
    23
 73
    19
 74
     0
 42
0.0000000001
 43
0.0000000001
 40
0.0
 40
0.0
 40
0.0
 40
0.0
 40
1.0
 40
1.0
 40
1.0
 40
2.0
 40
2.0
 40
2.0
 40
3.0
 40
3.0
 40
3.0
 40
4.0
 40
4.0
 40
4.0
 40
5.0
 40
5.0
 40
5.0
 40
6.0
 40
6.0
 40
6.0
 40
6.0
 10
40.56740413910207
 20
129.6559096111123
 30
0.0
 10
40.56740413910207
 20
131.2775171257849
 30
0.0
 10
39.25861150085242
 20
132.5918219204473
 30
0.0
 10
37.64406643658368
 20
132.5918219204473
 30
0.0
 10
36.02969362720283
 20
132.5918219204473
 30
0.0
 10
34.72090098895318
 20
131.2775171257849
 30
0.0
 10
34.72090098895318
 20
129.6559096111123
 30
0.0
 10
34.72090098895318
 20
128.0343020964398
 30
0.0
 10
36.02969362720283
 20
126.7199973017774
 30
0.0
 10
37.64406643658368
 20
126.7199973017774
 30
0.0
 10
39.25861150085242
 20
126.7199973017774
 30
0.0
 10
40.56740413910207
 20
128.0343020964398
 30
0.0
 10
40.56740413910207
 20
129.6559096111123
 30
0.0
 10
40.56740413910207
 20
129.6559096111123
 30
0.0
 10
40.56740413910207
 20
129.6559096111123
 30
0.0
 10
40.56740413910207
 20
129.6559096111123
 30
0.0
 10
40.56740413910207
 20
129.6559096111123
 30
0.0
 10
40.56740413910207
 20
129.6559096111123
 30
0.0
 10
40.56740413910207
 20
129.6559096111123
 30
0.0
  0
POLYLINE
  5
26D
330
1F
100
AcDbEntity
  8
0
 62
     7
100
AcDb2dPolyline
 66
     1
 10
0.0
 20
0.0
 30
0.0
  0
VERTEX
  5
26E
330
26D
100
AcDbEntity
  8
0
 62
     7
100
AcDbVertex
100
AcDb2dVertex
 10
36.41916192874039
 20
130.7745328531225
 30
0.0
  0
VERTEX
  5
26F
330
26D
100
AcDbEntity
  8
0
 62
     7
100
AcDbVertex
100
AcDb2dVertex
 10
38.64538409993524
 20
128.5390089179812
 30
0.0
  0
SEQEND
  5
270
330
26D
100
AcDbEntity
  8
0
  0
POLYLINE
  5
271
330
1F
100
AcDbEntity
  8
0
 62
     7
100
AcDb2dPolyline
 66
     1
 10
0.0
 20
0.0
 30
0.0
  0
VERTEX
  5
272
330
271
100
AcDbEntity
  8
0
 62
     7
100
AcDbVertex
100
AcDb2dVertex
 10
39.06792533994924
 20
131.1993134066792
 30
0.0
  0
VERTEX
  5
273
330
271
100
AcDbEntity
  8
0
 62
     7
100
AcDbVertex
100
AcDb2dVertex
 10
35.99489813984741
 20
128.1128503253213
 30
0.0
  0
SEQEND
  5
274
330
271
100
AcDbEntity
  8
0
  0
POLYLINE
  5
275
330
1F
100
AcDbEntity
  8
0
 62
     7
100
AcDb2dPolyline
 66
     1
 10
0.0
 20
0.0
 30
0.0
  0
VERTEX
  5
276
330
275
100
AcDbEntity
  8
0
 62
     7
100
AcDbVertex
100
AcDb2dVertex
 10
37.1198948127098
 20
124.0865645755915
 30
0.0
  0
VERTEX
  5
277
330
275
100
AcDbEntity
  8
0
 62
     7
100
AcDbVertex
100
AcDb2dVertex
 10
37.1198948127098
 20
125.3674519220016
 30
0.0
  0
SEQEND
  5
278
330
275
100
AcDbEntity
  8
0
  0
POLYLINE
  5
279
330
1F
100
AcDbEntity
  8
0
 62
     7
100
AcDb2dPolyline
 66
     1
 10
0.0
 20
0.0
 30
0.0
  0
VERTEX
  5
27A
330
279
100
AcDbEntity
  8
0
 62
     7
100
AcDbVertex
100
AcDb2dVertex
 10
37.94465121596583
 20
124.0865645755915
 30
0.0
  0
VERTEX
  5
27B
330
279
100
AcDbEntity
  8
0
 62
     7
100
AcDbVertex
100
AcDb2dVertex
 10
37.94465121596583
 20
125.3674519220016
 30
0.0
  0
SEQEND
  5
27C
330
279
100
AcDbEntity
  8
0
  0
POLYLINE
  5
27D
330
1F
100
AcDbEntity
  8
0
 62
     7
100
AcDb2dPolyline
 66
     1
 10
0.0
 20
0.0
 30
0.0
  0
VERTEX
  5
27E
330
27D
100
AcDbEntity
  8
0
 62
     7
100
AcDbVertex
100
AcDb2dVertex
 10
105.0970134788188
 20
124.0124949737953
 30
0.0
  0
VERTEX
  5
27F
330
27D
100
AcDbEntity
  8
0
 62
     7
100
AcDbVertex
100
AcDb2dVertex
 10
111.4676882528415
 20
124.0124949737953
 30
0.0
  0
VERTEX
  5
280
330
27D
100
AcDbEntity
  8
0
 62
     7
100
AcDbVertex
100
AcDb2dVertex
 10
111.4676882528415
 20
133.9488459273084
 30
0.0
  0
VERTEX
  5
281
330
27D
100
AcDbEntity
  8
0
 62
     7
100
AcDbVertex
100
AcDb2dVertex
 10
105.0970134788188
 20
133.9488459273084
 30
0.0
  0
VERTEX
  5
282
330
27D
100
AcDbEntity
  8
0
 62
     7
100
AcDbVertex
100
AcDb2dVertex
 10
105.0970134788188
 20
124.0124949737953
 30
0.0
  0
SEQEND
  5
283
330
27D
100
AcDbEntity
  8
0
  0
POLYLINE
  5
284
330
1F
100
AcDbEntity
  8
0
 62
     7
100
AcDb2dPolyline
 66
     1
 10
0.0
 20
0.0
 30
0.0
  0
VERTEX
  5
285
330
284
100
AcDbEntity
  8
0
 62
     7
100
AcDbVertex
100
AcDb2dVertex
 10
105.0970134788188
 20
132.5925109399989
 30
0.0
  0
VERTEX
  5
286
330
284
100
AcDbEntity
  8
0
 62
     7
100
AcDbVertex
100
AcDb2dVertex
 10
111.4683772723931
 20
132.5925109399989
 30
0.0
  0
SEQEND
  5
287
330
284
100
AcDbEntity
  8
0
  0
POLYLINE
  5
288
330
1F
100
AcDbEntity
  8
0
 62
     7
100
AcDb2dPolyline
 66
     1
 10
0.0
 20
0.0
 30
0.0
  0
VERTEX
  5
289
330
288
100
AcDbEntity
  8
0
 62
     7
100
AcDbVertex
100
AcDb2dVertex
 10
110.4734330398938
 20
132.5925109399989
 30
0.0
  0
VERTEX
  5
28A
330
288
100
AcDbEntity
  8
0
 62
     7
100
AcDbVertex
100
AcDb2dVertex
 10
110.4734330398938
 20
133.4968491014638
 30
0.0
  0
VERTEX
  5
28B
330
288
100
AcDbEntity
  8
0
 62
     7
100
AcDbVertex
100
AcDb2dVertex
 10
106.0895461428875
 20
133.4968491014638
 30
0.0
  0
VERTEX
  5
28C
330
288
100
AcDbEntity
  8
0
 62
     7
100
AcDbVertex
100
AcDb2dVertex
 10
106.0895461428875
 20
132.6686476004498
 30
0.0
  0
SEQEND
  5
28D
330
288
100
AcDbEntity
  8
0
  0
POLYLINE
  5
28E
330
1F
100
AcDbEntity
  8
0
 62
     7
100
AcDb2dPolyline
 66
     1
 10
0.0
 20
0.0
 30
0.0
  0
VERTEX
  5
28F
330
28E
100
AcDbEntity
  8
0
 62
     7
100
AcDbVertex
100
AcDb2dVertex
 10
111.4683772723931
 20
125.3674519220016
 30
0.0
  0
VERTEX
  5
290
330
28E
100
AcDbEntity
  8
0
 62
     7
100
AcDbVertex
100
AcDb2dVertex
 10
105.0970134788188
 20
125.3674519220016
 30
0.0
  0
SEQEND
  5
291
330
28E
100
AcDbEntity
  8
0
  0
POLYLINE
  5
292
330
1F
100
AcDbEntity
  8
0
 62
     7
100
AcDb2dPolyline
 66
     1
 10
0.0
 20
0.0
 30
0.0
  0
VERTEX
  5
293
330
292
100
AcDbEntity
  8
0
 62
     7
100
AcDbVertex
100
AcDb2dVertex
 10
111.4683772723931
 20
126.722408870208
 30
0.0
  0
VERTEX
  5
294
330
292
100
AcDbEntity
  8
0
 62
     7
100
AcDbVertex
100
AcDb2dVertex
 10
105.0970134788188
 20
126.722408870208
 30
0.0
  0
SEQEND
  5
295
330
292
100
AcDbEntity
  8
0
  0
POLYLINE
  5
296
330
1F
100
AcDbEntity
  8
0
 62
     7
100
AcDb2dPolyline
 66
     1
 10
0.0
 20
0.0
 30
0.0
  0
VERTEX
  5
297
330
296
100
AcDbEntity
  8
0
 62
     7
100
AcDbVertex
100
AcDb2dVertex
 10
106.0895461428875
 20
126.722408870208
 30
0.0
  0
VERTEX
  5
298
330
296
100
AcDbEntity
  8
0
 62
     7
100
AcDbVertex
100
AcDb2dVertex
 10
106.0895461428875
 20
126.1767053853468
 30
0.0
  0
VERTEX
  5
299
330
296
100
AcDbEntity
  8
0
 62
     7
100
AcDbVertex
100
AcDb2dVertex
 10
110.4734330398938
 20
126.1767053853468
 30
0.0
  0
VERTEX
  5
29A
330
296
100
AcDbEntity
  8
0
 62
     7
100
AcDbVertex
100
AcDb2dVertex
 10
110.4734330398938
 20
126.6469612293086
 30
0.0
  0
SEQEND
  5
29B
330
296
100
AcDbEntity
  8
0
  0
SPLINE
  5
29C
330
1F
100
AcDbEntity
  8
0
 62
     7
100
AcDbSpline
210
0.0
220
0.0
230
1.0
 70
    11
 71
     3
 72
    23
 73
    19
 74
     0
 42
0.0000000001
 43
0.0000000001
 40
0.0
 40
0.0
 40
0.0
 40
0.0
 40
1.0
 40
1.0
 40
1.0
 40
2.0
 40
2.0
 40
2.0
 40
3.0
 40
3.0
 40
3.0
 40
4.0
 40
4.0
 40
4.0
 40
5.0
 40
5.0
 40
5.0
 40
6.0
 40
6.0
 40
6.0
 40
6.0
 10
111.1669312185715
 20
129.6559096111123
 30
0.0
 10
111.1669312185715
 20
131.2771726160091
 30
0.0
 10
109.8584830900976
 20
132.5911329008957
 30
0.0
 10
108.2444547904926
 20
132.5911329008957
 30
0.0
 10
106.6304264908875
 20
132.5911329008957
 30
0.0
 10
105.3219783624137
 20
131.2771726160091
 30
0.0
 10
105.3219783624137
 20
129.6559096111123
 30
0.0
 10
105.3219783624137
 20
128.0346466062156
 30
0.0
 10
106.6304264908875
 20
126.720686321329
 30
0.0
 10
108.2444547904926
 20
126.720686321329
 30
0.0
 10
109.8584830900976
 20
126.720686321329
 30
0.0
 10
111.1669312185715
 20
128.0346466062156
 30
0.0
 10
111.1669312185715
 20
129.6559096111123
 30
0.0
 10
111.1669312185715
 20
129.6559096111123
 30
0.0
 10
111.1669312185715
 20
129.6559096111123
 30
0.0
 10
111.1669312185715
 20
129.6559096111123
 30
0.0
 10
111.1669312185715
 20
129.6559096111123
 30
0.0
 10
111.1669312185715
 20
129.6559096111123
 30
0.0
 10
111.1669312185715
 20
129.6559096111123
 30
0.0
  0
POLYLINE
  5
29D
330
1F
100
AcDbEntity
  8
0
 62
     7
100
AcDb2dPolyline
 66
     1
 10
0.0
 20
0.0
 30
0.0
  0
VERTEX
  5
29E
330
29D
100
AcDbEntity
  8
0
 62
     7
100
AcDbVertex
100
AcDb2dVertex
 10
107.018344498434
 20
130.7745328531225
 30
0.0
  0
VERTEX
  5
29F
330
29D
100
AcDbEntity
  8
0
 62
     7
100
AcDbVertex
100
AcDb2dVertex
 10
109.2452556891804
 20
128.5390089179812
 30
0.0
  0
SEQEND
  5
2A0
330
29D
100
AcDbEntity
  8
0
  0
POLYLINE
  5
2A1
330
1F
100
AcDbEntity
  8
0
 62
     7
100
AcDb2dPolyline
 66
     1
 10
0.0
 20
0.0
 30
0.0
  0
VERTEX
  5
2A2
330
2A1
100
AcDbEntity
  8
0
 62
     7
100
AcDbVertex
100
AcDb2dVertex
 10
109.6672801645307
 20
131.1993134066792
 30
0.0
  0
VERTEX
  5
2A3
330
2A1
100
AcDbEntity
  8
0
 62
     7
100
AcDbVertex
100
AcDb2dVertex
 10
106.5963200230837
 20
128.1128503253213
 30
0.0
  0
SEQEND
  5
2A4
330
2A1
100
AcDbEntity
  8
0
  0
POLYLINE
  5
2A5
330
1F
100
AcDbEntity
  8
0
 62
     7
100
AcDb2dPolyline
 66
     1
 10
0.0
 20
0.0
 30
0.0
  0
VERTEX
  5
2A6
330
2A5
100
AcDbEntity
  8
0
 62
     7
100
AcDbVertex
100
AcDb2dVertex
 10
107.7201109117308
 20
124.0865645755915
 30
0.0
  0
VERTEX
  5
2A7
330
2A5
100
AcDbEntity
  8
0
 62
     7
100
AcDbVertex
100
AcDb2dVertex
 10
107.7201109117308
 20
125.3674519220016
 30
0.0
  0
SEQEND
  5
2A8
330
2A5
100
AcDbEntity
  8
0
  0
POLYLINE
  5
2A9
330
1F
100
AcDbEntity
  8
0
 62
     7
100
AcDb2dPolyline
 66
     1
 10
0.0
 20
0.0
 30
0.0
  0
VERTEX
  5
2AA
330
2A9
100
AcDbEntity
  8
0
 62
     7
100
AcDbVertex
100
AcDb2dVertex
 10
108.544522805211
 20
124.0865645755915
 30
0.0
  0
VERTEX
  5
2AB
330
2A9
100
AcDbEntity
  8
0
 62
     7
100
AcDbVertex
100
AcDb2dVertex
 10
108.544522805211
 20
125.3674519220016
 30
0.0
  0
SEQEND
  5
2AC
330
2A9
100
AcDbEntity
  8
0
  0
POLYLINE
  5
2AD
330
1F
100
AcDbEntity
  8
0
 62
     7
100
AcDb2dPolyline
 66
     1
 10
0.0
 20
0.0
 30
0.0
  0
VERTEX
  5
2AE
330
2AD
100
AcDbEntity
  8
0
 62
     7
100
AcDbVertex
100
AcDb2dVertex
 10
97.2523536290521
 20
124.0124949737953
 30
0.0
  0
VERTEX
  5
2AF
330
2AD
100
AcDbEntity
  8
0
 62
     7
100
AcDbVertex
100
AcDb2dVertex
 10
103.6232006579628
 20
124.0124949737953
 30
0.0
  0
VERTEX
  5
2B0
330
2AD
100
AcDbEntity
  8
0
 62
     7
100
AcDbVertex
100
AcDb2dVertex
 10
103.6232006579628
 20
133.9488459273084
 30
0.0
  0
VERTEX
  5
2B1
330
2AD
100
AcDbEntity
  8
0
 62
     7
100
AcDbVertex
100
AcDb2dVertex
 10
97.2523536290521
 20
133.9488459273084
 30
0.0
  0
VERTEX
  5
2B2
330
2AD
100
AcDbEntity
  8
0
 62
     7
100
AcDbVertex
100
AcDb2dVertex
 10
97.2523536290521
 20
124.0124949737953
 30
0.0
  0
SEQEND
  5
2B3
330
2AD
100
AcDbEntity
  8
0
  0
POLYLINE
  5
2B4
330
1F
100
AcDbEntity
  8
0
 62
     7
100
AcDb2dPolyline
 66
     1
 10
0.0
 20
0.0
 30
0.0
  0
VERTEX
  5
2B5
330
2B4
100
AcDbEntity
  8
0
 62
     7
100
AcDbVertex
100
AcDb2dVertex
 10
97.2523536290521
 20
132.5925109399989
 30
0.0
  0
VERTEX
  5
2B6
330
2B4
100
AcDbEntity
  8
0
 62
     7
100
AcDbVertex
100
AcDb2dVertex
 10
103.6225116384112
 20
132.5925109399989
 30
0.0
  0
SEQEND
  5
2B7
330
2B4
100
AcDbEntity
  8
0
  0
POLYLINE
  5
2B8
330
1F
100
AcDbEntity
  8
0
 62
     7
100
AcDb2dPolyline
 66
     1
 10
0.0
 20
0.0
 30
0.0
  0
VERTEX
  5
2B9
330
2B8
100
AcDbEntity
  8
0
 62
     7
100
AcDbVertex
100
AcDb2dVertex
 10
102.6303234841182
 20
132.5925109399989
 30
0.0
  0
VERTEX
  5
2BA
330
2B8
100
AcDbEntity
  8
0
 62
     7
100
AcDbVertex
100
AcDb2dVertex
 10
102.6303234841182
 20
133.4968491014638
 30
0.0
  0
VERTEX
  5
2BB
330
2B8
100
AcDbEntity
  8
0
 62
     7
100
AcDbVertex
100
AcDb2dVertex
 10
98.24436952845717
 20
133.4968491014638
 30
0.0
  0
VERTEX
  5
2BC
330
2B8
100
AcDbEntity
  8
0
 62
     7
100
AcDbVertex
100
AcDb2dVertex
 10
98.24436952845717
 20
132.6686476004498
 30
0.0
  0
SEQEND
  5
2BD
330
2B8
100
AcDbEntity
  8
0
  0
POLYLINE
  5
2BE
330
1F
100
AcDbEntity
  8
0
 62
     7
100
AcDb2dPolyline
 66
     1
 10
0.0
 20
0.0
 30
0.0
  0
VERTEX
  5
2BF
330
2BE
100
AcDbEntity
  8
0
 62
     7
100
AcDbVertex
100
AcDb2dVertex
 10
103.6225116384112
 20
125.3674519220016
 30
0.0
  0
VERTEX
  5
2C0
330
2BE
100
AcDbEntity
  8
0
 62
     7
100
AcDbVertex
100
AcDb2dVertex
 10
97.2523536290521
 20
125.3674519220016
 30
0.0
  0
SEQEND
  5
2C1
330
2BE
100
AcDbEntity
  8
0
  0
POLYLINE
  5
2C2
330
1F
100
AcDbEntity
  8
0
 62
     7
100
AcDb2dPolyline
 66
     1
 10
0.0
 20
0.0
 30
0.0
  0
VERTEX
  5
2C3
330
2C2
100
AcDbEntity
  8
0
 62
     7
100
AcDbVertex
100
AcDb2dVertex
 10
103.6225116384112
 20
126.722408870208
 30
0.0
  0
VERTEX
  5
2C4
330
2C2
100
AcDbEntity
  8
0
 62
     7
100
AcDbVertex
100
AcDb2dVertex
 10
97.2523536290521
 20
126.722408870208
 30
0.0
  0
SEQEND
  5
2C5
330
2C2
100
AcDbEntity
  8
0
  0
POLYLINE
  5
2C6
330
1F
100
AcDbEntity
  8
0
 62
     7
100
AcDb2dPolyline
 66
     1
 10
0.0
 20
0.0
 30
0.0
  0
VERTEX
  5
2C7
330
2C6
100
AcDbEntity
  8
0
 62
     7
100
AcDbVertex
100
AcDb2dVertex
 10
98.24436952845717
 20
126.722408870208
 30
0.0
  0
VERTEX
  5
2C8
330
2C6
100
AcDbEntity
  8
0
 62
     7
100
AcDbVertex
100
AcDb2dVertex
 10
98.24436952845717
 20
126.1767053853468
 30
0.0
  0
VERTEX
  5
2C9
330
2C6
100
AcDbEntity
  8
0
 62
     7
100
AcDbVertex
100
AcDb2dVertex
 10
102.6303234841182
 20
126.1767053853468
 30
0.0
  0
VERTEX
  5
2CA
330
2C6
100
AcDbEntity
  8
0
 62
     7
100
AcDbVertex
100
AcDb2dVertex
 10
102.6303234841182
 20
126.6469612293086
 30
0.0
  0
SEQEND
  5
2CB
330
2C6
100
AcDbEntity
  8
0
  0
SPLINE
  5
2CC
330
1F
100
AcDbEntity
  8
0
 62
     7
100
AcDbSpline
210
0.0
220
0.0
230
1.0
 70
    11
 71
     3
 72
    23
 73
    19
 74
     0
 42
0.0000000001
 43
0.0000000001
 40
0.0
 40
0.0
 40
0.0
 40
0.0
 40
1.0
 40
1.0
 40
1.0
 40
2.0
 40
2.0
 40
2.0
 40
3.0
 40
3.0
 40
3.0
 40
4.0
 40
4.0
 40
4.0
 40
5.0
 40
5.0
 40
5.0
 40
6.0
 40
6.0
 40
6.0
 40
6.0
 10
103.3226158785806
 20
129.6559096111123
 30
0.0
 10
103.3226158785806
 20
131.2775171257849
 30
0.0
 10
102.0139954952189
 20
132.5918219204473
 30
0.0
 10
100.399622685838
 20
132.5918219204473
 30
0.0
 10
98.78542213134504
 20
132.5918219204473
 30
0.0
 10
97.4766294930954
 20
131.2775171257849
 30
0.0
 10
97.4766294930954
 20
129.6559096111123
 30
0.0
 10
97.4766294930954
 20
128.0343020964398
 30
0.0
 10
98.78542213134504
 20
126.7203418115532
 30
0.0
 10
100.399622685838
 20
126.7203418115532
 30
0.0
 10
102.0139954952189
 20
126.7203418115532
 30
0.0
 10
103.3226158785806
 20
128.0343020964398
 30
0.0
 10
103.3226158785806
 20
129.6559096111123
 30
0.0
 10
103.3226158785806
 20
129.6559096111123
 30
0.0
 10
103.3226158785806
 20
129.6559096111123
 30
0.0
 10
103.3226158785806
 20
129.6559096111123
 30
0.0
 10
103.3226158785806
 20
129.6559096111123
 30
0.0
 10
103.3226158785806
 20
129.6559096111123
 30
0.0
 10
103.3226158785806
 20
129.6559096111123
 30
0.0
  0
POLYLINE
  5
2CD
330
1F
100
AcDbEntity
  8
0
 62
     7
100
AcDb2dPolyline
 66
     1
 10
0.0
 20
0.0
 30
0.0
  0
VERTEX
  5
2CE
330
2CD
100
AcDbEntity
  8
0
 62
     7
100
AcDbVertex
100
AcDb2dVertex
 10
99.17523494265841
 20
130.7745328531225
 30
0.0
  0
VERTEX
  5
2CF
330
2CD
100
AcDbEntity
  8
0
 62
     7
100
AcDbVertex
100
AcDb2dVertex
 10
101.4000790747501
 20
128.5390089179812
 30
0.0
  0
SEQEND
  5
2D0
330
2CD
100
AcDbEntity
  8
0
  0
POLYLINE
  5
2D1
330
1F
100
AcDbEntity
  8
0
 62
     7
100
AcDb2dPolyline
 66
     1
 10
0.0
 20
0.0
 30
0.0
  0
VERTEX
  5
2D2
330
2D1
100
AcDbEntity
  8
0
 62
     7
100
AcDbVertex
100
AcDb2dVertex
 10
101.8243428636431
 20
131.1993134066792
 30
0.0
  0
VERTEX
  5
2D3
330
2D1
100
AcDbEntity
  8
0
 62
     7
100
AcDbVertex
100
AcDb2dVertex
 10
98.75062664398963
 20
128.1128503253213
 30
0.0
  0
SEQEND
  5
2D4
330
2D1
100
AcDbEntity
  8
0
  0
POLYLINE
  5
2D5
330
1F
100
AcDbEntity
  8
0
 62
     7
100
AcDb2dPolyline
 66
     1
 10
0.0
 20
0.0
 30
0.0
  0
VERTEX
  5
2D6
330
2D5
100
AcDbEntity
  8
0
 62
     7
100
AcDbVertex
100
AcDb2dVertex
 10
99.87631233640362
 20
124.0865645755915
 30
0.0
  0
VERTEX
  5
2D7
330
2D5
100
AcDbEntity
  8
0
 62
     7
100
AcDbVertex
100
AcDb2dVertex
 10
99.87631233640362
 20
125.3674519220016
 30
0.0
  0
SEQEND
  5
2D8
330
2D5
100
AcDbEntity
  8
0
  0
POLYLINE
  5
2D9
330
1F
100
AcDbEntity
  8
0
 62
     7
100
AcDb2dPolyline
 66
     1
 10
0.0
 20
0.0
 30
0.0
  0
VERTEX
  5
2DA
330
2D9
100
AcDbEntity
  8
0
 62
     7
100
AcDbVertex
100
AcDb2dVertex
 10
100.6995184456686
 20
124.0865645755915
 30
0.0
  0
VERTEX
  5
2DB
330
2D9
100
AcDbEntity
  8
0
 62
     7
100
AcDbVertex
100
AcDb2dVertex
 10
100.6995184456686
 20
125.3674519220016
 30
0.0
  0
SEQEND
  5
2DC
330
2D9
100
AcDbEntity
  8
0
  0
POLYLINE
  5
2DD
330
1F
100
AcDbEntity
  8
0
 62
     7
100
AcDb2dPolyline
 66
     1
 10
0.0
 20
0.0
 30
0.0
  0
VERTEX
  5
2DE
330
2DD
100
AcDbEntity
  8
0
 62
     7
100
AcDbVertex
100
AcDb2dVertex
 10
89.40838279883703
 20
124.0124949737953
 30
0.0
  0
VERTEX
  5
2DF
330
2DD
100
AcDbEntity
  8
0
 62
     7
100
AcDbVertex
100
AcDb2dVertex
 10
95.77854080819608
 20
124.0124949737953
 30
0.0
  0
VERTEX
  5
2E0
330
2DD
100
AcDbEntity
  8
0
 62
     7
100
AcDbVertex
100
AcDb2dVertex
 10
95.77854080819608
 20
133.9488459273084
 30
0.0
  0
VERTEX
  5
2E1
330
2DD
100
AcDbEntity
  8
0
 62
     7
100
AcDbVertex
100
AcDb2dVertex
 10
89.40838279883703
 20
133.9488459273084
 30
0.0
  0
VERTEX
  5
2E2
330
2DD
100
AcDbEntity
  8
0
 62
     7
100
AcDbVertex
100
AcDb2dVertex
 10
89.40838279883703
 20
124.0124949737953
 30
0.0
  0
SEQEND
  5
2E3
330
2DD
100
AcDbEntity
  8
0
  0
POLYLINE
  5
2E4
330
1F
100
AcDbEntity
  8
0
 62
     7
100
AcDb2dPolyline
 66
     1
 10
0.0
 20
0.0
 30
0.0
  0
VERTEX
  5
2E5
330
2E4
100
AcDbEntity
  8
0
 62
     7
100
AcDbVertex
100
AcDb2dVertex
 10
89.40838279883703
 20
132.5925109399989
 30
0.0
  0
VERTEX
  5
2E6
330
2E4
100
AcDbEntity
  8
0
 62
     7
100
AcDbVertex
100
AcDb2dVertex
 10
95.77854080819608
 20
132.5925109399989
 30
0.0
  0
SEQEND
  5
2E7
330
2E4
100
AcDbEntity
  8
0
  0
POLYLINE
  5
2E8
330
1F
100
AcDbEntity
  8
0
 62
     7
100
AcDb2dPolyline
 66
     1
 10
0.0
 20
0.0
 30
0.0
  0
VERTEX
  5
2E9
330
2E8
100
AcDbEntity
  8
0
 62
     7
100
AcDbVertex
100
AcDb2dVertex
 10
94.78463010502414
 20
132.5925109399989
 30
0.0
  0
VERTEX
  5
2EA
330
2E8
100
AcDbEntity
  8
0
 62
     7
100
AcDbVertex
100
AcDb2dVertex
 10
94.78463010502414
 20
133.4968491014638
 30
0.0
  0
VERTEX
  5
2EB
330
2E8
100
AcDbEntity
  8
0
 62
     7
100
AcDbVertex
100
AcDb2dVertex
 10
90.40125997268159
 20
133.4968491014638
 30
0.0
  0
VERTEX
  5
2EC
330
2E8
100
AcDbEntity
  8
0
 62
     7
100
AcDbVertex
100
AcDb2dVertex
 10
90.40125997268159
 20
132.6686476004498
 30
0.0
  0
SEQEND
  5
2ED
330
2E8
100
AcDbEntity
  8
0
  0
POLYLINE
  5
2EE
330
1F
100
AcDbEntity
  8
0
 62
     7
100
AcDb2dPolyline
 66
     1
 10
0.0
 20
0.0
 30
0.0
  0
VERTEX
  5
2EF
330
2EE
100
AcDbEntity
  8
0
 62
     7
100
AcDbVertex
100
AcDb2dVertex
 10
95.77854080819608
 20
125.3674519220016
 30
0.0
  0
VERTEX
  5
2F0
330
2EE
100
AcDbEntity
  8
0
 62
     7
100
AcDbVertex
100
AcDb2dVertex
 10
89.40838279883703
 20
125.3674519220016
 30
0.0
  0
SEQEND
  5
2F1
330
2EE
100
AcDbEntity
  8
0
  0
POLYLINE
  5
2F2
330
1F
100
AcDbEntity
  8
0
 62
     7
100
AcDb2dPolyline
 66
     1
 10
0.0
 20
0.0
 30
0.0
  0
VERTEX
  5
2F3
330
2F2
100
AcDbEntity
  8
0
 62
     7
100
AcDbVertex
100
AcDb2dVertex
 10
95.77854080819608
 20
126.722408870208
 30
0.0
  0
VERTEX
  5
2F4
330
2F2
100
AcDbEntity
  8
0
 62
     7
100
AcDbVertex
100
AcDb2dVertex
 10
89.40838279883703
 20
126.722408870208
 30
0.0
  0
SEQEND
  5
2F5
330
2F2
100
AcDbEntity
  8
0
  0
POLYLINE
  5
2F6
330
1F
100
AcDbEntity
  8
0
 62
     7
100
AcDb2dPolyline
 66
     1
 10
0.0
 20
0.0
 30
0.0
  0
VERTEX
  5
2F7
330
2F6
100
AcDbEntity
  8
0
 62
     7
100
AcDbVertex
100
AcDb2dVertex
 10
90.40125997268159
 20
126.722408870208
 30
0.0
  0
VERTEX
  5
2F8
330
2F6
100
AcDbEntity
  8
0
 62
     7
100
AcDbVertex
100
AcDb2dVertex
 10
90.40125997268159
 20
126.1767053853468
 30
0.0
  0
VERTEX
  5
2F9
330
2F6
100
AcDbEntity
  8
0
 62
     7
100
AcDbVertex
100
AcDb2dVertex
 10
94.78463010502414
 20
126.1767053853468
 30
0.0
  0
VERTEX
  5
2FA
330
2F6
100
AcDbEntity
  8
0
 62
     7
100
AcDbVertex
100
AcDb2dVertex
 10
94.78463010502414
 20
126.6469612293086
 30
0.0
  0
SEQEND
  5
2FB
330
2F6
100
AcDbEntity
  8
0
  0
SPLINE
  5
2FC
330
1F
100
AcDbEntity
  8
0
 62
     7
100
AcDbSpline
210
0.0
220
0.0
230
1.0
 70
    11
 71
     3
 72
    23
 73
    19
 74
     0
 42
0.0000000001
 43
0.0000000001
 40
0.0
 40
0.0
 40
0.0
 40
0.0
 40
1.0
 40
1.0
 40
1.0
 40
2.0
 40
2.0
 40
2.0
 40
3.0
 40
3.0
 40
3.0
 40
4.0
 40
4.0
 40
4.0
 40
5.0
 40
5.0
 40
5.0
 40
6.0
 40
6.0
 40
6.0
 40
6.0
 10
95.47916181302922
 20
129.6559096111123
 30
0.0
 10
95.47916181302922
 20
131.2775171257849
 30
0.0
 10
94.17054142966747
 20
132.5914774106715
 30
0.0
 10
92.55616862028663
 20
132.5914774106715
 30
0.0
 10
90.94196806579367
 20
132.5914774106715
 30
0.0
 10
89.63334768243192
 20
131.2775171257849
 30
0.0
 10
89.63334768243192
 20
129.6559096111123
 30
0.0
 10
89.63334768243192
 20
128.0346466062156
 30
0.0
 10
90.94196806579367
 20
126.7203418115532
 30
0.0
 10
92.55616862028663
 20
126.7203418115532
 30
0.0
 10
94.17054142966747
 20
126.7203418115532
 30
0.0
 10
95.47916181302922
 20
128.0346466062156
 30
0.0
 10
95.47916181302922
 20
129.6559096111123
 30
0.0
 10
95.47916181302922
 20
129.6559096111123
 30
0.0
 10
95.47916181302922
 20
129.6559096111123
 30
0.0
 10
95.47916181302922
 20
129.6559096111123
 30
0.0
 10
95.47916181302922
 20
129.6559096111123
 30
0.0
 10
95.47916181302922
 20
129.6559096111123
 30
0.0
 10
95.47916181302922
 20
129.6559096111123
 30
0.0
  0
POLYLINE
  5
2FD
330
1F
100
AcDbEntity
  8
0
 62
     7
100
AcDb2dPolyline
 66
     1
 10
0.0
 20
0.0
 30
0.0
  0
VERTEX
  5
2FE
330
2FD
100
AcDbEntity
  8
0
 62
     7
100
AcDbVertex
100
AcDb2dVertex
 10
91.33057509289175
 20
130.7745328531225
 30
0.0
  0
VERTEX
  5
2FF
330
2FD
100
AcDbEntity
  8
0
 62
     7
100
AcDbVertex
100
AcDb2dVertex
 10
93.5559359896471
 20
128.5390089179812
 30
0.0
  0
SEQEND
  5
300
330
2FD
100
AcDbEntity
  8
0
  0
POLYLINE
  5
301
330
1F
100
AcDbEntity
  8
0
 62
     7
100
AcDb2dPolyline
 66
     1
 10
0.0
 20
0.0
 30
0.0
  0
VERTEX
  5
302
330
301
100
AcDbEntity
  8
0
 62
     7
100
AcDbVertex
100
AcDb2dVertex
 10
93.98054428831588
 20
131.1993134066792
 30
0.0
  0
VERTEX
  5
303
330
301
100
AcDbEntity
  8
0
 62
     7
100
AcDbVertex
100
AcDb2dVertex
 10
90.90613904911088
 20
128.1128503253213
 30
0.0
  0
SEQEND
  5
304
330
301
100
AcDbEntity
  8
0
  0
POLYLINE
  5
305
330
1F
100
AcDbEntity
  8
0
 62
     7
100
AcDb2dPolyline
 66
     1
 10
0.0
 20
0.0
 30
0.0
  0
VERTEX
  5
306
330
305
100
AcDbEntity
  8
0
 62
     7
100
AcDbVertex
100
AcDb2dVertex
 10
92.03130797686116
 20
124.0865645755915
 30
0.0
  0
VERTEX
  5
307
330
305
100
AcDbEntity
  8
0
 62
     7
100
AcDbVertex
100
AcDb2dVertex
 10
92.03130797686116
 20
125.3674519220016
 30
0.0
  0
SEQEND
  5
308
330
305
100
AcDbEntity
  8
0
  0
POLYLINE
  5
309
330
1F
100
AcDbEntity
  8
0
 62
     7
100
AcDb2dPolyline
 66
     1
 10
0.0
 20
0.0
 30
0.0
  0
VERTEX
  5
30A
330
309
100
AcDbEntity
  8
0
 62
     7
100
AcDbVertex
100
AcDb2dVertex
 10
92.8550308507898
 20
124.0865645755915
 30
0.0
  0
VERTEX
  5
30B
330
309
100
AcDbEntity
  8
0
 62
     7
100
AcDbVertex
100
AcDb2dVertex
 10
92.8550308507898
 20
125.3674519220016
 30
0.0
  0
SEQEND
  5
30C
330
309
100
AcDbEntity
  8
0
  0
POLYLINE
  5
30D
330
1F
100
AcDbEntity
  8
0
 62
     7
100
AcDb2dPolyline
 66
     1
 10
0.0
 20
0.0
 30
0.0
  0
VERTEX
  5
30E
330
30D
100
AcDbEntity
  8
0
 62
     7
100
AcDbVertex
100
AcDb2dVertex
 10
81.56320618440667
 20
124.0124949737953
 30
0.0
  0
VERTEX
  5
30F
330
30D
100
AcDbEntity
  8
0
 62
     7
100
AcDbVertex
100
AcDb2dVertex
 10
87.93388095842943
 20
124.0124949737953
 30
0.0
  0
VERTEX
  5
310
330
30D
100
AcDbEntity
  8
0
 62
     7
100
AcDbVertex
100
AcDb2dVertex
 10
87.93388095842943
 20
133.9488459273084
 30
0.0
  0
VERTEX
  5
311
330
30D
100
AcDbEntity
  8
0
 62
     7
100
AcDbVertex
100
AcDb2dVertex
 10
81.56320618440667
 20
133.9488459273084
 30
0.0
  0
VERTEX
  5
312
330
30D
100
AcDbEntity
  8
0
 62
     7
100
AcDbVertex
100
AcDb2dVertex
 10
81.56320618440667
 20
124.0124949737953
 30
0.0
  0
SEQEND
  5
313
330
30D
100
AcDbEntity
  8
0
  0
POLYLINE
  5
314
330
1F
100
AcDbEntity
  8
0
 62
     7
100
AcDb2dPolyline
 66
     1
 10
0.0
 20
0.0
 30
0.0
  0
VERTEX
  5
315
330
314
100
AcDbEntity
  8
0
 62
     7
100
AcDbVertex
100
AcDb2dVertex
 10
81.56320618440667
 20
132.5925109399989
 30
0.0
  0
VERTEX
  5
316
330
314
100
AcDbEntity
  8
0
 62
     7
100
AcDbVertex
100
AcDb2dVertex
 10
87.93405321331733
 20
132.5925109399989
 30
0.0
  0
SEQEND
  5
317
330
314
100
AcDbEntity
  8
0
  0
POLYLINE
  5
318
330
1F
100
AcDbEntity
  8
0
 62
     7
100
AcDb2dPolyline
 66
     1
 10
0.0
 20
0.0
 30
0.0
  0
VERTEX
  5
319
330
318
100
AcDbEntity
  8
0
 62
     7
100
AcDbVertex
100
AcDb2dVertex
 10
86.94083152969697
 20
132.5925109399989
 30
0.0
  0
VERTEX
  5
31A
330
318
100
AcDbEntity
  8
0
 62
     7
100
AcDbVertex
100
AcDb2dVertex
 10
86.94083152969697
 20
133.4968491014638
 30
0.0
  0
VERTEX
  5
31B
330
318
100
AcDbEntity
  8
0
 62
     7
100
AcDbVertex
100
AcDb2dVertex
 10
82.55694463269072
 20
133.4968491014638
 30
0.0
  0
VERTEX
  5
31C
330
318
100
AcDbEntity
  8
0
 62
     7
100
AcDbVertex
100
AcDb2dVertex
 10
82.55694463269072
 20
132.6686476004498
 30
0.0
  0
SEQEND
  5
31D
330
318
100
AcDbEntity
  8
0
  0
POLYLINE
  5
31E
330
1F
100
AcDbEntity
  8
0
 62
     7
100
AcDb2dPolyline
 66
     1
 10
0.0
 20
0.0
 30
0.0
  0
VERTEX
  5
31F
330
31E
100
AcDbEntity
  8
0
 62
     7
100
AcDbVertex
100
AcDb2dVertex
 10
87.93405321331733
 20
125.3674519220016
 30
0.0
  0
VERTEX
  5
320
330
31E
100
AcDbEntity
  8
0
 62
     7
100
AcDbVertex
100
AcDb2dVertex
 10
81.56320618440667
 20
125.3674519220016
 30
0.0
  0
SEQEND
  5
321
330
31E
100
AcDbEntity
  8
0
  0
POLYLINE
  5
322
330
1F
100
AcDbEntity
  8
0
 62
     7
100
AcDb2dPolyline
 66
     1
 10
0.0
 20
0.0
 30
0.0
  0
VERTEX
  5
323
330
322
100
AcDbEntity
  8
0
 62
     7
100
AcDbVertex
100
AcDb2dVertex
 10
87.93405321331733
 20
126.722408870208
 30
0.0
  0
VERTEX
  5
324
330
322
100
AcDbEntity
  8
0
 62
     7
100
AcDbVertex
100
AcDb2dVertex
 10
81.56320618440667
 20
126.722408870208
 30
0.0
  0
SEQEND
  5
325
330
322
100
AcDbEntity
  8
0
  0
POLYLINE
  5
326
330
1F
100
AcDbEntity
  8
0
 62
     7
100
AcDb2dPolyline
 66
     1
 10
0.0
 20
0.0
 30
0.0
  0
VERTEX
  5
327
330
326
100
AcDbEntity
  8
0
 62
     7
100
AcDbVertex
100
AcDb2dVertex
 10
82.55694463269072
 20
126.722408870208
 30
0.0
  0
VERTEX
  5
328
330
326
100
AcDbEntity
  8
0
 62
     7
100
AcDbVertex
100
AcDb2dVertex
 10
82.55694463269072
 20
126.1767053853468
 30
0.0
  0
VERTEX
  5
329
330
326
100
AcDbEntity
  8
0
 62
     7
100
AcDbVertex
100
AcDb2dVertex
 10
86.94083152969697
 20
126.1767053853468
 30
0.0
  0
VERTEX
  5
32A
330
326
100
AcDbEntity
  8
0
 62
     7
100
AcDbVertex
100
AcDb2dVertex
 10
86.94083152969697
 20
126.6469612293086
 30
0.0
  0
SEQEND
  5
32B
330
326
100
AcDbEntity
  8
0
  0
SPLINE
  5
32C
330
1F
100
AcDbEntity
  8
0
 62
     7
100
AcDbSpline
210
0.0
220
0.0
230
1.0
 70
    11
 71
     3
 72
    23
 73
    19
 74
     0
 42
0.0000000001
 43
0.0000000001
 40
0.0
 40
0.0
 40
0.0
 40
0.0
 40
1.0
 40
1.0
 40
1.0
 40
2.0
 40
2.0
 40
2.0
 40
3.0
 40
3.0
 40
3.0
 40
4.0
 40
4.0
 40
4.0
 40
5.0
 40
5.0
 40
5.0
 40
6.0
 40
6.0
 40
6.0
 40
6.0
 10
87.63415745348675
 20
129.6559096111123
 30
0.0
 10
87.63415745348675
 20
131.2775171257849
 30
0.0
 10
86.32553707012501
 20
132.5914774106715
 30
0.0
 10
84.71133651563206
 20
132.5914774106715
 30
0.0
 10
83.09713596113912
 20
132.5914774106715
 30
0.0
 10
81.78851557777736
 20
131.2775171257849
 30
0.0
 10
81.78851557777736
 20
129.6559096111123
 30
0.0
 10
81.78851557777736
 20
128.0346466062156
 30
0.0
 10
83.09713596113912
 20
126.7203418115532
 30
0.0
 10
84.71133651563206
 20
126.7203418115532
 30
0.0
 10
86.32553707012501
 20
126.7203418115532
 30
0.0
 10
87.63415745348675
 20
128.0346466062156
 30
0.0
 10
87.63415745348675
 20
129.6559096111123
 30
0.0
 10
87.63415745348675
 20
129.6559096111123
 30
0.0
 10
87.63415745348675
 20
129.6559096111123
 30
0.0
 10
87.63415745348675
 20
129.6559096111123
 30
0.0
 10
87.63415745348675
 20
129.6559096111123
 30
0.0
 10
87.63415745348675
 20
129.6559096111123
 30
0.0
 10
87.63415745348675
 20
129.6559096111123
 30
0.0
  0
POLYLINE
  5
32D
330
1F
100
AcDbEntity
  8
0
 62
     7
100
AcDb2dPolyline
 66
     1
 10
0.0
 20
0.0
 30
0.0
  0
VERTEX
  5
32E
330
32D
100
AcDbEntity
  8
0
 62
     7
100
AcDbVertex
100
AcDb2dVertex
 10
83.48574298823719
 20
130.7745328531225
 30
0.0
  0
VERTEX
  5
32F
330
32D
100
AcDbEntity
  8
0
 62
     7
100
AcDbVertex
100
AcDb2dVertex
 10
85.71196515943203
 20
128.5390089179812
 30
0.0
  0
SEQEND
  5
330
330
32D
100
AcDbEntity
  8
0
  0
POLYLINE
  5
331
330
1F
100
AcDbEntity
  8
0
 62
     7
100
AcDb2dPolyline
 66
     1
 10
0.0
 20
0.0
 30
0.0
  0
VERTEX
  5
332
330
331
100
AcDbEntity
  8
0
 62
     7
100
AcDbVertex
100
AcDb2dVertex
 10
86.13553992877343
 20
131.1993134066792
 30
0.0
  0
VERTEX
  5
333
330
331
100
AcDbEntity
  8
0
 62
     7
100
AcDbVertex
100
AcDb2dVertex
 10
83.06234047378369
 20
128.1128503253213
 30
0.0
  0
SEQEND
  5
334
330
331
100
AcDbEntity
  8
0
  0
POLYLINE
  5
335
330
1F
100
AcDbEntity
  8
0
 62
     7
100
AcDb2dPolyline
 66
     1
 10
0.0
 20
0.0
 30
0.0
  0
VERTEX
  5
336
330
335
100
AcDbEntity
  8
0
 62
     7
100
AcDbVertex
100
AcDb2dVertex
 10
84.1866481270945
 20
124.0865645755915
 30
0.0
  0
VERTEX
  5
337
330
335
100
AcDbEntity
  8
0
 62
     7
100
AcDbVertex
100
AcDb2dVertex
 10
84.1866481270945
 20
125.3674519220016
 30
0.0
  0
SEQEND
  5
338
330
335
100
AcDbEntity
  8
0
  0
POLYLINE
  5
339
330
1F
100
AcDbEntity
  8
0
 62
     7
100
AcDb2dPolyline
 66
     1
 10
0.0
 20
0.0
 30
0.0
  0
VERTEX
  5
33A
330
339
100
AcDbEntity
  8
0
 62
     7
100
AcDbVertex
100
AcDb2dVertex
 10
85.01088776568683
 20
124.0865645755915
 30
0.0
  0
VERTEX
  5
33B
330
339
100
AcDbEntity
  8
0
 62
     7
100
AcDbVertex
100
AcDb2dVertex
 10
85.01088776568683
 20
125.3674519220016
 30
0.0
  0
SEQEND
  5
33C
330
339
100
AcDbEntity
  8
0
  0
POLYLINE
  5
33D
330
1F
100
AcDbEntity
  8
0
 62
     7
100
AcDb2dPolyline
 66
     1
 10
0.0
 20
0.0
 30
0.0
  0
VERTEX
  5
33E
330
33D
100
AcDbEntity
  8
0
 62
     7
100
AcDbVertex
100
AcDb2dVertex
 10
73.7194076090795
 20
124.0124949737953
 30
0.0
  0
VERTEX
  5
33F
330
33D
100
AcDbEntity
  8
0
 62
     7
100
AcDbVertex
100
AcDb2dVertex
 10
80.08973787332646
 20
124.0124949737953
 30
0.0
  0
VERTEX
  5
340
330
33D
100
AcDbEntity
  8
0
 62
     7
100
AcDbVertex
100
AcDb2dVertex
 10
80.08973787332646
 20
133.9488459273084
 30
0.0
  0
VERTEX
  5
341
330
33D
100
AcDbEntity
  8
0
 62
     7
100
AcDbVertex
100
AcDb2dVertex
 10
73.7194076090795
 20
133.9488459273084
 30
0.0
  0
VERTEX
  5
342
330
33D
100
AcDbEntity
  8
0
 62
     7
100
AcDbVertex
100
AcDb2dVertex
 10
73.7194076090795
 20
124.0124949737953
 30
0.0
  0
SEQEND
  5
343
330
33D
100
AcDbEntity
  8
0
  0
POLYLINE
  5
344
330
1F
100
AcDbEntity
  8
0
 62
     7
100
AcDb2dPolyline
 66
     1
 10
0.0
 20
0.0
 30
0.0
  0
VERTEX
  5
345
330
344
100
AcDbEntity
  8
0
 62
     7
100
AcDbVertex
100
AcDb2dVertex
 10
73.7194076090795
 20
132.5925109399989
 30
0.0
  0
VERTEX
  5
346
330
344
100
AcDbEntity
  8
0
 62
     7
100
AcDbVertex
100
AcDb2dVertex
 10
80.08973787332646
 20
132.5925109399989
 30
0.0
  0
SEQEND
  5
347
330
344
100
AcDbEntity
  8
0
  0
POLYLINE
  5
348
330
1F
100
AcDbEntity
  8
0
 62
     7
100
AcDb2dPolyline
 66
     1
 10
0.0
 20
0.0
 30
0.0
  0
VERTEX
  5
349
330
348
100
AcDbEntity
  8
0
 62
     7
100
AcDbVertex
100
AcDb2dVertex
 10
79.09703295436979
 20
132.5925109399989
 30
0.0
  0
VERTEX
  5
34A
330
348
100
AcDbEntity
  8
0
 62
     7
100
AcDbVertex
100
AcDb2dVertex
 10
79.09703295436979
 20
133.4968491014638
 30
0.0
  0
VERTEX
  5
34B
330
348
100
AcDbEntity
  8
0
 62
     7
100
AcDbVertex
100
AcDb2dVertex
 10
74.71245703781196
 20
133.4968491014638
 30
0.0
  0
VERTEX
  5
34C
330
348
100
AcDbEntity
  8
0
 62
     7
100
AcDbVertex
100
AcDb2dVertex
 10
74.71245703781196
 20
132.6686476004498
 30
0.0
  0
SEQEND
  5
34D
330
348
100
AcDbEntity
  8
0
  0
POLYLINE
  5
34E
330
1F
100
AcDbEntity
  8
0
 62
     7
100
AcDb2dPolyline
 66
     1
 10
0.0
 20
0.0
 30
0.0
  0
VERTEX
  5
34F
330
34E
100
AcDbEntity
  8
0
 62
     7
100
AcDbVertex
100
AcDb2dVertex
 10
80.08973787332646
 20
125.3674519220016
 30
0.0
  0
VERTEX
  5
350
330
34E
100
AcDbEntity
  8
0
 62
     7
100
AcDbVertex
100
AcDb2dVertex
 10
73.7194076090795
 20
125.3674519220016
 30
0.0
  0
SEQEND
  5
351
330
34E
100
AcDbEntity
  8
0
  0
POLYLINE
  5
352
330
1F
100
AcDbEntity
  8
0
 62
     7
100
AcDb2dPolyline
 66
     1
 10
0.0
 20
0.0
 30
0.0
  0
VERTEX
  5
353
330
352
100
AcDbEntity
  8
0
 62
     7
100
AcDbVertex
100
AcDb2dVertex
 10
80.08973787332646
 20
126.722408870208
 30
0.0
  0
VERTEX
  5
354
330
352
100
AcDbEntity
  8
0
 62
     7
100
AcDbVertex
100
AcDb2dVertex
 10
73.7194076090795
 20
126.722408870208
 30
0.0
  0
SEQEND
  5
355
330
352
100
AcDbEntity
  8
0
  0
POLYLINE
  5
356
330
1F
100
AcDbEntity
  8
0
 62
     7
100
AcDb2dPolyline
 66
     1
 10
0.0
 20
0.0
 30
0.0
  0
VERTEX
  5
357
330
356
100
AcDbEntity
  8
0
 62
     7
100
AcDbVertex
100
AcDb2dVertex
 10
74.71245703781196
 20
126.722408870208
 30
0.0
  0
VERTEX
  5
358
330
356
100
AcDbEntity
  8
0
 62
     7
100
AcDbVertex
100
AcDb2dVertex
 10
74.71245703781196
 20
126.1767053853468
 30
0.0
  0
VERTEX
  5
359
330
356
100
AcDbEntity
  8
0
 62
     7
100
AcDbVertex
100
AcDb2dVertex
 10
79.09703295436979
 20
126.1767053853468
 30
0.0
  0
VERTEX
  5
35A
330
356
100
AcDbEntity
  8
0
 62
     7
100
AcDbVertex
100
AcDb2dVertex
 10
79.09703295436979
 20
126.6469612293086
 30
0.0
  0
SEQEND
  5
35B
330
356
100
AcDbEntity
  8
0
  0
SPLINE
  5
35C
330
1F
100
AcDbEntity
  8
0
 62
     7
100
AcDbSpline
210
0.0
220
0.0
230
1.0
 70
    11
 71
     3
 72
    23
 73
    19
 74
     0
 42
0.0000000001
 43
0.0000000001
 40
0.0
 40
0.0
 40
0.0
 40
0.0
 40
1.0
 40
1.0
 40
1.0
 40
2.0
 40
2.0
 40
2.0
 40
3.0
 40
3.0
 40
3.0
 40
4.0
 40
4.0
 40
4.0
 40
5.0
 40
5.0
 40
5.0
 40
6.0
 40
6.0
 40
6.0
 40
6.0
 10
79.79001436838379
 20
129.6559096111123
 30
0.0
 10
79.79001436838379
 20
131.2775171257849
 30
0.0
 10
78.48122173013414
 20
132.5918219204473
 30
0.0
 10
76.8668489207533
 20
132.5918219204473
 30
0.0
 10
75.25247611137245
 20
132.5918219204473
 30
0.0
 10
73.9438557280107
 20
131.2775171257849
 30
0.0
 10
73.9438557280107
 20
129.6559096111123
 30
0.0
 10
73.9438557280107
 20
128.0343020964398
 30
0.0
 10
75.25247611137245
 20
126.7199973017774
 30
0.0
 10
76.8668489207533
 20
126.7199973017774
 30
0.0
 10
78.48122173013414
 20
126.7199973017774
 30
0.0
 10
79.79001436838379
 20
128.0343020964398
 30
0.0
 10
79.79001436838379
 20
129.6559096111123
 30
0.0
 10
79.79001436838379
 20
129.6559096111123
 30
0.0
 10
79.79001436838379
 20
129.6559096111123
 30
0.0
 10
79.79001436838379
 20
129.6559096111123
 30
0.0
 10
79.79001436838379
 20
129.6559096111123
 30
0.0
 10
79.79001436838379
 20
129.6559096111123
 30
0.0
 10
79.79001436838379
 20
129.6559096111123
 30
0.0
  0
POLYLINE
  5
35D
330
1F
100
AcDbEntity
  8
0
 62
     7
100
AcDb2dPolyline
 66
     1
 10
0.0
 20
0.0
 30
0.0
  0
VERTEX
  5
35E
330
35D
100
AcDbEntity
  8
0
 62
     7
100
AcDbVertex
100
AcDb2dVertex
 10
75.64142764824632
 20
130.7745328531225
 30
0.0
  0
VERTEX
  5
35F
330
35D
100
AcDbEntity
  8
0
 62
     7
100
AcDbVertex
100
AcDb2dVertex
 10
77.86730530966537
 20
128.5390089179812
 30
0.0
  0
SEQEND
  5
360
330
35D
100
AcDbEntity
  8
0
  0
POLYLINE
  5
361
330
1F
100
AcDbEntity
  8
0
 62
     7
100
AcDb2dPolyline
 66
     1
 10
0.0
 20
0.0
 30
0.0
  0
VERTEX
  5
362
330
361
100
AcDbEntity
  8
0
 62
     7
100
AcDbVertex
100
AcDb2dVertex
 10
78.29105233389466
 20
131.1993134066792
 30
0.0
  0
VERTEX
  5
363
330
361
100
AcDbEntity
  8
0
 62
     7
100
AcDbVertex
100
AcDb2dVertex
 10
75.21733611424124
 20
128.1128503253213
 30
0.0
  0
SEQEND
  5
364
330
361
100
AcDbEntity
  8
0
  0
POLYLINE
  5
365
330
1F
100
AcDbEntity
  8
0
 62
     7
100
AcDb2dPolyline
 66
     1
 10
0.0
 20
0.0
 30
0.0
  0
VERTEX
  5
366
330
365
100
AcDbEntity
  8
0
 62
     7
100
AcDbVertex
100
AcDb2dVertex
 10
76.34267729687943
 20
124.0865645755915
 30
0.0
  0
VERTEX
  5
367
330
365
100
AcDbEntity
  8
0
 62
     7
100
AcDbVertex
100
AcDb2dVertex
 10
76.34267729687943
 20
125.3674519220016
 30
0.0
  0
SEQEND
  5
368
330
365
100
AcDbEntity
  8
0
  0
POLYLINE
  5
369
330
1F
100
AcDbEntity
  8
0
 62
     7
100
AcDb2dPolyline
 66
     1
 10
0.0
 20
0.0
 30
0.0
  0
VERTEX
  5
36A
330
369
100
AcDbEntity
  8
0
 62
     7
100
AcDbVertex
100
AcDb2dVertex
 10
77.16605566103227
 20
124.0865645755915
 30
0.0
  0
VERTEX
  5
36B
330
369
100
AcDbEntity
  8
0
 62
     7
100
AcDbVertex
100
AcDb2dVertex
 10
77.16605566103227
 20
125.3674519220016
 30
0.0
  0
SEQEND
  5
36C
330
369
100
AcDbEntity
  8
0
  0
POLYLINE
  5
36D
330
1F
100
AcDbEntity
  8
0
 62
     7
100
AcDb2dPolyline
 66
     1
 10
0.0
 20
0.0
 30
0.0
  0
VERTEX
  5
36E
330
36D
100
AcDbEntity
  8
0
 62
     7
100
AcDbVertex
100
AcDb2dVertex
 10
65.87509226908863
 20
124.0124949737953
 30
0.0
  0
VERTEX
  5
36F
330
36D
100
AcDbEntity
  8
0
 62
     7
100
AcDbVertex
100
AcDb2dVertex
 10
72.2449057686719
 20
124.0124949737953
 30
0.0
  0
VERTEX
  5
370
330
36D
100
AcDbEntity
  8
0
 62
     7
100
AcDbVertex
100
AcDb2dVertex
 10
72.2449057686719
 20
133.9488459273084
 30
0.0
  0
VERTEX
  5
371
330
36D
100
AcDbEntity
  8
0
 62
     7
100
AcDbVertex
100
AcDb2dVertex
 10
65.87509226908863
 20
133.9488459273084
 30
0.0
  0
VERTEX
  5
372
330
36D
100
AcDbEntity
  8
0
 62
     7
100
AcDbVertex
100
AcDb2dVertex
 10
65.87509226908863
 20
124.0124949737953
 30
0.0
  0
SEQEND
  5
373
330
36D
100
AcDbEntity
  8
0
  0
POLYLINE
  5
374
330
1F
100
AcDbEntity
  8
0
 62
     7
100
AcDb2dPolyline
 66
     1
 10
0.0
 20
0.0
 30
0.0
  0
VERTEX
  5
375
330
374
100
AcDbEntity
  8
0
 62
     7
100
AcDbVertex
100
AcDb2dVertex
 10
65.87509226908863
 20
132.5925109399989
 30
0.0
  0
VERTEX
  5
376
330
374
100
AcDbEntity
  8
0
 62
     7
100
AcDbVertex
100
AcDb2dVertex
 10
72.2449057686719
 20
132.5925109399989
 30
0.0
  0
SEQEND
  5
377
330
374
100
AcDbEntity
  8
0
  0
POLYLINE
  5
378
330
1F
100
AcDbEntity
  8
0
 62
     7
100
AcDb2dPolyline
 66
     1
 10
0.0
 20
0.0
 30
0.0
  0
VERTEX
  5
379
330
378
100
AcDbEntity
  8
0
 62
     7
100
AcDbVertex
100
AcDb2dVertex
 10
71.25185633993944
 20
132.5925109399989
 30
0.0
  0
VERTEX
  5
37A
330
378
100
AcDbEntity
  8
0
 62
     7
100
AcDbVertex
100
AcDb2dVertex
 10
71.25185633993944
 20
133.4968491014638
 30
0.0
  0
VERTEX
  5
37B
330
378
100
AcDbEntity
  8
0
 62
     7
100
AcDbVertex
100
AcDb2dVertex
 10
66.8674526782695
 20
133.4968491014638
 30
0.0
  0
VERTEX
  5
37C
330
378
100
AcDbEntity
  8
0
 62
     7
100
AcDbVertex
100
AcDb2dVertex
 10
66.8674526782695
 20
132.6686476004498
 30
0.0
  0
SEQEND
  5
37D
330
378
100
AcDbEntity
  8
0
  0
POLYLINE
  5
37E
330
1F
100
AcDbEntity
  8
0
 62
     7
100
AcDb2dPolyline
 66
     1
 10
0.0
 20
0.0
 30
0.0
  0
VERTEX
  5
37F
330
37E
100
AcDbEntity
  8
0
 62
     7
100
AcDbVertex
100
AcDb2dVertex
 10
72.2449057686719
 20
125.3674519220016
 30
0.0
  0
VERTEX
  5
380
330
37E
100
AcDbEntity
  8
0
 62
     7
100
AcDbVertex
100
AcDb2dVertex
 10
65.87509226908863
 20
125.3674519220016
 30
0.0
  0
SEQEND
  5
381
330
37E
100
AcDbEntity
  8
0
  0
POLYLINE
  5
382
330
1F
100
AcDbEntity
  8
0
 62
     7
100
AcDb2dPolyline
 66
     1
 10
0.0
 20
0.0
 30
0.0
  0
VERTEX
  5
383
330
382
100
AcDbEntity
  8
0
 62
     7
100
AcDbVertex
100
AcDb2dVertex
 10
72.2449057686719
 20
126.722408870208
 30
0.0
  0
VERTEX
  5
384
330
382
100
AcDbEntity
  8
0
 62
     7
100
AcDbVertex
100
AcDb2dVertex
 10
65.87509226908863
 20
126.722408870208
 30
0.0
  0
SEQEND
  5
385
330
382
100
AcDbEntity
  8
0
  0
POLYLINE
  5
386
330
1F
100
AcDbEntity
  8
0
 62
     7
100
AcDb2dPolyline
 66
     1
 10
0.0
 20
0.0
 30
0.0
  0
VERTEX
  5
387
330
386
100
AcDbEntity
  8
0
 62
     7
100
AcDbVertex
100
AcDb2dVertex
 10
66.8674526782695
 20
126.722408870208
 30
0.0
  0
VERTEX
  5
388
330
386
100
AcDbEntity
  8
0
 62
     7
100
AcDbVertex
100
AcDb2dVertex
 10
66.8674526782695
 20
126.1767053853468
 30
0.0
  0
VERTEX
  5
389
330
386
100
AcDbEntity
  8
0
 62
     7
100
AcDbVertex
100
AcDb2dVertex
 10
71.25185633993944
 20
126.1767053853468
 30
0.0
  0
VERTEX
  5
38A
330
386
100
AcDbEntity
  8
0
 62
     7
100
AcDbVertex
100
AcDb2dVertex
 10
71.25185633993944
 20
126.6469612293086
 30
0.0
  0
SEQEND
  5
38B
330
386
100
AcDbEntity
  8
0
  0
SPLINE
  5
38C
330
1F
100
AcDbEntity
  8
0
 62
     7
100
AcDbSpline
210
0.0
220
0.0
230
1.0
 70
    11
 71
     3
 72
    23
 73
    19
 74
     0
 42
0.0000000001
 43
0.0000000001
 40
0.0
 40
0.0
 40
0.0
 40
0.0
 40
1.0
 40
1.0
 40
1.0
 40
2.0
 40
2.0
 40
2.0
 40
3.0
 40
3.0
 40
3.0
 40
4.0
 40
4.0
 40
4.0
 40
5.0
 40
5.0
 40
5.0
 40
6.0
 40
6.0
 40
6.0
 40
6.0
 10
71.94518226372922
 20
129.6559096111123
 30
0.0
 10
71.94518226372922
 20
131.2771726160091
 30
0.0
 10
70.63673413525538
 20
132.5911329008957
 30
0.0
 10
69.02270583565033
 20
132.5911329008957
 30
0.0
 10
67.40867753604528
 20
132.5911329008957
 30
0.0
 10
66.10022940757143
 20
131.2771726160091
 30
0.0
 10
66.10022940757143
 20
129.6559096111123
 30
0.0
 10
66.10022940757143
 20
128.0346466062156
 30
0.0
 10
67.40867753604528
 20
126.720686321329
 30
0.0
 10
69.02270583565033
 20
126.720686321329
 30
0.0
 10
70.63673413525538
 20
126.720686321329
 30
0.0
 10
71.94518226372922
 20
128.0346466062156
 30
0.0
 10
71.94518226372922
 20
129.6559096111123
 30
0.0
 10
71.94518226372922
 20
129.6559096111123
 30
0.0
 10
71.94518226372922
 20
129.6559096111123
 30
0.0
 10
71.94518226372922
 20
129.6559096111123
 30
0.0
 10
71.94518226372922
 20
129.6559096111123
 30
0.0
 10
71.94518226372922
 20
129.6559096111123
 30
0.0
 10
71.94518226372922
 20
129.6559096111123
 30
0.0
  0
POLYLINE
  5
38D
330
1F
100
AcDbEntity
  8
0
 62
     7
100
AcDb2dPolyline
 66
     1
 10
0.0
 20
0.0
 30
0.0
  0
VERTEX
  5
38E
330
38D
100
AcDbEntity
  8
0
 62
     7
100
AcDbVertex
100
AcDb2dVertex
 10
67.79745681803125
 20
130.7745328531225
 30
0.0
  0
VERTEX
  5
38F
330
38D
100
AcDbEntity
  8
0
 62
     7
100
AcDbVertex
100
AcDb2dVertex
 10
70.0229899696745
 20
128.5390089179812
 30
0.0
  0
SEQEND
  5
390
330
38D
100
AcDbEntity
  8
0
  0
POLYLINE
  5
391
330
1F
100
AcDbEntity
  8
0
 62
     7
100
AcDb2dPolyline
 66
     1
 10
0.0
 20
0.0
 30
0.0
  0
VERTEX
  5
392
330
391
100
AcDbEntity
  8
0
 62
     7
100
AcDbVertex
100
AcDb2dVertex
 10
70.44673699390378
 20
131.1993134066792
 30
0.0
  0
VERTEX
  5
393
330
391
100
AcDbEntity
  8
0
 62
     7
100
AcDbVertex
100
AcDb2dVertex
 10
67.37319302913826
 20
128.1128503253213
 30
0.0
  0
SEQEND
  5
394
330
391
100
AcDbEntity
  8
0
  0
POLYLINE
  5
395
330
1F
100
AcDbEntity
  8
0
 62
     7
100
AcDb2dPolyline
 66
     1
 10
0.0
 20
0.0
 30
0.0
  0
VERTEX
  5
396
330
395
100
AcDbEntity
  8
0
 62
     7
100
AcDbVertex
100
AcDb2dVertex
 10
68.49801744711276
 20
124.0865645755915
 30
0.0
  0
VERTEX
  5
397
330
395
100
AcDbEntity
  8
0
 62
     7
100
AcDbVertex
100
AcDb2dVertex
 10
68.49801744711276
 20
125.3674519220016
 30
0.0
  0
SEQEND
  5
398
330
395
100
AcDbEntity
  8
0
  0
POLYLINE
  5
399
330
1F
100
AcDbEntity
  8
0
 62
     7
100
AcDb2dPolyline
 66
     1
 10
0.0
 20
0.0
 30
0.0
  0
VERTEX
  5
39A
330
399
100
AcDbEntity
  8
0
 62
     7
100
AcDbVertex
100
AcDb2dVertex
 10
69.3213958112656
 20
124.0865645755915
 30
0.0
  0
VERTEX
  5
39B
330
399
100
AcDbEntity
  8
0
 62
     7
100
AcDbVertex
100
AcDb2dVertex
 10
69.3213958112656
 20
125.3674519220016
 30
0.0
  0
SEQEND
  5
39C
330
399
100
AcDbEntity
  8
0
  0
POLYLINE
  5
39D
330
1F
100
AcDbEntity
  8
0
 62
     7
100
AcDb2dPolyline
 66
     1
 10
0.0
 20
0.0
 30
0.0
  0
VERTEX
  5
39E
330
39D
100
AcDbEntity
  8
0
 62
     7
100
AcDbVertex
100
AcDb2dVertex
 10
58.03112143887356
 20
124.0124949737953
 30
0.0
  0
VERTEX
  5
39F
330
39D
100
AcDbEntity
  8
0
 62
     7
100
AcDbVertex
100
AcDb2dVertex
 10
64.40059042868103
 20
124.0124949737953
 30
0.0
  0
VERTEX
  5
3A0
330
39D
100
AcDbEntity
  8
0
 62
     7
100
AcDbVertex
100
AcDb2dVertex
 10
64.40059042868103
 20
133.9488459273084
 30
0.0
  0
VERTEX
  5
3A1
330
39D
100
AcDbEntity
  8
0
 62
     7
100
AcDbVertex
100
AcDb2dVertex
 10
58.03112143887356
 20
133.9488459273084
 30
0.0
  0
VERTEX
  5
3A2
330
39D
100
AcDbEntity
  8
0
 62
     7
100
AcDbVertex
100
AcDb2dVertex
 10
58.03112143887356
 20
124.0124949737953
 30
0.0
  0
SEQEND
  5
3A3
330
39D
100
AcDbEntity
  8
0
  0
POLYLINE
  5
3A4
330
1F
100
AcDbEntity
  8
0
 62
     7
100
AcDb2dPolyline
 66
     1
 10
0.0
 20
0.0
 30
0.0
  0
VERTEX
  5
3A5
330
3A4
100
AcDbEntity
  8
0
 62
     7
100
AcDbVertex
100
AcDb2dVertex
 10
58.03112143887356
 20
132.5925109399989
 30
0.0
  0
VERTEX
  5
3A6
330
3A4
100
AcDbEntity
  8
0
 62
     7
100
AcDbVertex
100
AcDb2dVertex
 10
64.40076268356893
 20
132.5925109399989
 30
0.0
  0
SEQEND
  5
3A7
330
3A4
100
AcDbEntity
  8
0
  0
POLYLINE
  5
3A8
330
1F
100
AcDbEntity
  8
0
 62
     7
100
AcDb2dPolyline
 66
     1
 10
0.0
 20
0.0
 30
0.0
  0
VERTEX
  5
3A9
330
3A8
100
AcDbEntity
  8
0
 62
     7
100
AcDbVertex
100
AcDb2dVertex
 10
63.40788550972437
 20
132.5925109399989
 30
0.0
  0
VERTEX
  5
3AA
330
3A8
100
AcDbEntity
  8
0
 62
     7
100
AcDbVertex
100
AcDb2dVertex
 10
63.40788550972437
 20
133.4968491014638
 30
0.0
  0
VERTEX
  5
3AB
330
3A8
100
AcDbEntity
  8
0
 62
     7
100
AcDbVertex
100
AcDb2dVertex
 10
59.02330959316652
 20
133.4968491014638
 30
0.0
  0
VERTEX
  5
3AC
330
3A8
100
AcDbEntity
  8
0
 62
     7
100
AcDbVertex
100
AcDb2dVertex
 10
59.02330959316652
 20
132.6686476004498
 30
0.0
  0
SEQEND
  5
3AD
330
3A8
100
AcDbEntity
  8
0
  0
POLYLINE
  5
3AE
330
1F
100
AcDbEntity
  8
0
 62
     7
100
AcDb2dPolyline
 66
     1
 10
0.0
 20
0.0
 30
0.0
  0
VERTEX
  5
3AF
330
3AE
100
AcDbEntity
  8
0
 62
     7
100
AcDbVertex
100
AcDb2dVertex
 10
64.40076268356893
 20
125.3674519220016
 30
0.0
  0
VERTEX
  5
3B0
330
3AE
100
AcDbEntity
  8
0
 62
     7
100
AcDbVertex
100
AcDb2dVertex
 10
58.03112143887356
 20
125.3674519220016
 30
0.0
  0
SEQEND
  5
3B1
330
3AE
100
AcDbEntity
  8
0
  0
POLYLINE
  5
3B2
330
1F
100
AcDbEntity
  8
0
 62
     7
100
AcDb2dPolyline
 66
     1
 10
0.0
 20
0.0
 30
0.0
  0
VERTEX
  5
3B3
330
3B2
100
AcDbEntity
  8
0
 62
     7
100
AcDbVertex
100
AcDb2dVertex
 10
64.40076268356893
 20
126.722408870208
 30
0.0
  0
VERTEX
  5
3B4
330
3B2
100
AcDbEntity
  8
0
 62
     7
100
AcDbVertex
100
AcDb2dVertex
 10
58.03112143887356
 20
126.722408870208
 30
0.0
  0
SEQEND
  5
3B5
330
3B2
100
AcDbEntity
  8
0
  0
POLYLINE
  5
3B6
330
1F
100
AcDbEntity
  8
0
 62
     7
100
AcDb2dPolyline
 66
     1
 10
0.0
 20
0.0
 30
0.0
  0
VERTEX
  5
3B7
330
3B6
100
AcDbEntity
  8
0
 62
     7
100
AcDbVertex
100
AcDb2dVertex
 10
59.02330959316652
 20
126.722408870208
 30
0.0
  0
VERTEX
  5
3B8
330
3B6
100
AcDbEntity
  8
0
 62
     7
100
AcDbVertex
100
AcDb2dVertex
 10
59.02330959316652
 20
126.1767053853468
 30
0.0
  0
VERTEX
  5
3B9
330
3B6
100
AcDbEntity
  8
0
 62
     7
100
AcDbVertex
100
AcDb2dVertex
 10
63.40788550972437
 20
126.1767053853468
 30
0.0
  0
VERTEX
  5
3BA
330
3B6
100
AcDbEntity
  8
0
 62
     7
100
AcDbVertex
100
AcDb2dVertex
 10
63.40788550972437
 20
126.6469612293086
 30
0.0
  0
SEQEND
  5
3BB
330
3B6
100
AcDbEntity
  8
0
  0
SPLINE
  5
3BC
330
1F
100
AcDbEntity
  8
0
 62
     7
100
AcDbSpline
210
0.0
220
0.0
230
1.0
 70
    11
 71
     3
 72
    23
 73
    19
 74
     0
 42
0.0000000001
 43
0.0000000001
 40
0.0
 40
0.0
 40
0.0
 40
0.0
 40
1.0
 40
1.0
 40
1.0
 40
2.0
 40
2.0
 40
2.0
 40
3.0
 40
3.0
 40
3.0
 40
4.0
 40
4.0
 40
4.0
 40
5.0
 40
5.0
 40
5.0
 40
6.0
 40
6.0
 40
6.0
 40
6.0
 10
64.10121143351415
 20
129.6559096111123
 30
0.0
 10
64.10121143351415
 20
131.2775171257849
 30
0.0
 10
62.79259105015241
 20
132.5914774106715
 30
0.0
 10
61.17839049565946
 20
132.5914774106715
 30
0.0
 10
59.56401768627861
 20
132.5914774106715
 30
0.0
 10
58.25539730291687
 20
131.2775171257849
 30
0.0
 10
58.25539730291687
 20
129.6559096111123
 30
0.0
 10
58.25539730291687
 20
128.0343020964398
 30
0.0
 10
59.56401768627861
 20
126.7203418115532
 30
0.0
 10
61.17839049565946
 20
126.7203418115532
 30
0.0
 10
62.79259105015241
 20
126.7203418115532
 30
0.0
 10
64.10121143351415
 20
128.0343020964398
 30
0.0
 10
64.10121143351415
 20
129.6559096111123
 30
0.0
 10
64.10121143351415
 20
129.6559096111123
 30
0.0
 10
64.10121143351415
 20
129.6559096111123
 30
0.0
 10
64.10121143351415
 20
129.6559096111123
 30
0.0
 10
64.10121143351415
 20
129.6559096111123
 30
0.0
 10
64.10121143351415
 20
129.6559096111123
 30
0.0
 10
64.10121143351415
 20
129.6559096111123
 30
0.0
  0
POLYLINE
  5
3BD
330
1F
100
AcDbEntity
  8
0
 62
     7
100
AcDb2dPolyline
 66
     1
 10
0.0
 20
0.0
 30
0.0
  0
VERTEX
  5
3BE
330
3BD
100
AcDbEntity
  8
0
 62
     7
100
AcDbVertex
100
AcDb2dVertex
 10
59.95262471337669
 20
130.7745328531225
 30
0.0
  0
VERTEX
  5
3BF
330
3BD
100
AcDbEntity
  8
0
 62
     7
100
AcDbVertex
100
AcDb2dVertex
 10
62.17833011990784
 20
128.5390089179812
 30
0.0
  0
SEQEND
  5
3C0
330
3BD
100
AcDbEntity
  8
0
  0
POLYLINE
  5
3C1
330
1F
100
AcDbEntity
  8
0
 62
     7
100
AcDb2dPolyline
 66
     1
 10
0.0
 20
0.0
 30
0.0
  0
VERTEX
  5
3C2
330
3C1
100
AcDbEntity
  8
0
 62
     7
100
AcDbVertex
100
AcDb2dVertex
 10
62.60224939902503
 20
131.1993134066792
 30
0.0
  0
VERTEX
  5
3C3
330
3C1
100
AcDbEntity
  8
0
 62
     7
100
AcDbVertex
100
AcDb2dVertex
 10
59.52853317937161
 20
128.1128503253213
 30
0.0
  0
SEQEND
  5
3C4
330
3C1
100
AcDbEntity
  8
0
  0
POLYLINE
  5
3C5
330
1F
100
AcDbEntity
  8
0
 62
     7
100
AcDb2dPolyline
 66
     1
 10
0.0
 20
0.0
 30
0.0
  0
VERTEX
  5
3C6
330
3C5
100
AcDbEntity
  8
0
 62
     7
100
AcDbVertex
100
AcDb2dVertex
 10
60.6530130875703
 20
124.0865645755915
 30
0.0
  0
VERTEX
  5
3C7
330
3C5
100
AcDbEntity
  8
0
 62
     7
100
AcDbVertex
100
AcDb2dVertex
 10
60.6530130875703
 20
125.3674519220016
 30
0.0
  0
SEQEND
  5
3C8
330
3C5
100
AcDbEntity
  8
0
  0
POLYLINE
  5
3C9
330
1F
100
AcDbEntity
  8
0
 62
     7
100
AcDb2dPolyline
 66
     1
 10
0.0
 20
0.0
 30
0.0
  0
VERTEX
  5
3CA
330
3C9
100
AcDbEntity
  8
0
 62
     7
100
AcDbVertex
100
AcDb2dVertex
 10
61.47794174571423
 20
124.0865645755915
 30
0.0
  0
VERTEX
  5
3CB
330
3C9
100
AcDbEntity
  8
0
 62
     7
100
AcDbVertex
100
AcDb2dVertex
 10
61.47794174571423
 20
125.3674519220016
 30
0.0
  0
SEQEND
  5
3CC
330
3C9
100
AcDbEntity
  8
0
  0
POLYLINE
  5
3CD
330
1F
100
AcDbEntity
  8
0
 62
     7
100
AcDb2dPolyline
 66
     1
 10
0.0
 20
0.0
 30
0.0
  0
VERTEX
  5
3CE
330
3CD
100
AcDbEntity
  8
0
 62
     7
100
AcDbVertex
100
AcDb2dVertex
 10
50.1864615891069
 20
124.0124949737953
 30
0.0
  0
VERTEX
  5
3CF
330
3CD
100
AcDbEntity
  8
0
 62
     7
100
AcDbVertex
100
AcDb2dVertex
 10
56.55661959846596
 20
124.0124949737953
 30
0.0
  0
VERTEX
  5
3D0
330
3CD
100
AcDbEntity
  8
0
 62
     7
100
AcDbVertex
100
AcDb2dVertex
 10
56.55661959846596
 20
133.9488459273084
 30
0.0
  0
VERTEX
  5
3D1
330
3CD
100
AcDbEntity
  8
0
 62
     7
100
AcDbVertex
100
AcDb2dVertex
 10
50.1864615891069
 20
133.9488459273084
 30
0.0
  0
VERTEX
  5
3D2
330
3CD
100
AcDbEntity
  8
0
 62
     7
100
AcDbVertex
100
AcDb2dVertex
 10
50.1864615891069
 20
124.0124949737953
 30
0.0
  0
SEQEND
  5
3D3
330
3CD
100
AcDbEntity
  8
0
  0
POLYLINE
  5
3D4
330
1F
100
AcDbEntity
  8
0
 62
     7
100
AcDb2dPolyline
 66
     1
 10
0.0
 20
0.0
 30
0.0
  0
VERTEX
  5
3D5
330
3D4
100
AcDbEntity
  8
0
 62
     7
100
AcDbVertex
100
AcDb2dVertex
 10
50.1864615891069
 20
132.5925109399989
 30
0.0
  0
VERTEX
  5
3D6
330
3D4
100
AcDbEntity
  8
0
 62
     7
100
AcDbVertex
100
AcDb2dVertex
 10
56.55661959846596
 20
132.5925109399989
 30
0.0
  0
SEQEND
  5
3D7
330
3D4
100
AcDbEntity
  8
0
  0
POLYLINE
  5
3D8
330
1F
100
AcDbEntity
  8
0
 62
     7
100
AcDb2dPolyline
 66
     1
 10
0.0
 20
0.0
 30
0.0
  0
VERTEX
  5
3D9
330
3D8
100
AcDbEntity
  8
0
 62
     7
100
AcDbVertex
100
AcDb2dVertex
 10
55.5640869343972
 20
132.5925109399989
 30
0.0
  0
VERTEX
  5
3DA
330
3D8
100
AcDbEntity
  8
0
 62
     7
100
AcDbVertex
100
AcDb2dVertex
 10
55.5640869343972
 20
133.4968491014638
 30
0.0
  0
VERTEX
  5
3DB
330
3D8
100
AcDbEntity
  8
0
 62
     7
100
AcDbVertex
100
AcDb2dVertex
 10
51.17899425317566
 20
133.4968491014638
 30
0.0
  0
VERTEX
  5
3DC
330
3D8
100
AcDbEntity
  8
0
 62
     7
100
AcDbVertex
100
AcDb2dVertex
 10
51.17899425317566
 20
132.6686476004498
 30
0.0
  0
SEQEND
  5
3DD
330
3D8
100
AcDbEntity
  8
0
  0
POLYLINE
  5
3DE
330
1F
100
AcDbEntity
  8
0
 62
     7
100
AcDb2dPolyline
 66
     1
 10
0.0
 20
0.0
 30
0.0
  0
VERTEX
  5
3DF
330
3DE
100
AcDbEntity
  8
0
 62
     7
100
AcDbVertex
100
AcDb2dVertex
 10
56.55661959846596
 20
125.3674519220016
 30
0.0
  0
VERTEX
  5
3E0
330
3DE
100
AcDbEntity
  8
0
 62
     7
100
AcDbVertex
100
AcDb2dVertex
 10
50.1864615891069
 20
125.3674519220016
 30
0.0
  0
SEQEND
  5
3E1
330
3DE
100
AcDbEntity
  8
0
  0
POLYLINE
  5
3E2
330
1F
100
AcDbEntity
  8
0
 62
     7
100
AcDb2dPolyline
 66
     1
 10
0.0
 20
0.0
 30
0.0
  0
VERTEX
  5
3E3
330
3E2
100
AcDbEntity
  8
0
 62
     7
100
AcDbVertex
100
AcDb2dVertex
 10
56.55661959846596
 20
126.722408870208
 30
0.0
  0
VERTEX
  5
3E4
330
3E2
100
AcDbEntity
  8
0
 62
     7
100
AcDbVertex
100
AcDb2dVertex
 10
50.1864615891069
 20
126.722408870208
 30
0.0
  0
SEQEND
  5
3E5
330
3E2
100
AcDbEntity
  8
0
  0
POLYLINE
  5
3E6
330
1F
100
AcDbEntity
  8
0
 62
     7
100
AcDb2dPolyline
 66
     1
 10
0.0
 20
0.0
 30
0.0
  0
VERTEX
  5
3E7
330
3E6
100
AcDbEntity
  8
0
 62
     7
100
AcDbVertex
100
AcDb2dVertex
 10
51.17899425317566
 20
126.722408870208
 30
0.0
  0
VERTEX
  5
3E8
330
3E6
100
AcDbEntity
  8
0
 62
     7
100
AcDbVertex
100
AcDb2dVertex
 10
51.17899425317566
 20
126.1767053853468
 30
0.0
  0
VERTEX
  5
3E9
330
3E6
100
AcDbEntity
  8
0
 62
     7
100
AcDbVertex
100
AcDb2dVertex
 10
55.5640869343972
 20
126.1767053853468
 30
0.0
  0
VERTEX
  5
3EA
330
3E6
100
AcDbEntity
  8
0
 62
     7
100
AcDbVertex
100
AcDb2dVertex
 10
55.5640869343972
 20
126.6469612293086
 30
0.0
  0
SEQEND
  5
3EB
330
3E6
100
AcDbEntity
  8
0
  0
SPLINE
  5
3EC
330
1F
100
AcDbEntity
  8
0
 62
     7
100
AcDbSpline
210
0.0
220
0.0
230
1.0
 70
    11
 71
     3
 72
    23
 73
    19
 74
     0
 42
0.0000000001
 43
0.0000000001
 40
0.0
 40
0.0
 40
0.0
 40
0.0
 40
1.0
 40
1.0
 40
1.0
 40
2.0
 40
2.0
 40
2.0
 40
3.0
 40
3.0
 40
3.0
 40
4.0
 40
4.0
 40
4.0
 40
5.0
 40
5.0
 40
5.0
 40
6.0
 40
6.0
 40
6.0
 40
6.0
 10
56.25620707397169
 20
129.6559096111123
 30
0.0
 10
56.25620707397169
 20
131.2771726160091
 30
0.0
 10
54.94758669060995
 20
132.5914774106715
 30
0.0
 10
53.333386136117
 20
132.5914774106715
 30
0.0
 10
51.71935783651195
 20
132.5914774106715
 30
0.0
 10
50.4107374531502
 20
131.2771726160091
 30
0.0
 10
50.4107374531502
 20
129.6559096111123
 30
0.0
 10
50.4107374531502
 20
128.0346466062156
 30
0.0
 10
51.71935783651195
 20
126.720686321329
 30
0.0
 10
53.333386136117
 20
126.720686321329
 30
0.0
 10
54.94758669060995
 20
126.720686321329
 30
0.0
 10
56.25620707397169
 20
128.0346466062156
 30
0.0
 10
56.25620707397169
 20
129.6559096111123
 30
0.0
 10
56.25620707397169
 20
129.6559096111123
 30
0.0
 10
56.25620707397169
 20
129.6559096111123
 30
0.0
 10
56.25620707397169
 20
129.6559096111123
 30
0.0
 10
56.25620707397169
 20
129.6559096111123
 30
0.0
 10
56.25620707397169
 20
129.6559096111123
 30
0.0
 10
56.25620707397169
 20
129.6559096111123
 30
0.0
  0
POLYLINE
  5
3ED
330
1F
100
AcDbEntity
  8
0
 62
     7
100
AcDb2dPolyline
 66
     1
 10
0.0
 20
0.0
 30
0.0
  0
VERTEX
  5
3EE
330
3ED
100
AcDbEntity
  8
0
 62
     7
100
AcDbVertex
100
AcDb2dVertex
 10
52.10762035383424
 20
130.7745328531225
 30
0.0
  0
VERTEX
  5
3EF
330
3ED
100
AcDbEntity
  8
0
 62
     7
100
AcDbVertex
100
AcDb2dVertex
 10
54.33401477991698
 20
128.5390089179812
 30
0.0
  0
SEQEND
  5
3F0
330
3ED
100
AcDbEntity
  8
0
  0
POLYLINE
  5
3F1
330
1F
100
AcDbEntity
  8
0
 62
     7
100
AcDb2dPolyline
 66
     1
 10
0.0
 20
0.0
 30
0.0
  0
VERTEX
  5
3F2
330
3F1
100
AcDbEntity
  8
0
 62
     7
100
AcDbVertex
100
AcDb2dVertex
 10
54.75845082369786
 20
131.1993134066792
 30
0.0
  0
VERTEX
  5
3F3
330
3F1
100
AcDbEntity
  8
0
 62
     7
100
AcDbVertex
100
AcDb2dVertex
 10
51.68387332960494
 20
128.1128503253213
 30
0.0
  0
SEQEND
  5
3F4
330
3F1
100
AcDbEntity
  8
0
  0
POLYLINE
  5
3F5
330
1F
100
AcDbEntity
  8
0
 62
     7
100
AcDb2dPolyline
 66
     1
 10
0.0
 20
0.0
 30
0.0
  0
VERTEX
  5
3F6
330
3F5
100
AcDbEntity
  8
0
 62
     7
100
AcDbVertex
100
AcDb2dVertex
 10
52.80869774757944
 20
124.0865645755915
 30
0.0
  0
VERTEX
  5
3F7
330
3F5
100
AcDbEntity
  8
0
 62
     7
100
AcDbVertex
100
AcDb2dVertex
 10
52.80869774757944
 20
125.3674519220016
 30
0.0
  0
SEQEND
  5
3F8
330
3F5
100
AcDbEntity
  8
0
  0
POLYLINE
  5
3F9
330
1F
100
AcDbEntity
  8
0
 62
     7
100
AcDb2dPolyline
 66
     1
 10
0.0
 20
0.0
 30
0.0
  0
VERTEX
  5
3FA
330
3F9
100
AcDbEntity
  8
0
 62
     7
100
AcDbVertex
100
AcDb2dVertex
 10
53.63293738617177
 20
124.0865645755915
 30
0.0
  0
VERTEX
  5
3FB
330
3F9
100
AcDbEntity
  8
0
 62
     7
100
AcDbVertex
100
AcDb2dVertex
 10
53.63293738617177
 20
125.3674519220016
 30
0.0
  0
SEQEND
  5
3FC
330
3F9
100
AcDbEntity
  8
0
  0
POLYLINE
  5
3FD
330
1F
100
AcDbEntity
  8
0
 62
     7
100
AcDb2dPolyline
 66
     1
 10
0.0
 20
0.0
 30
0.0
  0
VERTEX
  5
3FE
330
3FD
100
AcDbEntity
  8
0
 62
     7
100
AcDbVertex
100
AcDb2dVertex
 10
42.34231850400393
 20
124.0124949737953
 30
0.0
  0
VERTEX
  5
3FF
330
3FD
100
AcDbEntity
  8
0
 62
     7
100
AcDbVertex
100
AcDb2dVertex
 10
48.71230425847509
 20
124.0124949737953
 30
0.0
  0
VERTEX
  5
400
330
3FD
100
AcDbEntity
  8
0
 62
     7
100
AcDbVertex
100
AcDb2dVertex
 10
48.71230425847509
 20
133.9488459273084
 30
0.0
  0
VERTEX
  5
401
330
3FD
100
AcDbEntity
  8
0
 62
     7
100
AcDbVertex
100
AcDb2dVertex
 10
42.34231850400393
 20
133.9488459273084
 30
0.0
  0
VERTEX
  5
402
330
3FD
100
AcDbEntity
  8
0
 62
     7
100
AcDbVertex
100
AcDb2dVertex
 10
42.34231850400393
 20
124.0124949737953
 30
0.0
  0
SEQEND
  5
403
330
3FD
100
AcDbEntity
  8
0
  0
POLYLINE
  5
404
330
1F
100
AcDbEntity
  8
0
 62
     7
100
AcDb2dPolyline
 66
     1
 10
0.0
 20
0.0
 30
0.0
  0
VERTEX
  5
405
330
404
100
AcDbEntity
  8
0
 62
     7
100
AcDbVertex
100
AcDb2dVertex
 10
42.34231850400393
 20
132.5925109399989
 30
0.0
  0
VERTEX
  5
406
330
404
100
AcDbEntity
  8
0
 62
     7
100
AcDbVertex
100
AcDb2dVertex
 10
48.71178749381139
 20
132.5925109399989
 30
0.0
  0
SEQEND
  5
407
330
404
100
AcDbEntity
  8
0
  0
POLYLINE
  5
408
330
1F
100
AcDbEntity
  8
0
 62
     7
100
AcDb2dPolyline
 66
     1
 10
0.0
 20
0.0
 30
0.0
  0
VERTEX
  5
409
330
408
100
AcDbEntity
  8
0
 62
     7
100
AcDbVertex
100
AcDb2dVertex
 10
47.71959933951843
 20
132.5925109399989
 30
0.0
  0
VERTEX
  5
40A
330
408
100
AcDbEntity
  8
0
 62
     7
100
AcDbVertex
100
AcDb2dVertex
 10
47.71959933951843
 20
133.4968491014638
 30
0.0
  0
VERTEX
  5
40B
330
408
100
AcDbEntity
  8
0
 62
     7
100
AcDbVertex
100
AcDb2dVertex
 10
43.334334403409
 20
133.4968491014638
 30
0.0
  0
VERTEX
  5
40C
330
408
100
AcDbEntity
  8
0
 62
     7
100
AcDbVertex
100
AcDb2dVertex
 10
43.334334403409
 20
132.6686476004498
 30
0.0
  0
SEQEND
  5
40D
330
408
100
AcDbEntity
  8
0
  0
POLYLINE
  5
40E
330
1F
100
AcDbEntity
  8
0
 62
     7
100
AcDb2dPolyline
 66
     1
 10
0.0
 20
0.0
 30
0.0
  0
VERTEX
  5
40F
330
40E
100
AcDbEntity
  8
0
 62
     7
100
AcDbVertex
100
AcDb2dVertex
 10
48.71178749381139
 20
125.3674519220016
 30
0.0
  0
VERTEX
  5
410
330
40E
100
AcDbEntity
  8
0
 62
     7
100
AcDbVertex
100
AcDb2dVertex
 10
42.34231850400393
 20
125.3674519220016
 30
0.0
  0
SEQEND
  5
411
330
40E
100
AcDbEntity
  8
0
  0
POLYLINE
  5
412
330
1F
100
AcDbEntity
  8
0
 62
     7
100
AcDb2dPolyline
 66
     1
 10
0.0
 20
0.0
 30
0.0
  0
VERTEX
  5
413
330
412
100
AcDbEntity
  8
0
 62
     7
100
AcDbVertex
100
AcDb2dVertex
 10
48.71178749381139
 20
126.722408870208
 30
0.0
  0
VERTEX
  5
414
330
412
100
AcDbEntity
  8
0
 62
     7
100
AcDbVertex
100
AcDb2dVertex
 10
42.34231850400393
 20
126.722408870208
 30
0.0
  0
SEQEND
  5
415
330
412
100
AcDbEntity
  8
0
  0
POLYLINE
  5
416
330
1F
100
AcDbEntity
  8
0
 62
     7
100
AcDb2dPolyline
 66
     1
 10
0.0
 20
0.0
 30
0.0
  0
VERTEX
  5
417
330
416
100
AcDbEntity
  8
0
 62
     7
100
AcDbVertex
100
AcDb2dVertex
 10
43.334334403409
 20
126.722408870208
 30
0.0
  0
VERTEX
  5
418
330
416
100
AcDbEntity
  8
0
 62
     7
100
AcDbVertex
100
AcDb2dVertex
 10
43.334334403409
 20
126.1767053853468
 30
0.0
  0
VERTEX
  5
419
330
416
100
AcDbEntity
  8
0
 62
     7
100
AcDbVertex
100
AcDb2dVertex
 10
47.71959933951843
 20
126.1767053853468
 30
0.0
  0
VERTEX
  5
41A
330
416
100
AcDbEntity
  8
0
 62
     7
100
AcDbVertex
100
AcDb2dVertex
 10
47.71959933951843
 20
126.6469612293086
 30
0.0
  0
SEQEND
  5
41B
330
416
100
AcDbEntity
  8
0
  0
SPLINE
  5
41C
330
1F
100
AcDbEntity
  8
0
 62
     7
100
AcDbSpline
210
0.0
220
0.0
230
1.0
 70
    11
 71
     3
 72
    23
 73
    19
 74
     0
 42
0.0000000001
 43
0.0000000001
 40
0.0
 40
0.0
 40
0.0
 40
0.0
 40
1.0
 40
1.0
 40
1.0
 40
2.0
 40
2.0
 40
2.0
 40
3.0
 40
3.0
 40
3.0
 40
4.0
 40
4.0
 40
4.0
 40
5.0
 40
5.0
 40
5.0
 40
6.0
 40
6.0
 40
6.0
 40
6.0
 10
48.41206398886873
 20
129.6559096111123
 30
0.0
 10
48.41206398886873
 20
131.2775171257849
 30
0.0
 10
47.10344360550698
 20
132.5914774106715
 30
0.0
 10
45.48924305101404
 20
132.5914774106715
 30
0.0
 10
43.87504249652108
 20
132.5914774106715
 30
0.0
 10
42.56659436804723
 20
131.2775171257849
 30
0.0
 10
42.56659436804723
 20
129.6559096111123
 30
0.0
 10
42.56659436804723
 20
128.0346466062156
 30
0.0
 10
43.87504249652108
 20
126.7203418115532
 30
0.0
 10
45.48924305101404
 20
126.7203418115532
 30
0.0
 10
47.10344360550698
 20
126.7203418115532
 30
0.0
 10
48.41206398886873
 20
128.0346466062156
 30
0.0
 10
48.41206398886873
 20
129.6559096111123
 30
0.0
 10
48.41206398886873
 20
129.6559096111123
 30
0.0
 10
48.41206398886873
 20
129.6559096111123
 30
0.0
 10
48.41206398886873
 20
129.6559096111123
 30
0.0
 10
48.41206398886873
 20
129.6559096111123
 30
0.0
 10
48.41206398886873
 20
129.6559096111123
 30
0.0
 10
48.41206398886873
 20
129.6559096111123
 30
0.0
  0
POLYLINE
  5
41D
330
1F
100
AcDbEntity
  8
0
 62
     7
100
AcDb2dPolyline
 66
     1
 10
0.0
 20
0.0
 30
0.0
  0
VERTEX
  5
41E
330
41D
100
AcDbEntity
  8
0
 62
     7
100
AcDbVertex
100
AcDb2dVertex
 10
44.26382177850706
 20
130.7745328531225
 30
0.0
  0
VERTEX
  5
41F
330
41D
100
AcDbEntity
  8
0
 62
     7
100
AcDbVertex
100
AcDb2dVertex
 10
46.4902162045898
 20
128.5390089179812
 30
0.0
  0
SEQEND
  5
420
330
41D
100
AcDbEntity
  8
0
  0
POLYLINE
  5
421
330
1F
100
AcDbEntity
  8
0
 62
     7
100
AcDb2dPolyline
 66
     1
 10
0.0
 20
0.0
 30
0.0
  0
VERTEX
  5
422
330
421
100
AcDbEntity
  8
0
 62
     7
100
AcDbVertex
100
AcDb2dVertex
 10
46.91344646415539
 20
131.1993134066792
 30
0.0
  0
VERTEX
  5
423
330
421
100
AcDbEntity
  8
0
 62
     7
100
AcDbVertex
100
AcDb2dVertex
 10
43.83938573472618
 20
128.1128503253213
 30
0.0
  0
SEQEND
  5
424
330
421
100
AcDbEntity
  8
0
  0
POLYLINE
  5
425
330
1F
100
AcDbEntity
  8
0
 62
     7
100
AcDb2dPolyline
 66
     1
 10
0.0
 20
0.0
 30
0.0
  0
VERTEX
  5
426
330
425
100
AcDbEntity
  8
0
 62
     7
100
AcDbVertex
100
AcDb2dVertex
 10
44.96438240758857
 20
124.0865645755915
 30
0.0
  0
VERTEX
  5
427
330
425
100
AcDbEntity
  8
0
 62
     7
100
AcDbVertex
100
AcDb2dVertex
 10
44.96438240758857
 20
125.3674519220016
 30
0.0
  0
SEQEND
  5
428
330
425
100
AcDbEntity
  8
0
  0
POLYLINE
  5
429
330
1F
100
AcDbEntity
  8
0
 62
     7
100
AcDb2dPolyline
 66
     1
 10
0.0
 20
0.0
 30
0.0
  0
VERTEX
  5
42A
330
429
100
AcDbEntity
  8
0
 62
     7
100
AcDbVertex
100
AcDb2dVertex
 10
45.7886220461809
 20
124.0865645755915
 30
0.0
  0
VERTEX
  5
42B
330
429
100
AcDbEntity
  8
0
 62
     7
100
AcDbVertex
100
AcDb2dVertex
 10
45.7886220461809
 20
125.3674519220016
 30
0.0
  0
SEQEND
  5
42C
330
429
100
AcDbEntity
  8
0
  0
POLYLINE
  5
42D
330
1F
100
AcDbEntity
  8
0
 62
     7
100
AcDb2dPolyline
 66
     1
 10
0.0
 20
0.0
 30
0.0
  0
VERTEX
  5
42E
330
42D
100
AcDbEntity
  8
0
 62
     7
100
AcDbVertex
100
AcDb2dVertex
 10
113.6139841560516
 20
123.935324784017
 30
0.0
  0
VERTEX
  5
42F
330
42D
100
AcDbEntity
  8
0
 62
     7
100
AcDbVertex
100
AcDb2dVertex
 10
28.40121366174826
 20
123.935324784017
 30
0.0
  0
VERTEX
  5
430
330
42D
100
AcDbEntity
  8
0
 62
     7
100
AcDbVertex
100
AcDb2dVertex
 10
28.40121366174826
 20
144.7898795520622
 30
0.0
  0
VERTEX
  5
431
330
42D
100
AcDbEntity
  8
0
 62
     7
100
AcDbVertex
100
AcDb2dVertex
 10
113.6139841560516
 20
144.7898795520622
 30
0.0
  0
VERTEX
  5
432
330
42D
100
AcDbEntity
  8
0
 62
     7
100
AcDbVertex
100
AcDb2dVertex
 10
113.6139841560516
 20
123.935324784017
 30
0.0
  0
SEQEND
  5
433
330
42D
100
AcDbEntity
  8
0
  0
POLYLINE
  5
434
330
1F
100
AcDbEntity
  8
0
 62
     7
100
AcDb2dPolyline
 66
     1
 10
0.0
 20
0.0
 30
0.0
  0
VERTEX
  5
435
330
434
100
AcDbEntity
  8
0
 62
     7
100
AcDbVertex
100
AcDb2dVertex
 10
30.49927819634693
 20
144.7891905325106
 30
0.0
  0
VERTEX
  5
436
330
434
100
AcDbEntity
  8
0
 62
     7
100
AcDbVertex
100
AcDb2dVertex
 10
30.49927819634693
 20
123.935324784017
 30
0.0
  0
SEQEND
  5
437
330
434
100
AcDbEntity
  8
0
  0
POLYLINE
  5
438
330
1F
100
AcDbEntity
  8
0
 62
     7
100
AcDb2dPolyline
 66
     1
 10
0.0
 20
0.0
 30
0.0
  0
VERTEX
  5
439
330
438
100
AcDbEntity
  8
0
 62
     7
100
AcDbVertex
100
AcDb2dVertex
 10
111.5927453014555
 20
144.7137428916113
 30
0.0
  0
VERTEX
  5
43A
330
438
100
AcDbEntity
  8
0
 62
     7
100
AcDbVertex
100
AcDb2dVertex
 10
111.5927453014555
 20
139.9698432788981
 30
0.0
  0
VERTEX
  5
43B
330
438
100
AcDbEntity
  8
0
 62
     7
100
AcDbVertex
100
AcDb2dVertex
 10
113.6139841560516
 20
139.9698432788981
 30
0.0
  0
SEQEND
  5
43C
330
438
100
AcDbEntity
  8
0
  0
POLYLINE
  5
43D
330
1F
100
AcDbEntity
  8
0
 62
     7
100
AcDb2dPolyline
 66
     1
 10
0.0
 20
0.0
 30
0.0
  0
VERTEX
  5
43E
330
43D
100
AcDbEntity
  8
0
 62
     7
100
AcDbVertex
100
AcDb2dVertex
 10
113.6139841560516
 20
131.7653429683123
 30
0.0
  0
VERTEX
  5
43F
330
43D
100
AcDbEntity
  8
0
 62
     7
100
AcDbVertex
100
AcDb2dVertex
 10
112.1928813308924
 20
131.7653429683123
 30
0.0
  0
VERTEX
  5
440
330
43D
100
AcDbEntity
  8
0
 62
     7
100
AcDbVertex
100
AcDb2dVertex
 10
112.1928813308924
 20
127.0235104142538
 30
0.0
  0
VERTEX
  5
441
330
43D
100
AcDbEntity
  8
0
 62
     7
100
AcDbVertex
100
AcDb2dVertex
 10
113.6139841560516
 20
127.0235104142538
 30
0.0
  0
SEQEND
  5
442
330
43D
100
AcDbEntity
  8
0
  0
POLYLINE
  5
443
330
1F
100
AcDbEntity
  8
0
 62
     7
100
AcDb2dPolyline
 66
     1
 10
0.0
 20
0.0
 30
0.0
  0
VERTEX
  5
444
330
443
100
AcDbEntity
  8
0
 62
     7
100
AcDbVertex
100
AcDb2dVertex
 10
28.40121366174826
 20
131.9909968714588
 30
0.0
  0
VERTEX
  5
445
330
443
100
AcDbEntity
  8
0
 62
     7
100
AcDbVertex
100
AcDb2dVertex
 10
30.19938243651637
 20
131.9909968714588
 30
0.0
  0
VERTEX
  5
446
330
443
100
AcDbEntity
  8
0
 62
     7
100
AcDbVertex
100
AcDb2dVertex
 10
30.19938243651637
 20
127.3979925405443
 30
0.0
  0
VERTEX
  5
447
330
443
100
AcDbEntity
  8
0
 62
     7
100
AcDbVertex
100
AcDb2dVertex
 10
28.47562777332023
 20
127.3979925405443
 30
0.0
  0
SEQEND
  5
448
330
443
100
AcDbEntity
  8
0
  0
POLYLINE
  5
449
330
1F
100
AcDbEntity
  8
0
 62
     7
100
AcDb2dPolyline
 66
     1
 10
0.0
 20
0.0
 30
0.0
  0
VERTEX
  5
44A
330
449
100
AcDbEntity
  8
0
 62
     7
100
AcDbVertex
100
AcDb2dVertex
 10
28.47562777332023
 20
140.2709448229439
 30
0.0
  0
VERTEX
  5
44B
330
449
100
AcDbEntity
  8
0
 62
     7
100
AcDbVertex
100
AcDb2dVertex
 10
30.42469182988706
 20
140.2709448229439
 30
0.0
  0
SEQEND
  5
44C
330
449
100
AcDbEntity
  8
0
  0
POLYLINE
  5
44D
330
1F
100
AcDbEntity
  8
0
 62
     7
100
AcDb2dPolyline
 66
     1
 10
0.0
 20
0.0
 30
0.0
  0
VERTEX
  5
44E
330
44D
100
AcDbEntity
  8
0
 62
     7
100
AcDbVertex
100
AcDb2dVertex
 10
39.28617228291611
 20
155.2476460512429
 30
0.0
  0
VERTEX
  5
44F
330
44D
100
AcDbEntity
  8
0
 62
     7
100
AcDbVertex
100
AcDb2dVertex
 10
38.75786654173269
 20
155.2476460512429
 30
0.0
  0
VERTEX
  5
450
330
44D
100
AcDbEntity
  8
0
 62
     7
100
AcDbVertex
100
AcDb2dVertex
 10
38.75786654173269
 20
157.8275075072925
 30
0.0
  0
VERTEX
  5
451
330
44D
100
AcDbEntity
  8
0
 62
     7
100
AcDbVertex
100
AcDb2dVertex
 10
42.156283225074
 20
157.8275075072925
 30
0.0
  0
VERTEX
  5
452
330
44D
100
AcDbEntity
  8
0
 62
     7
100
AcDbVertex
100
AcDb2dVertex
 10
42.156283225074
 20
149.8605466871182
 30
0.0
  0
VERTEX
  5
453
330
44D
100
AcDbEntity
  8
0
 62
     7
100
AcDbVertex
100
AcDb2dVertex
 10
38.75786654173269
 20
149.8605466871182
 30
0.0
  0
VERTEX
  5
454
330
44D
100
AcDbEntity
  8
0
 62
     7
100
AcDbVertex
100
AcDb2dVertex
 10
38.75786654173269
 20
152.4404081431678
 30
0.0
  0
VERTEX
  5
455
330
44D
100
AcDbEntity
  8
0
 62
     7
100
AcDbVertex
100
AcDb2dVertex
 10
39.28617228291611
 20
152.4404081431678
 30
0.0
  0
VERTEX
  5
456
330
44D
100
AcDbEntity
  8
0
 62
     7
100
AcDbVertex
100
AcDb2dVertex
 10
39.28617228291611
 20
155.2476460512429
 30
0.0
  0
SEQEND
  5
457
330
44D
100
AcDbEntity
  8
0
  0
POLYLINE
  5
458
330
1F
100
AcDbEntity
  8
0
 62
     7
100
AcDb2dPolyline
 66
     1
 10
0.0
 20
0.0
 30
0.0
  0
VERTEX
  5
459
330
458
100
AcDbEntity
  8
0
 62
     7
100
AcDbVertex
100
AcDb2dVertex
 10
42.07980205484725
 20
157.219792262788
 30
0.0
  0
VERTEX
  5
45A
330
458
100
AcDbEntity
  8
0
 62
     7
100
AcDbVertex
100
AcDb2dVertex
 10
39.81413351432374
 20
157.219792262788
 30
0.0
  0
VERTEX
  5
45B
330
458
100
AcDbEntity
  8
0
 62
     7
100
AcDbVertex
100
AcDb2dVertex
 10
39.81413351432374
 20
155.5501256343919
 30
0.0
  0
VERTEX
  5
45C
330
458
100
AcDbEntity
  8
0
 62
     7
100
AcDbVertex
100
AcDb2dVertex
 10
40.56998796242054
 20
155.5501256343919
 30
0.0
  0
VERTEX
  5
45D
330
458
100
AcDbEntity
  8
0
 62
     7
100
AcDbVertex
100
AcDb2dVertex
 10
40.56998796242054
 20
152.135861501364
 30
0.0
  0
VERTEX
  5
45E
330
458
100
AcDbEntity
  8
0
 62
     7
100
AcDbVertex
100
AcDb2dVertex
 10
39.81413351432374
 20
152.135861501364
 30
0.0
  0
VERTEX
  5
45F
330
458
100
AcDbEntity
  8
0
 62
     7
100
AcDbVertex
100
AcDb2dVertex
 10
39.81413351432374
 20
150.4677451669589
 30
0.0
  0
VERTEX
  5
460
330
458
100
AcDbEntity
  8
0
 62
     7
100
AcDbVertex
100
AcDb2dVertex
 10
42.07980205484725
 20
150.4677451669589
 30
0.0
  0
SEQEND
  5
461
330
458
100
AcDbEntity
  8
0
  0
SPLINE
  5
462
330
1F
100
AcDbEntity
  8
0
 62
     7
100
AcDbSpline
210
0.0
220
0.0
230
1.0
 70
    11
 71
     3
 72
    50
 73
    46
 74
     0
 42
0.0000000001
 43
0.0000000001
 40
0.0
 40
0.0
 40
0.0
 40
0.0
 40
1.0
 40
1.0
 40
1.0
 40
2.0
 40
2.0
 40
2.0
 40
3.0
 40
3.0
 40
3.0
 40
4.0
 40
4.0
 40
4.0
 40
5.0
 40
5.0
 40
5.0
 40
6.0
 40
6.0
 40
6.0
 40
7.0
 40
7.0
 40
7.0
 40
8.0
 40
8.0
 40
8.0
 40
9.0
 40
9.0
 40
9.0
 40
10.0
 40
10.0
 40
10.0
 40
11.0
 40
11.0
 40
11.0
 40
12.0
 40
12.0
 40
12.0
 40
13.0
 40
13.0
 40
13.0
 40
14.0
 40
14.0
 40
14.0
 40
15.0
 40
15.0
 40
15.0
 40
15.0
 10
45.62997529442677
 20
150.5435373176341
 30
0.0
 10
45.62997529442677
 20
150.5435373176341
 30
0.0
 10
43.96806013598605
 20
150.4677451669589
 30
0.0
 10
43.59116644126504
 20
151.9859997488926
 30
0.0
 10
43.59116644126504
 20
151.9859997488926
 30
0.0
 10
43.59116644126504
 20
151.9859997488926
 30
0.0
 10
43.59116644126504
 20
151.9859997488926
 30
0.0
 10
43.59116644126504
 20
151.9859997488926
 30
0.0
 10
43.06182717075423
 20
155.778018851081
 30
0.0
 10
43.06182717075423
 20
155.778018851081
 30
0.0
 10
43.06182717075423
 20
155.778018851081
 30
0.0
 10
43.06182717075423
 20
155.778018851081
 30
0.0
 10
43.06182717075423
 20
155.778018851081
 30
0.0
 10
43.06182717075423
 20
155.778018851081
 30
0.0
 10
42.83496748339245
 20
157.1429665827855
 30
0.0
 10
44.27105648379878
 20
157.1429665827855
 30
0.0
 10
44.27105648379878
 20
157.1429665827855
 30
0.0
 10
44.27105648379878
 20
157.1429665827855
 30
0.0
 10
44.27105648379878
 20
157.1429665827855
 30
0.0
 10
44.27105648379878
 20
157.1429665827855
 30
0.0
 10
55.07023217079339
 20
157.1429665827855
 30
0.0
 10
55.07023217079339
 20
157.1429665827855
 30
0.0
 10
55.07023217079339
 20
157.1429665827855
 30
0.0
 10
55.07023217079339
 20
157.1429665827855
 30
0.0
 10
55.07023217079339
 20
157.1429665827855
 30
0.0
 10
56.50477087720864
 20
157.1429665827855
 30
0.0
 10
56.27894471917425
 20
155.778018851081
 30
0.0
 10
56.27894471917425
 20
155.778018851081
 30
0.0
 10
56.27894471917425
 20
155.778018851081
 30
0.0
 10
56.27894471917425
 20
155.778018851081
 30
0.0
 10
56.27894471917425
 20
155.778018851081
 30
0.0
 10
56.27894471917425
 20
155.778018851081
 30
0.0
 10
55.74926093888764
 20
151.9859997488926
 30
0.0
 10
55.74926093888764
 20
151.9859997488926
 30
0.0
 10
55.74926093888764
 20
151.9859997488926
 30
0.0
 10
55.74926093888764
 20
151.9859997488926
 30
0.0
 10
55.74926093888764
 20
151.9859997488926
 30
0.0
 10
55.37236724416663
 20
150.4677451669589
 30
0.0
 10
53.7113133601654
 20
150.5435373176341
 30
0.0
 10
53.7113133601654
 20
150.5435373176341
 30
0.0
 10
53.7113133601654
 20
150.5435373176341
 30
0.0
 10
53.7113133601654
 20
150.5435373176341
 30
0.0
 10
53.7113133601654
 20
150.5435373176341
 30
0.0
 10
53.7113133601654
 20
150.5435373176341
 30
0.0
 10
45.62997529442677
 20
150.5435373176341
 30
0.0
 10
45.62997529442677
 20
150.5435373176341
 30
0.0
  0
POLYLINE
  5
463
330
1F
100
AcDbEntity
  8
0
 62
     7
100
AcDb2dPolyline
 66
     1
 10
0.0
 20
0.0
 30
0.0
  0
VERTEX
  5
464
330
463
100
AcDbEntity
  8
0
 62
     7
100
AcDbVertex
100
AcDb2dVertex
 10
60.05494411678816
 20
152.4404081431678
 30
0.0
  0
VERTEX
  5
465
330
463
100
AcDbEntity
  8
0
 62
     7
100
AcDbVertex
100
AcDb2dVertex
 10
60.58324985797158
 20
152.4404081431678
 30
0.0
  0
VERTEX
  5
466
330
463
100
AcDbEntity
  8
0
 62
     7
100
AcDbVertex
100
AcDb2dVertex
 10
60.58324985797158
 20
149.8605466871182
 30
0.0
  0
VERTEX
  5
467
330
463
100
AcDbEntity
  8
0
 62
     7
100
AcDbVertex
100
AcDb2dVertex
 10
57.18431640996658
 20
149.8605466871182
 30
0.0
  0
VERTEX
  5
468
330
463
100
AcDbEntity
  8
0
 62
     7
100
AcDbVertex
100
AcDb2dVertex
 10
57.18431640996658
 20
157.8275075072925
 30
0.0
  0
VERTEX
  5
469
330
463
100
AcDbEntity
  8
0
 62
     7
100
AcDbVertex
100
AcDb2dVertex
 10
60.58324985797158
 20
157.8275075072925
 30
0.0
  0
VERTEX
  5
46A
330
463
100
AcDbEntity
  8
0
 62
     7
100
AcDbVertex
100
AcDb2dVertex
 10
60.58324985797158
 20
155.2476460512429
 30
0.0
  0
VERTEX
  5
46B
330
463
100
AcDbEntity
  8
0
 62
     7
100
AcDbVertex
100
AcDb2dVertex
 10
60.05494411678816
 20
155.2476460512429
 30
0.0
  0
VERTEX
  5
46C
330
463
100
AcDbEntity
  8
0
 62
     7
100
AcDbVertex
100
AcDb2dVertex
 10
60.05494411678816
 20
152.4404081431678
 30
0.0
  0
SEQEND
  5
46D
330
463
100
AcDbEntity
  8
0
  0
POLYLINE
  5
46E
330
1F
100
AcDbEntity
  8
0
 62
     7
100
AcDb2dPolyline
 66
     1
 10
0.0
 20
0.0
 30
0.0
  0
VERTEX
  5
46F
330
46E
100
AcDbEntity
  8
0
 62
     7
100
AcDbVertex
100
AcDb2dVertex
 10
57.26062532530543
 20
150.4677451669589
 30
0.0
  0
VERTEX
  5
470
330
46E
100
AcDbEntity
  8
0
 62
     7
100
AcDbVertex
100
AcDb2dVertex
 10
59.52560484627734
 20
150.4677451669589
 30
0.0
  0
VERTEX
  5
471
330
46E
100
AcDbEntity
  8
0
 62
     7
100
AcDbVertex
100
AcDb2dVertex
 10
59.52560484627734
 20
152.135861501364
 30
0.0
  0
VERTEX
  5
472
330
46E
100
AcDbEntity
  8
0
 62
     7
100
AcDbVertex
100
AcDb2dVertex
 10
58.77147294705953
 20
152.135861501364
 30
0.0
  0
VERTEX
  5
473
330
46E
100
AcDbEntity
  8
0
 62
     7
100
AcDbVertex
100
AcDb2dVertex
 10
58.77147294705953
 20
155.5501256343919
 30
0.0
  0
VERTEX
  5
474
330
46E
100
AcDbEntity
  8
0
 62
     7
100
AcDbVertex
100
AcDb2dVertex
 10
59.52560484627734
 20
155.5501256343919
 30
0.0
  0
VERTEX
  5
475
330
46E
100
AcDbEntity
  8
0
 62
     7
100
AcDbVertex
100
AcDb2dVertex
 10
59.52560484627734
 20
157.219792262788
 30
0.0
  0
VERTEX
  5
476
330
46E
100
AcDbEntity
  8
0
 62
     7
100
AcDbVertex
100
AcDb2dVertex
 10
57.26062532530543
 20
157.219792262788
 30
0.0
  0
SEQEND
  5
477
330
46E
100
AcDbEntity
  8
0
  0
SPLINE
  5
478
330
1F
100
AcDbEntity
  8
0
 62
     7
100
AcDbSpline
210
0.0
220
0.0
230
1.0
 70
    11
 71
     3
 72
    50
 73
    46
 74
     0
 42
0.0000000001
 43
0.0000000001
 40
0.0
 40
0.0
 40
0.0
 40
0.0
 40
1.0
 40
1.0
 40
1.0
 40
2.0
 40
2.0
 40
2.0
 40
3.0
 40
3.0
 40
3.0
 40
4.0
 40
4.0
 40
4.0
 40
5.0
 40
5.0
 40
5.0
 40
6.0
 40
6.0
 40
6.0
 40
7.0
 40
7.0
 40
7.0
 40
8.0
 40
8.0
 40
8.0
 40
9.0
 40
9.0
 40
9.0
 40
10.0
 40
10.0
 40
10.0
 40
11.0
 40
11.0
 40
11.0
 40
12.0
 40
12.0
 40
12.0
 40
13.0
 40
13.0
 40
13.0
 40
14.0
 40
14.0
 40
14.0
 40
15.0
 40
15.0
 40
15.0
 40
15.0
 10
53.86134736752463
 20
151.3407329388264
 30
0.0
 10
53.86134736752463
 20
151.3407329388264
 30
0.0
 10
54.61789083517301
 20
151.2645962783754
 30
0.0
 10
54.99512903966982
 20
152.0991712102417
 30
0.0
 10
54.99512903966982
 20
152.0991712102417
 30
0.0
 10
54.99512903966982
 20
152.0991712102417
 30
0.0
 10
54.99512903966982
 20
152.0991712102417
 30
0.0
 10
54.99512903966982
 20
152.0991712102417
 30
0.0
 10
55.52309027107745
 20
155.7396060110798
 30
0.0
 10
55.52309027107745
 20
155.7396060110798
 30
0.0
 10
55.52309027107745
 20
155.7396060110798
 30
0.0
 10
55.52309027107745
 20
155.7396060110798
 30
0.0
 10
55.52309027107745
 20
155.7396060110798
 30
0.0
 10
55.52309027107745
 20
155.7396060110798
 30
0.0
 10
55.52309027107745
 20
156.3466322360326
 30
0.0
 10
54.92002590854626
 20
156.3466322360326
 30
0.0
 10
54.92002590854626
 20
156.3466322360326
 30
0.0
 10
54.92002590854626
 20
156.3466322360326
 30
0.0
 10
54.92002590854626
 20
156.3466322360326
 30
0.0
 10
54.92002590854626
 20
156.3466322360326
 30
0.0
 10
44.42177951070961
 20
156.3466322360326
 30
0.0
 10
44.42177951070961
 20
156.3466322360326
 30
0.0
 10
44.42177951070961
 20
156.3466322360326
 30
0.0
 10
44.42177951070961
 20
156.3466322360326
 30
0.0
 10
44.42177951070961
 20
156.3466322360326
 30
0.0
 10
43.81802612862682
 20
156.3466322360326
 30
0.0
 10
43.81802612862682
 20
155.7396060110798
 30
0.0
 10
43.81802612862682
 20
155.7396060110798
 30
0.0
 10
43.81802612862682
 20
155.7396060110798
 30
0.0
 10
43.81802612862682
 20
155.7396060110798
 30
0.0
 10
43.81802612862682
 20
155.7396060110798
 30
0.0
 10
43.81802612862682
 20
155.7396060110798
 30
0.0
 10
44.34581510514655
 20
152.0991712102417
 30
0.0
 10
44.34581510514655
 20
152.0991712102417
 30
0.0
 10
44.34581510514655
 20
152.0991712102417
 30
0.0
 10
44.34581510514655
 20
152.0991712102417
 30
0.0
 10
44.34581510514655
 20
152.0991712102417
 30
0.0
 10
44.72339781941915
 20
151.2645962783754
 30
0.0
 10
45.47856324796435
 20
151.3407329388264
 30
0.0
 10
45.47856324796435
 20
151.3407329388264
 30
0.0
 10
45.47856324796435
 20
151.3407329388264
 30
0.0
 10
45.47856324796435
 20
151.3407329388264
 30
0.0
 10
45.47856324796435
 20
151.3407329388264
 30
0.0
 10
45.47856324796435
 20
151.3407329388264
 30
0.0
 10
53.86134736752463
 20
151.3407329388264
 30
0.0
 10
53.86134736752463
 20
151.3407329388264
 30
0.0
  0
SPLINE
  5
479
330
1F
100
AcDbEntity
  8
0
 62
     7
100
AcDbSpline
210
0.0
220
0.0
230
1.0
 70
    11
 71
     3
 72
    23
 73
    19
 74
     0
 42
0.0000000001
 43
0.0000000001
 40
0.0
 40
0.0
 40
0.0
 40
0.0
 40
1.0
 40
1.0
 40
1.0
 40
2.0
 40
2.0
 40
2.0
 40
3.0
 40
3.0
 40
3.0
 40
4.0
 40
4.0
 40
4.0
 40
5.0
 40
5.0
 40
5.0
 40
6.0
 40
6.0
 40
6.0
 40
6.0
 10
38.30466393167283
 20
153.8437687148735
 30
0.0
 10
38.30466393167283
 20
154.3886109252951
 30
0.0
 10
37.86489720286902
 20
154.8302724578658
 30
0.0
 10
37.32246656087795
 20
154.8302724578658
 30
0.0
 10
36.78003591888688
 20
154.8302724578658
 30
0.0
 10
36.34026919008308
 20
154.3886109252951
 30
0.0
 10
36.34026919008308
 20
153.8437687148735
 30
0.0
 10
36.34026919008308
 20
153.2989265044518
 30
0.0
 10
36.78003591888688
 20
152.8570927169932
 30
0.0
 10
37.32246656087795
 20
152.8570927169932
 30
0.0
 10
37.86489720286902
 20
152.8570927169932
 30
0.0
 10
38.30466393167283
 20
153.2989265044518
 30
0.0
 10
38.30466393167283
 20
153.8437687148735
 30
0.0
 10
38.30466393167283
 20
153.8437687148735
 30
0.0
 10
38.30466393167283
 20
153.8437687148735
 30
0.0
 10
38.30466393167283
 20
153.8437687148735
 30
0.0
 10
38.30466393167283
 20
153.8437687148735
 30
0.0
 10
38.30466393167283
 20
153.8437687148735
 30
0.0
 10
38.30466393167283
 20
153.8437687148735
 30
0.0
  0
SPLINE
  5
47A
330
1F
100
AcDbEntity
  8
0
 62
     7
100
AcDbSpline
210
0.0
220
0.0
230
1.0
 70
    11
 71
     3
 72
    23
 73
    19
 74
     0
 42
0.0000000001
 43
0.0000000001
 40
0.0
 40
0.0
 40
0.0
 40
0.0
 40
1.0
 40
1.0
 40
1.0
 40
2.0
 40
2.0
 40
2.0
 40
3.0
 40
3.0
 40
3.0
 40
4.0
 40
4.0
 40
4.0
 40
5.0
 40
5.0
 40
5.0
 40
6.0
 40
6.0
 40
6.0
 40
6.0
 10
38.83228065330466
 20
153.8437687148735
 30
0.0
 10
38.83228065330466
 20
154.6814442347219
 30
0.0
 10
38.15618021830468
 20
155.3604730028161
 30
0.0
 10
37.32212205110216
 20
155.3604730028161
 30
0.0
 10
36.48789162901173
 20
155.3604730028161
 30
0.0
 10
35.81179119401175
 20
154.6814442347219
 30
0.0
 10
35.81179119401175
 20
153.8437687148735
 30
0.0
 10
35.81179119401175
 20
153.0059209401372
 30
0.0
 10
36.48789162901173
 20
152.3268921720429
 30
0.0
 10
37.32212205110216
 20
152.3268921720429
 30
0.0
 10
38.15618021830468
 20
152.3268921720429
 30
0.0
 10
38.83228065330466
 20
153.0059209401372
 30
0.0
 10
38.83228065330466
 20
153.8437687148735
 30
0.0
 10
38.83228065330466
 20
153.8437687148735
 30
0.0
 10
38.83228065330466
 20
153.8437687148735
 30
0.0
 10
38.83228065330466
 20
153.8437687148735
 30
0.0
 10
38.83228065330466
 20
153.8437687148735
 30
0.0
 10
38.83228065330466
 20
153.8437687148735
 30
0.0
 10
38.83228065330466
 20
153.8437687148735
 30
0.0
  0
SPLINE
  5
47B
330
1F
100
AcDbEntity
  8
0
 62
     7
100
AcDbSpline
210
0.0
220
0.0
230
1.0
 70
    11
 71
     3
 72
    23
 73
    19
 74
     0
 42
0.0000000001
 43
0.0000000001
 40
0.0
 40
0.0
 40
0.0
 40
0.0
 40
1.0
 40
1.0
 40
1.0
 40
2.0
 40
2.0
 40
2.0
 40
3.0
 40
3.0
 40
3.0
 40
4.0
 40
4.0
 40
4.0
 40
5.0
 40
5.0
 40
5.0
 40
6.0
 40
6.0
 40
6.0
 40
6.0
 10
63.07508906630527
 20
153.8437687148735
 30
0.0
 10
63.07508906630527
 20
154.3886109252951
 30
0.0
 10
62.63532233750146
 20
154.8301002029779
 30
0.0
 10
62.09306395039829
 20
154.8301002029779
 30
0.0
 10
61.55063330840722
 20
154.8301002029779
 30
0.0
 10
61.11103883449131
 20
154.3886109252951
 30
0.0
 10
61.11103883449131
 20
153.8437687148735
 30
0.0
 10
61.11103883449131
 20
153.2989265044518
 30
0.0
 10
61.55063330840722
 20
152.857437226769
 30
0.0
 10
62.09306395039829
 20
152.857437226769
 30
0.0
 10
62.63532233750146
 20
152.857437226769
 30
0.0
 10
63.07508906630527
 20
153.2989265044518
 30
0.0
 10
63.07508906630527
 20
153.8437687148735
 30
0.0
 10
63.07508906630527
 20
153.8437687148735
 30
0.0
 10
63.07508906630527
 20
153.8437687148735
 30
0.0
 10
63.07508906630527
 20
153.8437687148735
 30
0.0
 10
63.07508906630527
 20
153.8437687148735
 30
0.0
 10
63.07508906630527
 20
153.8437687148735
 30
0.0
 10
63.07508906630527
 20
153.8437687148735
 30
0.0
  0
SPLINE
  5
47C
330
1F
100
AcDbEntity
  8
0
 62
     7
100
AcDbSpline
210
0.0
220
0.0
230
1.0
 70
    11
 71
     3
 72
    23
 73
    19
 74
     0
 42
0.0000000001
 43
0.0000000001
 40
0.0
 40
0.0
 40
0.0
 40
0.0
 40
1.0
 40
1.0
 40
1.0
 40
2.0
 40
2.0
 40
2.0
 40
3.0
 40
3.0
 40
3.0
 40
4.0
 40
4.0
 40
4.0
 40
5.0
 40
5.0
 40
5.0
 40
6.0
 40
6.0
 40
6.0
 40
6.0
 10
63.60511735636767
 20
153.8437687148735
 30
0.0
 10
63.60511735636767
 20
154.6817887444977
 30
0.0
 10
62.9286724115919
 20
155.3611620223677
 30
0.0
 10
62.09426973461358
 20
155.3611620223677
 30
0.0
 10
61.25969480274735
 20
155.3611620223677
 30
0.0
 10
60.58324985797158
 20
154.6817887444977
 30
0.0
 10
60.58324985797158
 20
153.8437687148735
 30
0.0
 10
60.58324985797158
 20
153.0055764303614
 30
0.0
 10
61.25969480274735
 20
152.3262031524913
 30
0.0
 10
62.09426973461358
 20
152.3262031524913
 30
0.0
 10
62.9286724115919
 20
152.3262031524913
 30
0.0
 10
63.60511735636767
 20
153.0055764303614
 30
0.0
 10
63.60511735636767
 20
153.8437687148735
 30
0.0
 10
63.60511735636767
 20
153.8437687148735
 30
0.0
 10
63.60511735636767
 20
153.8437687148735
 30
0.0
 10
63.60511735636767
 20
153.8437687148735
 30
0.0
 10
63.60511735636767
 20
153.8437687148735
 30
0.0
 10
63.60511735636767
 20
153.8437687148735
 30
0.0
 10
63.60511735636767
 20
153.8437687148735
 30
0.0
  0
SPLINE
  5
47D
330
1F
100
AcDbEntity
  8
0
 62
     7
100
AcDbSpline
210
0.0
220
0.0
230
1.0
 70
    11
 71
     3
 72
    50
 73
    46
 74
     0
 42
0.0000000001
 43
0.0000000001
 40
0.0
 40
0.0
 40
0.0
 40
0.0
 40
1.0
 40
1.0
 40
1.0
 40
2.0
 40
2.0
 40
2.0
 40
3.0
 40
3.0
 40
3.0
 40
4.0
 40
4.0
 40
4.0
 40
5.0
 40
5.0
 40
5.0
 40
6.0
 40
6.0
 40
6.0
 40
7.0
 40
7.0
 40
7.0
 40
8.0
 40
8.0
 40
8.0
 40
9.0
 40
9.0
 40
9.0
 40
10.0
 40
10.0
 40
10.0
 40
11.0
 40
11.0
 40
11.0
 40
12.0
 40
12.0
 40
12.0
 40
13.0
 40
13.0
 40
13.0
 40
14.0
 40
14.0
 40
14.0
 40
15.0
 40
15.0
 40
15.0
 40
15.0
 10
64.43469689648485
 20
149.5322288707844
 30
0.0
 10
64.43469689648485
 20
149.24904183508
 30
0.0
 10
64.20611466024408
 20
149.0189093048481
 30
0.0
 10
63.92551144785811
 20
149.0189093048481
 30
0.0
 10
63.92551144785811
 20
149.0189093048481
 30
0.0
 10
63.92551144785811
 20
149.0189093048481
 30
0.0
 10
63.92551144785811
 20
149.0189093048481
 30
0.0
 10
63.92551144785811
 20
149.0189093048481
 30
0.0
 10
35.41474367740667
 20
149.0189093048481
 30
0.0
 10
35.41474367740667
 20
149.0189093048481
 30
0.0
 10
35.41474367740667
 20
149.0189093048481
 30
0.0
 10
35.41474367740667
 20
149.0189093048481
 30
0.0
 10
35.41474367740667
 20
149.0189093048481
 30
0.0
 10
35.13362370035699
 20
149.0189093048481
 30
0.0
 10
34.90607499344362
 20
149.24904183508
 30
0.0
 10
34.90607499344362
 20
149.5322288707844
 30
0.0
 10
34.90607499344362
 20
149.5322288707844
 30
0.0
 10
34.90607499344362
 20
149.5322288707844
 30
0.0
 10
34.90607499344362
 20
149.5322288707844
 30
0.0
 10
34.90607499344362
 20
149.5322288707844
 30
0.0
 10
34.90607499344362
 20
158.0659082721434
 30
0.0
 10
34.90607499344362
 20
158.0659082721434
 30
0.0
 10
34.90607499344362
 20
158.0659082721434
 30
0.0
 10
34.90607499344362
 20
158.0659082721434
 30
0.0
 10
34.90607499344362
 20
158.0659082721434
 30
0.0
 10
34.90607499344362
 20
158.3477172687447
 30
0.0
 10
35.13362370035699
 20
158.5783665636402
 30
0.0
 10
35.41474367740667
 20
158.5783665636402
 30
0.0
 10
35.41474367740667
 20
158.5783665636402
 30
0.0
 10
35.41474367740667
 20
158.5783665636402
 30
0.0
 10
35.41474367740667
 20
158.5783665636402
 30
0.0
 10
35.41474367740667
 20
158.5783665636402
 30
0.0
 10
63.92551144785811
 20
158.5783665636402
 30
0.0
 10
63.92551144785811
 20
158.5783665636402
 30
0.0
 10
63.92551144785811
 20
158.5783665636402
 30
0.0
 10
63.92551144785811
 20
158.5783665636402
 30
0.0
 10
63.92551144785811
 20
158.5783665636402
 30
0.0
 10
64.20611466024408
 20
158.5783665636402
 30
0.0
 10
64.43469689648485
 20
158.3477172687447
 30
0.0
 10
64.43469689648485
 20
158.0659082721434
 30
0.0
 10
64.43469689648485
 20
158.0659082721434
 30
0.0
 10
64.43469689648485
 20
158.0659082721434
 30
0.0
 10
64.43469689648485
 20
158.0659082721434
 30
0.0
 10
64.43469689648485
 20
158.0659082721434
 30
0.0
 10
64.43469689648485
 20
149.5322288707844
 30
0.0
 10
64.43469689648485
 20
149.5322288707844
 30
0.0
  0
SPLINE
  5
47E
330
1F
100
AcDbEntity
  8
0
 62
     7
100
AcDbSpline
210
0.0
220
0.0
230
1.0
 70
     8
 71
     3
 72
    32
 73
    28
 74
     0
 42
0.0000000001
 43
0.0000000001
 40
0.0
 40
0.0
 40
0.0
 40
0.0
 40
1.0
 40
1.0
 40
1.0
 40
2.0
 40
2.0
 40
2.0
 40
3.0
 40
3.0
 40
3.0
 40
4.0
 40
4.0
 40
4.0
 40
5.0
 40
5.0
 40
5.0
 40
6.0
 40
6.0
 40
6.0
 40
7.0
 40
7.0
 40
7.0
 40
8.0
 40
8.0
 40
8.0
 40
9.0
 40
9.0
 40
9.0
 40
9.0
 10
34.84974764510095
 20
149.5527272024443
 30
0.0
 10
34.84974764510095
 20
149.5527272024443
 30
0.0
 10
34.56535482518121
 20
149.5527272024443
 30
0.0
 10
34.56535482518121
 20
149.5527272024443
 30
0.0
 10
34.56535482518121
 20
149.5527272024443
 30
0.0
 10
34.56535482518121
 20
149.5527272024443
 30
0.0
 10
34.56535482518121
 20
149.5527272024443
 30
0.0
 10
34.28354582857995
 20
149.5527272024443
 30
0.0
 10
34.05703065099397
 20
149.7801036544698
 30
0.0
 10
34.05703065099397
 20
150.0632906901742
 30
0.0
 10
34.05703065099397
 20
150.0632906901742
 30
0.0
 10
34.05703065099397
 20
150.0632906901742
 30
0.0
 10
34.05703065099397
 20
150.0632906901742
 30
0.0
 10
34.05703065099397
 20
150.0632906901742
 30
0.0
 10
34.05703065099397
 20
157.5357077271931
 30
0.0
 10
34.05703065099397
 20
157.5357077271931
 30
0.0
 10
34.05703065099397
 20
157.5357077271931
 30
0.0
 10
34.05703065099397
 20
157.5357077271931
 30
0.0
 10
34.05703065099397
 20
157.5357077271931
 30
0.0
 10
34.05703065099397
 20
157.8168277042428
 30
0.0
 10
34.28354582857995
 20
158.0464434698109
 30
0.0
 10
34.56535482518121
 20
158.0464434698109
 30
0.0
 10
34.56535482518121
 20
158.0464434698109
 30
0.0
 10
34.56535482518121
 20
158.0464434698109
 30
0.0
 10
34.56535482518121
 20
158.0464434698109
 30
0.0
 10
34.56535482518121
 20
158.0464434698109
 30
0.0
 10
34.84974764510095
 20
158.0464434698109
 30
0.0
 10
34.84974764510095
 20
158.0464434698109
 30
0.0
  0
SPLINE
  5
47F
330
1F
100
AcDbEntity
  8
0
 62
     7
100
AcDbSpline
210
0.0
220
0.0
230
1.0
 70
     8
 71
     3
 72
    32
 73
    28
 74
     0
 42
0.0000000001
 43
0.0000000001
 40
0.0
 40
0.0
 40
0.0
 40
0.0
 40
1.0
 40
1.0
 40
1.0
 40
2.0
 40
2.0
 40
2.0
 40
3.0
 40
3.0
 40
3.0
 40
4.0
 40
4.0
 40
4.0
 40
5.0
 40
5.0
 40
5.0
 40
6.0
 40
6.0
 40
6.0
 40
7.0
 40
7.0
 40
7.0
 40
8.0
 40
8.0
 40
8.0
 40
9.0
 40
9.0
 40
9.0
 40
9.0
 10
64.4930913034823
 20
149.5527272024443
 30
0.0
 10
64.4930913034823
 20
149.5527272024443
 30
0.0
 10
64.77645059407465
 20
149.5527272024443
 30
0.0
 10
64.77645059407465
 20
149.5527272024443
 30
0.0
 10
64.77645059407465
 20
149.5527272024443
 30
0.0
 10
64.77645059407465
 20
149.5527272024443
 30
0.0
 10
64.77645059407465
 20
149.5527272024443
 30
0.0
 10
65.05757057112432
 20
149.5527272024443
 30
0.0
 10
65.28615280736509
 20
149.7801036544698
 30
0.0
 10
65.28615280736509
 20
150.0632906901742
 30
0.0
 10
65.28615280736509
 20
150.0632906901742
 30
0.0
 10
65.28615280736509
 20
150.0632906901742
 30
0.0
 10
65.28615280736509
 20
150.0632906901742
 30
0.0
 10
65.28615280736509
 20
150.0632906901742
 30
0.0
 10
65.28615280736509
 20
157.5357077271931
 30
0.0
 10
65.28615280736509
 20
157.5357077271931
 30
0.0
 10
65.28615280736509
 20
157.5357077271931
 30
0.0
 10
65.28615280736509
 20
157.5357077271931
 30
0.0
 10
65.28615280736509
 20
157.5357077271931
 30
0.0
 10
65.28615280736509
 20
157.8168277042428
 30
0.0
 10
65.05757057112432
 20
158.0464434698109
 30
0.0
 10
64.77645059407465
 20
158.0464434698109
 30
0.0
 10
64.77645059407465
 20
158.0464434698109
 30
0.0
 10
64.77645059407465
 20
158.0464434698109
 30
0.0
 10
64.77645059407465
 20
158.0464434698109
 30
0.0
 10
64.77645059407465
 20
158.0464434698109
 30
0.0
 10
64.4930913034823
 20
158.0464434698109
 30
0.0
 10
64.4930913034823
 20
158.0464434698109
 30
0.0
  0
POLYLINE
  5
480
330
1F
100
AcDbEntity
  8
0
 62
     7
100
AcDb2dPolyline
 66
     1
 10
0.0
 20
0.0
 30
0.0
  0
VERTEX
  5
481
330
480
100
AcDbEntity
  8
0
 62
     7
100
AcDbVertex
100
AcDb2dVertex
 10
46.53241865212483
 20
153.4448263945015
 30
0.0
  0
VERTEX
  5
482
330
480
100
AcDbEntity
  8
0
 62
     7
100
AcDbVertex
100
AcDb2dVertex
 10
45.95002487614141
 20
153.4448263945015
 30
0.0
  0
VERTEX
  5
483
330
480
100
AcDbEntity
  8
0
 62
     7
100
AcDbVertex
100
AcDb2dVertex
 10
45.95002487614141
 20
154.2783677970403
 30
0.0
  0
VERTEX
  5
484
330
480
100
AcDbEntity
  8
0
 62
     7
100
AcDbVertex
100
AcDb2dVertex
 10
46.53241865212483
 20
154.2783677970403
 30
0.0
  0
VERTEX
  5
485
330
480
100
AcDbEntity
  8
0
 62
     7
100
AcDbVertex
100
AcDb2dVertex
 10
46.53241865212483
 20
153.4448263945015
 30
0.0
  0
SEQEND
  5
486
330
480
100
AcDbEntity
  8
0
  0
POLYLINE
  5
487
330
1F
100
AcDbEntity
  8
0
 62
     7
100
AcDb2dPolyline
 66
     1
 10
0.0
 20
0.0
 30
0.0
  0
VERTEX
  5
488
330
487
100
AcDbEntity
  8
0
 62
     7
100
AcDbVertex
100
AcDb2dVertex
 10
47.48722749574392
 20
153.4448263945015
 30
0.0
  0
VERTEX
  5
489
330
487
100
AcDbEntity
  8
0
 62
     7
100
AcDbVertex
100
AcDb2dVertex
 10
46.9044892099847
 20
153.4448263945015
 30
0.0
  0
VERTEX
  5
48A
330
487
100
AcDbEntity
  8
0
 62
     7
100
AcDbVertex
100
AcDb2dVertex
 10
46.9044892099847
 20
154.2783677970403
 30
0.0
  0
VERTEX
  5
48B
330
487
100
AcDbEntity
  8
0
 62
     7
100
AcDbVertex
100
AcDb2dVertex
 10
47.48722749574392
 20
154.2783677970403
 30
0.0
  0
VERTEX
  5
48C
330
487
100
AcDbEntity
  8
0
 62
     7
100
AcDbVertex
100
AcDb2dVertex
 10
47.48722749574392
 20
153.4448263945015
 30
0.0
  0
SEQEND
  5
48D
330
487
100
AcDbEntity
  8
0
  0
POLYLINE
  5
48E
330
1F
100
AcDbEntity
  8
0
 62
     7
100
AcDb2dPolyline
 66
     1
 10
0.0
 20
0.0
 30
0.0
  0
VERTEX
  5
48F
330
48E
100
AcDbEntity
  8
0
 62
     7
100
AcDbVertex
100
AcDb2dVertex
 10
46.03925290807262
 20
155.095372730341
 30
0.0
  0
VERTEX
  5
490
330
48E
100
AcDbEntity
  8
0
 62
     7
100
AcDbVertex
100
AcDb2dVertex
 10
45.45444756365862
 20
155.095372730341
 30
0.0
  0
VERTEX
  5
491
330
48E
100
AcDbEntity
  8
0
 62
     7
100
AcDbVertex
100
AcDb2dVertex
 10
45.45444756365862
 20
155.5332446553779
 30
0.0
  0
VERTEX
  5
492
330
48E
100
AcDbEntity
  8
0
 62
     7
100
AcDbVertex
100
AcDb2dVertex
 10
46.03925290807262
 20
155.5332446553779
 30
0.0
  0
VERTEX
  5
493
330
48E
100
AcDbEntity
  8
0
 62
     7
100
AcDbVertex
100
AcDb2dVertex
 10
46.03925290807262
 20
155.095372730341
 30
0.0
  0
SEQEND
  5
494
330
48E
100
AcDbEntity
  8
0
  0
POLYLINE
  5
495
330
1F
100
AcDbEntity
  8
0
 62
     7
100
AcDb2dPolyline
 66
     1
 10
0.0
 20
0.0
 30
0.0
  0
VERTEX
  5
496
330
495
100
AcDbEntity
  8
0
 62
     7
100
AcDbVertex
100
AcDb2dVertex
 10
46.99268371258852
 20
155.095372730341
 30
0.0
  0
VERTEX
  5
497
330
495
100
AcDbEntity
  8
0
 62
     7
100
AcDbVertex
100
AcDb2dVertex
 10
46.4092564072777
 20
155.095372730341
 30
0.0
  0
VERTEX
  5
498
330
495
100
AcDbEntity
  8
0
 62
     7
100
AcDbVertex
100
AcDb2dVertex
 10
46.4092564072777
 20
155.5332446553779
 30
0.0
  0
VERTEX
  5
499
330
495
100
AcDbEntity
  8
0
 62
     7
100
AcDbVertex
100
AcDb2dVertex
 10
46.99268371258852
 20
155.5332446553779
 30
0.0
  0
VERTEX
  5
49A
330
495
100
AcDbEntity
  8
0
 62
     7
100
AcDbVertex
100
AcDb2dVertex
 10
46.99268371258852
 20
155.095372730341
 30
0.0
  0
SEQEND
  5
49B
330
495
100
AcDbEntity
  8
0
  0
POLYLINE
  5
49C
330
1F
100
AcDbEntity
  8
0
 62
     7
100
AcDb2dPolyline
 66
     1
 10
0.0
 20
0.0
 30
0.0
  0
VERTEX
  5
49D
330
49C
100
AcDbEntity
  8
0
 62
     7
100
AcDbVertex
100
AcDb2dVertex
 10
46.03925290807262
 20
152.0957261124837
 30
0.0
  0
VERTEX
  5
49E
330
49C
100
AcDbEntity
  8
0
 62
     7
100
AcDbVertex
100
AcDb2dVertex
 10
45.45444756365862
 20
152.0957261124837
 30
0.0
  0
VERTEX
  5
49F
330
49C
100
AcDbEntity
  8
0
 62
     7
100
AcDbVertex
100
AcDb2dVertex
 10
45.45444756365862
 20
152.5330812728569
 30
0.0
  0
VERTEX
  5
4A0
330
49C
100
AcDbEntity
  8
0
 62
     7
100
AcDbVertex
100
AcDb2dVertex
 10
46.03925290807262
 20
152.5330812728569
 30
0.0
  0
VERTEX
  5
4A1
330
49C
100
AcDbEntity
  8
0
 62
     7
100
AcDbVertex
100
AcDb2dVertex
 10
46.03925290807262
 20
152.0957261124837
 30
0.0
  0
SEQEND
  5
4A2
330
49C
100
AcDbEntity
  8
0
  0
POLYLINE
  5
4A3
330
1F
100
AcDbEntity
  8
0
 62
     7
100
AcDb2dPolyline
 66
     1
 10
0.0
 20
0.0
 30
0.0
  0
VERTEX
  5
4A4
330
4A3
100
AcDbEntity
  8
0
 62
     7
100
AcDbVertex
100
AcDb2dVertex
 10
46.99268371258852
 20
152.0957261124837
 30
0.0
  0
VERTEX
  5
4A5
330
4A3
100
AcDbEntity
  8
0
 62
     7
100
AcDbVertex
100
AcDb2dVertex
 10
46.4092564072777
 20
152.0957261124837
 30
0.0
  0
VERTEX
  5
4A6
330
4A3
100
AcDbEntity
  8
0
 62
     7
100
AcDbVertex
100
AcDb2dVertex
 10
46.4092564072777
 20
152.5330812728569
 30
0.0
  0
VERTEX
  5
4A7
330
4A3
100
AcDbEntity
  8
0
 62
     7
100
AcDbVertex
100
AcDb2dVertex
 10
46.99268371258852
 20
152.5330812728569
 30
0.0
  0
VERTEX
  5
4A8
330
4A3
100
AcDbEntity
  8
0
 62
     7
100
AcDbVertex
100
AcDb2dVertex
 10
46.99268371258852
 20
152.0957261124837
 30
0.0
  0
SEQEND
  5
4A9
330
4A3
100
AcDbEntity
  8
0
  0
POLYLINE
  5
4AA
330
1F
100
AcDbEntity
  8
0
 62
     7
100
AcDb2dPolyline
 66
     1
 10
0.0
 20
0.0
 30
0.0
  0
VERTEX
  5
4AB
330
4AA
100
AcDbEntity
  8
0
 62
     7
100
AcDbVertex
100
AcDb2dVertex
 10
52.70000491331574
 20
153.4448263945015
 30
0.0
  0
VERTEX
  5
4AC
330
4AA
100
AcDbEntity
  8
0
 62
     7
100
AcDbVertex
100
AcDb2dVertex
 10
53.28170966974758
 20
153.4448263945015
 30
0.0
  0
VERTEX
  5
4AD
330
4AA
100
AcDbEntity
  8
0
 62
     7
100
AcDbVertex
100
AcDb2dVertex
 10
53.28170966974758
 20
154.2783677970403
 30
0.0
  0
VERTEX
  5
4AE
330
4AA
100
AcDbEntity
  8
0
 62
     7
100
AcDbVertex
100
AcDb2dVertex
 10
52.70000491331574
 20
154.2783677970403
 30
0.0
  0
VERTEX
  5
4AF
330
4AA
100
AcDbEntity
  8
0
 62
     7
100
AcDbVertex
100
AcDb2dVertex
 10
52.70000491331574
 20
153.4448263945015
 30
0.0
  0
SEQEND
  5
4B0
330
4AA
100
AcDbEntity
  8
0
  0
POLYLINE
  5
4B1
330
1F
100
AcDbEntity
  8
0
 62
     7
100
AcDb2dPolyline
 66
     1
 10
0.0
 20
0.0
 30
0.0
  0
VERTEX
  5
4B2
330
4B1
100
AcDbEntity
  8
0
 62
     7
100
AcDbVertex
100
AcDb2dVertex
 10
51.74519606969666
 20
153.4448263945015
 30
0.0
  0
VERTEX
  5
4B3
330
4B1
100
AcDbEntity
  8
0
 62
     7
100
AcDbVertex
100
AcDb2dVertex
 10
52.32758984568009
 20
153.4448263945015
 30
0.0
  0
VERTEX
  5
4B4
330
4B1
100
AcDbEntity
  8
0
 62
     7
100
AcDbVertex
100
AcDb2dVertex
 10
52.32758984568009
 20
154.2783677970403
 30
0.0
  0
VERTEX
  5
4B5
330
4B1
100
AcDbEntity
  8
0
 62
     7
100
AcDbVertex
100
AcDb2dVertex
 10
51.74519606969666
 20
154.2783677970403
 30
0.0
  0
VERTEX
  5
4B6
330
4B1
100
AcDbEntity
  8
0
 62
     7
100
AcDbVertex
100
AcDb2dVertex
 10
51.74519606969666
 20
153.4448263945015
 30
0.0
  0
SEQEND
  5
4B7
330
4B1
100
AcDbEntity
  8
0
  0
POLYLINE
  5
4B8
330
1F
100
AcDbEntity
  8
0
 62
     7
100
AcDb2dPolyline
 66
     1
 10
0.0
 20
0.0
 30
0.0
  0
VERTEX
  5
4B9
330
4B8
100
AcDbEntity
  8
0
 62
     7
100
AcDbVertex
100
AcDb2dVertex
 10
53.19420418669535
 20
155.095372730341
 30
0.0
  0
VERTEX
  5
4BA
330
4B8
100
AcDbEntity
  8
0
 62
     7
100
AcDbVertex
100
AcDb2dVertex
 10
53.77728698223036
 20
155.095372730341
 30
0.0
  0
VERTEX
  5
4BB
330
4B8
100
AcDbEntity
  8
0
 62
     7
100
AcDbVertex
100
AcDb2dVertex
 10
53.77728698223036
 20
155.5332446553779
 30
0.0
  0
VERTEX
  5
4BC
330
4B8
100
AcDbEntity
  8
0
 62
     7
100
AcDbVertex
100
AcDb2dVertex
 10
53.19420418669535
 20
155.5332446553779
 30
0.0
  0
VERTEX
  5
4BD
330
4B8
100
AcDbEntity
  8
0
 62
     7
100
AcDbVertex
100
AcDb2dVertex
 10
53.19420418669535
 20
155.095372730341
 30
0.0
  0
SEQEND
  5
4BE
330
4B8
100
AcDbEntity
  8
0
  0
POLYLINE
  5
4BF
330
1F
100
AcDbEntity
  8
0
 62
     7
100
AcDb2dPolyline
 66
     1
 10
0.0
 20
0.0
 30
0.0
  0
VERTEX
  5
4C0
330
4BF
100
AcDbEntity
  8
0
 62
     7
100
AcDbVertex
100
AcDb2dVertex
 10
52.24077338217946
 20
155.095372730341
 30
0.0
  0
VERTEX
  5
4C1
330
4BF
100
AcDbEntity
  8
0
 62
     7
100
AcDbVertex
100
AcDb2dVertex
 10
52.82282264838708
 20
155.095372730341
 30
0.0
  0
VERTEX
  5
4C2
330
4BF
100
AcDbEntity
  8
0
 62
     7
100
AcDbVertex
100
AcDb2dVertex
 10
52.82282264838708
 20
155.5332446553779
 30
0.0
  0
VERTEX
  5
4C3
330
4BF
100
AcDbEntity
  8
0
 62
     7
100
AcDbVertex
100
AcDb2dVertex
 10
52.24077338217946
 20
155.5332446553779
 30
0.0
  0
VERTEX
  5
4C4
330
4BF
100
AcDbEntity
  8
0
 62
     7
100
AcDbVertex
100
AcDb2dVertex
 10
52.24077338217946
 20
155.095372730341
 30
0.0
  0
SEQEND
  5
4C5
330
4BF
100
AcDbEntity
  8
0
  0
POLYLINE
  5
4C6
330
1F
100
AcDbEntity
  8
0
 62
     7
100
AcDb2dPolyline
 66
     1
 10
0.0
 20
0.0
 30
0.0
  0
VERTEX
  5
4C7
330
4C6
100
AcDbEntity
  8
0
 62
     7
100
AcDbVertex
100
AcDb2dVertex
 10
53.19420418669535
 20
152.0957261124837
 30
0.0
  0
VERTEX
  5
4C8
330
4C6
100
AcDbEntity
  8
0
 62
     7
100
AcDbVertex
100
AcDb2dVertex
 10
53.77728698223036
 20
152.0957261124837
 30
0.0
  0
VERTEX
  5
4C9
330
4C6
100
AcDbEntity
  8
0
 62
     7
100
AcDbVertex
100
AcDb2dVertex
 10
53.77728698223036
 20
152.5330812728569
 30
0.0
  0
VERTEX
  5
4CA
330
4C6
100
AcDbEntity
  8
0
 62
     7
100
AcDbVertex
100
AcDb2dVertex
 10
53.19420418669535
 20
152.5330812728569
 30
0.0
  0
VERTEX
  5
4CB
330
4C6
100
AcDbEntity
  8
0
 62
     7
100
AcDbVertex
100
AcDb2dVertex
 10
53.19420418669535
 20
152.0957261124837
 30
0.0
  0
SEQEND
  5
4CC
330
4C6
100
AcDbEntity
  8
0
  0
POLYLINE
  5
4CD
330
1F
100
AcDbEntity
  8
0
 62
     7
100
AcDb2dPolyline
 66
     1
 10
0.0
 20
0.0
 30
0.0
  0
VERTEX
  5
4CE
330
4CD
100
AcDbEntity
  8
0
 62
     7
100
AcDbVertex
100
AcDb2dVertex
 10
52.24077338217946
 20
152.0957261124837
 30
0.0
  0
VERTEX
  5
4CF
330
4CD
100
AcDbEntity
  8
0
 62
     7
100
AcDbVertex
100
AcDb2dVertex
 10
52.82282264838708
 20
152.0957261124837
 30
0.0
  0
VERTEX
  5
4D0
330
4CD
100
AcDbEntity
  8
0
 62
     7
100
AcDbVertex
100
AcDb2dVertex
 10
52.82282264838708
 20
152.5330812728569
 30
0.0
  0
VERTEX
  5
4D1
330
4CD
100
AcDbEntity
  8
0
 62
     7
100
AcDbVertex
100
AcDb2dVertex
 10
52.24077338217946
 20
152.5330812728569
 30
0.0
  0
VERTEX
  5
4D2
330
4CD
100
AcDbEntity
  8
0
 62
     7
100
AcDbVertex
100
AcDb2dVertex
 10
52.24077338217946
 20
152.0957261124837
 30
0.0
  0
SEQEND
  5
4D3
330
4CD
100
AcDbEntity
  8
0
  0
POLYLINE
  5
4D4
330
1F
100
AcDbEntity
  8
0
 62
     7
100
AcDb2dPolyline
 66
     1
 10
0.0
 20
0.0
 30
0.0
  0
VERTEX
  5
4D5
330
4D4
100
AcDbEntity
  8
0
 62
     7
100
AcDbVertex
100
AcDb2dVertex
 10
54.53693103786092
 20
152.0957261124837
 30
0.0
  0
VERTEX
  5
4D6
330
4D4
100
AcDbEntity
  8
0
 62
     7
100
AcDbVertex
100
AcDb2dVertex
 10
44.73097703448666
 20
152.0957261124837
 30
0.0
  0
VERTEX
  5
4D7
330
4D4
100
AcDbEntity
  8
0
 62
     7
100
AcDbVertex
100
AcDb2dVertex
 10
44.73097703448666
 20
155.5332446553779
 30
0.0
  0
VERTEX
  5
4D8
330
4D4
100
AcDbEntity
  8
0
 62
     7
100
AcDbVertex
100
AcDb2dVertex
 10
54.53693103786092
 20
155.5332446553779
 30
0.0
  0
VERTEX
  5
4D9
330
4D4
100
AcDbEntity
  8
0
 62
     7
100
AcDbVertex
100
AcDb2dVertex
 10
54.53693103786092
 20
152.0957261124837
 30
0.0
  0
SEQEND
  5
4DA
330
4D4
100
AcDbEntity
  8
0
  0
POLYLINE
  5
4DB
330
1F
100
AcDbEntity
  8
0
  6
AI-LINETYPE-1
 62
     7
100
AcDb2dPolyline
 66
     1
 10
0.0
 20
0.0
 30
0.0
  0
VERTEX
  5
4DC
330
4DB
100
AcDbEntity
  8
0
  6
AI-LINETYPE-1
 62
     7
100
AcDbVertex
100
AcDb2dVertex
 10
48.19364479101396
 20
153.8346392058149
 30
0.0
  0
VERTEX
  5
4DD
330
4DB
100
AcDbEntity
  8
0
  6
AI-LINETYPE-1
 62
     7
100
AcDbVertex
100
AcDb2dVertex
 10
51.10974778824063
 20
153.8346392058149
 30
0.0
  0
SEQEND
  5
4DE
330
4DB
100
AcDbEntity
  8
0
  6
AI-LINETYPE-1
  0
POLYLINE
  5
4E0
330
1F
100
AcDbEntity
  8
0
 62
     7
100
AcDb2dPolyline
 66
     1
 10
0.0
 20
0.0
 30
0.0
  0
VERTEX
  5
4E1
330
4E0
100
AcDbEntity
  8
0
 62
     7
100
AcDbVertex
100
AcDb2dVertex
 10
82.64513913529454
 20
155.2476460512429
 30
0.0
  0
VERTEX
  5
4E2
330
4E0
100
AcDbEntity
  8
0
 62
     7
100
AcDbVertex
100
AcDb2dVertex
 10
82.11717790388691
 20
155.2476460512429
 30
0.0
  0
VERTEX
  5
4E3
330
4E0
100
AcDbEntity
  8
0
 62
     7
100
AcDbVertex
100
AcDb2dVertex
 10
82.11717790388691
 20
157.8275075072925
 30
0.0
  0
VERTEX
  5
4E4
330
4E0
100
AcDbEntity
  8
0
 62
     7
100
AcDbVertex
100
AcDb2dVertex
 10
85.51456105790082
 20
157.8275075072925
 30
0.0
  0
VERTEX
  5
4E5
330
4E0
100
AcDbEntity
  8
0
 62
     7
100
AcDbVertex
100
AcDb2dVertex
 10
85.51456105790082
 20
149.8605466871182
 30
0.0
  0
VERTEX
  5
4E6
330
4E0
100
AcDbEntity
  8
0
 62
     7
100
AcDbVertex
100
AcDb2dVertex
 10
82.11717790388691
 20
149.8605466871182
 30
0.0
  0
VERTEX
  5
4E7
330
4E0
100
AcDbEntity
  8
0
 62
     7
100
AcDbVertex
100
AcDb2dVertex
 10
82.11717790388691
 20
152.4404081431678
 30
0.0
  0
VERTEX
  5
4E8
330
4E0
100
AcDbEntity
  8
0
 62
     7
100
AcDbVertex
100
AcDb2dVertex
 10
82.64513913529454
 20
152.4404081431678
 30
0.0
  0
VERTEX
  5
4E9
330
4E0
100
AcDbEntity
  8
0
 62
     7
100
AcDbVertex
100
AcDb2dVertex
 10
82.64513913529454
 20
155.2476460512429
 30
0.0
  0
SEQEND
  5
4EA
330
4E0
100
AcDbEntity
  8
0
  0
POLYLINE
  5
4EB
330
1F
100
AcDbEntity
  8
0
 62
     7
100
AcDb2dPolyline
 66
     1
 10
0.0
 20
0.0
 30
0.0
  0
VERTEX
  5
4EC
330
4EB
100
AcDbEntity
  8
0
 62
     7
100
AcDbVertex
100
AcDb2dVertex
 10
85.44014694632885
 20
157.219792262788
 30
0.0
  0
VERTEX
  5
4ED
330
4EB
100
AcDbEntity
  8
0
 62
     7
100
AcDbVertex
100
AcDb2dVertex
 10
83.17361713136586
 20
157.219792262788
 30
0.0
  0
VERTEX
  5
4EE
330
4EB
100
AcDbEntity
  8
0
 62
     7
100
AcDbVertex
100
AcDb2dVertex
 10
83.17361713136586
 20
155.5501256343919
 30
0.0
  0
VERTEX
  5
4EF
330
4EB
100
AcDbEntity
  8
0
 62
     7
100
AcDbVertex
100
AcDb2dVertex
 10
83.92912706968686
 20
155.5501256343919
 30
0.0
  0
VERTEX
  5
4F0
330
4EB
100
AcDbEntity
  8
0
 62
     7
100
AcDbVertex
100
AcDb2dVertex
 10
83.92912706968686
 20
152.135861501364
 30
0.0
  0
VERTEX
  5
4F1
330
4EB
100
AcDbEntity
  8
0
 62
     7
100
AcDbVertex
100
AcDb2dVertex
 10
83.17361713136586
 20
152.135861501364
 30
0.0
  0
VERTEX
  5
4F2
330
4EB
100
AcDbEntity
  8
0
 62
     7
100
AcDbVertex
100
AcDb2dVertex
 10
83.17361713136586
 20
150.4677451669589
 30
0.0
  0
VERTEX
  5
4F3
330
4EB
100
AcDbEntity
  8
0
 62
     7
100
AcDbVertex
100
AcDb2dVertex
 10
85.44014694632885
 20
150.4677451669589
 30
0.0
  0
SEQEND
  5
4F4
330
4EB
100
AcDbEntity
  8
0
  0
SPLINE
  5
4F5
330
1F
100
AcDbEntity
  8
0
 62
     7
100
AcDbSpline
210
0.0
220
0.0
230
1.0
 70
    11
 71
     3
 72
    50
 73
    46
 74
     0
 42
0.0000000001
 43
0.0000000001
 40
0.0
 40
0.0
 40
0.0
 40
0.0
 40
1.0
 40
1.0
 40
1.0
 40
2.0
 40
2.0
 40
2.0
 40
3.0
 40
3.0
 40
3.0
 40
4.0
 40
4.0
 40
4.0
 40
5.0
 40
5.0
 40
5.0
 40
6.0
 40
6.0
 40
6.0
 40
7.0
 40
7.0
 40
7.0
 40
8.0
 40
8.0
 40
8.0
 40
9.0
 40
9.0
 40
9.0
 40
10.0
 40
10.0
 40
10.0
 40
11.0
 40
11.0
 40
11.0
 40
12.0
 40
12.0
 40
12.0
 40
13.0
 40
13.0
 40
13.0
 40
14.0
 40
14.0
 40
14.0
 40
15.0
 40
15.0
 40
15.0
 40
15.0
 10
88.98963116635679
 20
150.5435373176341
 30
0.0
 10
88.98963116635679
 20
150.5435373176341
 30
0.0
 10
87.32771600791607
 20
150.4677451669589
 30
0.0
 10
86.94978878386766
 20
151.9859997488926
 30
0.0
 10
86.94978878386766
 20
151.9859997488926
 30
0.0
 10
86.94978878386766
 20
151.9859997488926
 30
0.0
 10
86.94978878386766
 20
151.9859997488926
 30
0.0
 10
86.94978878386766
 20
151.9859997488926
 30
0.0
 10
86.42182755246004
 20
155.778018851081
 30
0.0
 10
86.42182755246004
 20
155.778018851081
 30
0.0
 10
86.42182755246004
 20
155.778018851081
 30
0.0
 10
86.42182755246004
 20
155.778018851081
 30
0.0
 10
86.42182755246004
 20
155.778018851081
 30
0.0
 10
86.42182755246004
 20
155.778018851081
 30
0.0
 10
86.19531237487406
 20
157.1429665827855
 30
0.0
 10
87.62933431662562
 20
157.1429665827855
 30
0.0
 10
87.62933431662562
 20
157.1429665827855
 30
0.0
 10
87.62933431662562
 20
157.1429665827855
 30
0.0
 10
87.62933431662562
 20
157.1429665827855
 30
0.0
 10
87.62933431662562
 20
157.1429665827855
 30
0.0
 10
98.42971578783551
 20
157.1429665827855
 30
0.0
 10
98.42971578783551
 20
157.1429665827855
 30
0.0
 10
98.42971578783551
 20
157.1429665827855
 30
0.0
 10
98.42971578783551
 20
157.1429665827855
 30
0.0
 10
98.42971578783551
 20
157.1429665827855
 30
0.0
 10
99.86511576869025
 20
157.1429665827855
 30
0.0
 10
99.63825608132846
 20
155.778018851081
 30
0.0
 10
99.63825608132846
 20
155.778018851081
 30
0.0
 10
99.63825608132846
 20
155.778018851081
 30
0.0
 10
99.63825608132846
 20
155.778018851081
 30
0.0
 10
99.63825608132846
 20
155.778018851081
 30
0.0
 10
99.63825608132846
 20
155.778018851081
 30
0.0
 10
99.10926132059345
 20
151.9859997488926
 30
0.0
 10
99.10926132059345
 20
151.9859997488926
 30
0.0
 10
99.10926132059345
 20
151.9859997488926
 30
0.0
 10
99.10926132059345
 20
151.9859997488926
 30
0.0
 10
99.10926132059345
 20
151.9859997488926
 30
0.0
 10
98.73202311609664
 20
150.4677451669589
 30
0.0
 10
97.06976344788012
 20
150.5435373176341
 30
0.0
 10
97.06976344788012
 20
150.5435373176341
 30
0.0
 10
97.06976344788012
 20
150.5435373176341
 30
0.0
 10
97.06976344788012
 20
150.5435373176341
 30
0.0
 10
97.06976344788012
 20
150.5435373176341
 30
0.0
 10
97.06976344788012
 20
150.5435373176341
 30
0.0
 10
88.98963116635679
 20
150.5435373176341
 30
0.0
 10
88.98963116635679
 20
150.5435373176341
 30
0.0
  0
POLYLINE
  5
4F6
330
1F
100
AcDbEntity
  8
0
 62
     7
100
AcDb2dPolyline
 66
     1
 10
0.0
 20
0.0
 30
0.0
  0
VERTEX
  5
4F7
330
4F6
100
AcDbEntity
  8
0
 62
     7
100
AcDbVertex
100
AcDb2dVertex
 10
103.4152890082698
 20
152.4404081431678
 30
0.0
  0
VERTEX
  5
4F8
330
4F6
100
AcDbEntity
  8
0
 62
     7
100
AcDbVertex
100
AcDb2dVertex
 10
103.9432502396774
 20
152.4404081431678
 30
0.0
  0
VERTEX
  5
4F9
330
4F6
100
AcDbEntity
  8
0
 62
     7
100
AcDbVertex
100
AcDb2dVertex
 10
103.9432502396774
 20
149.8605466871182
 30
0.0
  0
VERTEX
  5
4FA
330
4F6
100
AcDbEntity
  8
0
 62
     7
100
AcDbVertex
100
AcDb2dVertex
 10
100.5446613014482
 20
149.8605466871182
 30
0.0
  0
VERTEX
  5
4FB
330
4F6
100
AcDbEntity
  8
0
 62
     7
100
AcDbVertex
100
AcDb2dVertex
 10
100.5446613014482
 20
157.8275075072925
 30
0.0
  0
VERTEX
  5
4FC
330
4F6
100
AcDbEntity
  8
0
 62
     7
100
AcDbVertex
100
AcDb2dVertex
 10
103.9432502396774
 20
157.8275075072925
 30
0.0
  0
VERTEX
  5
4FD
330
4F6
100
AcDbEntity
  8
0
 62
     7
100
AcDbVertex
100
AcDb2dVertex
 10
103.9432502396774
 20
155.2476460512429
 30
0.0
  0
VERTEX
  5
4FE
330
4F6
100
AcDbEntity
  8
0
 62
     7
100
AcDbVertex
100
AcDb2dVertex
 10
103.4152890082698
 20
155.2476460512429
 30
0.0
  0
VERTEX
  5
4FF
330
4F6
100
AcDbEntity
  8
0
 62
     7
100
AcDbVertex
100
AcDb2dVertex
 10
103.4152890082698
 20
152.4404081431678
 30
0.0
  0
SEQEND
  5
500
330
4F6
100
AcDbEntity
  8
0
  0
POLYLINE
  5
501
330
1F
100
AcDbEntity
  8
0
 62
     7
100
AcDb2dPolyline
 66
     1
 10
0.0
 20
0.0
 30
0.0
  0
VERTEX
  5
502
330
501
100
AcDbEntity
  8
0
 62
     7
100
AcDbVertex
100
AcDb2dVertex
 10
100.6195921776839
 20
150.4677451669589
 30
0.0
  0
VERTEX
  5
503
330
501
100
AcDbEntity
  8
0
 62
     7
100
AcDbVertex
100
AcDb2dVertex
 10
102.8852607182073
 20
150.4677451669589
 30
0.0
  0
VERTEX
  5
504
330
501
100
AcDbEntity
  8
0
 62
     7
100
AcDbVertex
100
AcDb2dVertex
 10
102.8852607182073
 20
152.135861501364
 30
0.0
  0
VERTEX
  5
505
330
501
100
AcDbEntity
  8
0
 62
     7
100
AcDbVertex
100
AcDb2dVertex
 10
102.1309565641016
 20
152.135861501364
 30
0.0
  0
VERTEX
  5
506
330
501
100
AcDbEntity
  8
0
 62
     7
100
AcDbVertex
100
AcDb2dVertex
 10
102.1309565641016
 20
155.5501256343919
 30
0.0
  0
VERTEX
  5
507
330
501
100
AcDbEntity
  8
0
 62
     7
100
AcDbVertex
100
AcDb2dVertex
 10
102.8852607182073
 20
155.5501256343919
 30
0.0
  0
VERTEX
  5
508
330
501
100
AcDbEntity
  8
0
 62
     7
100
AcDbVertex
100
AcDb2dVertex
 10
102.8852607182073
 20
157.219792262788
 30
0.0
  0
VERTEX
  5
509
330
501
100
AcDbEntity
  8
0
 62
     7
100
AcDbVertex
100
AcDb2dVertex
 10
100.6195921776839
 20
157.219792262788
 30
0.0
  0
SEQEND
  5
50A
330
501
100
AcDbEntity
  8
0
  0
SPLINE
  5
50B
330
1F
100
AcDbEntity
  8
0
 62
     7
100
AcDbSpline
210
0.0
220
0.0
230
1.0
 70
    11
 71
     3
 72
    50
 73
    46
 74
     0
 42
0.0000000001
 43
0.0000000001
 40
0.0
 40
0.0
 40
0.0
 40
0.0
 40
1.0
 40
1.0
 40
1.0
 40
2.0
 40
2.0
 40
2.0
 40
3.0
 40
3.0
 40
3.0
 40
4.0
 40
4.0
 40
4.0
 40
5.0
 40
5.0
 40
5.0
 40
6.0
 40
6.0
 40
6.0
 40
7.0
 40
7.0
 40
7.0
 40
8.0
 40
8.0
 40
8.0
 40
9.0
 40
9.0
 40
9.0
 40
10.0
 40
10.0
 40
10.0
 40
11.0
 40
11.0
 40
11.0
 40
12.0
 40
12.0
 40
12.0
 40
13.0
 40
13.0
 40
13.0
 40
14.0
 40
14.0
 40
14.0
 40
15.0
 40
15.0
 40
15.0
 40
15.0
 10
97.22100323945465
 20
151.3407329388264
 30
0.0
 10
97.22100323945465
 20
151.3407329388264
 30
0.0
 10
97.97616866799984
 20
151.2645962783754
 30
0.0
 10
98.35340687249665
 20
152.0991712102417
 30
0.0
 10
98.35340687249665
 20
152.0991712102417
 30
0.0
 10
98.35340687249665
 20
152.0991712102417
 30
0.0
 10
98.35340687249665
 20
152.0991712102417
 30
0.0
 10
98.35340687249665
 20
152.0991712102417
 30
0.0
 10
98.88274614300747
 20
155.7396060110798
 30
0.0
 10
98.88274614300747
 20
155.7396060110798
 30
0.0
 10
98.88274614300747
 20
155.7396060110798
 30
0.0
 10
98.88274614300747
 20
155.7396060110798
 30
0.0
 10
98.88274614300747
 20
155.7396060110798
 30
0.0
 10
98.88274614300747
 20
155.7396060110798
 30
0.0
 10
98.88274614300747
 20
156.3466322360326
 30
0.0
 10
98.27795923159729
 20
156.3466322360326
 30
0.0
 10
98.27795923159729
 20
156.3466322360326
 30
0.0
 10
98.27795923159729
 20
156.3466322360326
 30
0.0
 10
98.27795923159729
 20
156.3466322360326
 30
0.0
 10
98.27795923159729
 20
156.3466322360326
 30
0.0
 10
87.78143538263961
 20
156.3466322360326
 30
0.0
 10
87.78143538263961
 20
156.3466322360326
 30
0.0
 10
87.78143538263961
 20
156.3466322360326
 30
0.0
 10
87.78143538263961
 20
156.3466322360326
 30
0.0
 10
87.78143538263961
 20
156.3466322360326
 30
0.0
 10
87.17768200055683
 20
156.3466322360326
 30
0.0
 10
87.17768200055683
 20
155.7396060110798
 30
0.0
 10
87.17768200055683
 20
155.7396060110798
 30
0.0
 10
87.17768200055683
 20
155.7396060110798
 30
0.0
 10
87.17768200055683
 20
155.7396060110798
 30
0.0
 10
87.17768200055683
 20
155.7396060110798
 30
0.0
 10
87.17768200055683
 20
155.7396060110798
 30
0.0
 10
87.70529872218866
 20
152.0991712102417
 30
0.0
 10
87.70529872218866
 20
152.0991712102417
 30
0.0
 10
87.70529872218866
 20
152.0991712102417
 30
0.0
 10
87.70529872218866
 20
152.0991712102417
 30
0.0
 10
87.70529872218866
 20
152.0991712102417
 30
0.0
 10
88.08391496578865
 20
151.2645962783754
 30
0.0
 10
88.83821911989436
 20
151.3407329388264
 30
0.0
 10
88.83821911989436
 20
151.3407329388264
 30
0.0
 10
88.83821911989436
 20
151.3407329388264
 30
0.0
 10
88.83821911989436
 20
151.3407329388264
 30
0.0
 10
88.83821911989436
 20
151.3407329388264
 30
0.0
 10
88.83821911989436
 20
151.3407329388264
 30
0.0
 10
97.22100323945465
 20
151.3407329388264
 30
0.0
 10
97.22100323945465
 20
151.3407329388264
 30
0.0
  0
SPLINE
  5
50C
330
1F
100
AcDbEntity
  8
0
 62
     7
100
AcDbSpline
210
0.0
220
0.0
230
1.0
 70
    11
 71
     3
 72
    23
 73
    19
 74
     0
 42
0.0000000001
 43
0.0000000001
 40
0.0
 40
0.0
 40
0.0
 40
0.0
 40
1.0
 40
1.0
 40
1.0
 40
2.0
 40
2.0
 40
2.0
 40
3.0
 40
3.0
 40
3.0
 40
4.0
 40
4.0
 40
4.0
 40
5.0
 40
5.0
 40
5.0
 40
6.0
 40
6.0
 40
6.0
 40
6.0
 10
81.66345852916335
 20
153.8437687148735
 30
0.0
 10
81.66345852916335
 20
154.3886109252951
 30
0.0
 10
81.22386405524745
 20
154.8301002029779
 30
0.0
 10
80.68143341325637
 20
154.8301002029779
 30
0.0
 10
80.13917502615321
 20
154.8301002029779
 30
0.0
 10
79.69940829734939
 20
154.3886109252951
 30
0.0
 10
79.69940829734939
 20
153.8437687148735
 30
0.0
 10
79.69940829734939
 20
153.2989265044518
 30
0.0
 10
80.13917502615321
 20
152.857437226769
 30
0.0
 10
80.68143341325637
 20
152.857437226769
 30
0.0
 10
81.22386405524745
 20
152.857437226769
 30
0.0
 10
81.66345852916335
 20
153.2989265044518
 30
0.0
 10
81.66345852916335
 20
153.8437687148735
 30
0.0
 10
81.66345852916335
 20
153.8437687148735
 30
0.0
 10
81.66345852916335
 20
153.8437687148735
 30
0.0
 10
81.66345852916335
 20
153.8437687148735
 30
0.0
 10
81.66345852916335
 20
153.8437687148735
 30
0.0
 10
81.66345852916335
 20
153.8437687148735
 30
0.0
 10
81.66345852916335
 20
153.8437687148735
 30
0.0
  0
SPLINE
  5
50D
330
1F
100
AcDbEntity
  8
0
 62
     7
100
AcDbSpline
210
0.0
220
0.0
230
1.0
 70
    11
 71
     3
 72
    23
 73
    19
 74
     0
 42
0.0000000001
 43
0.0000000001
 40
0.0
 40
0.0
 40
0.0
 40
0.0
 40
1.0
 40
1.0
 40
1.0
 40
2.0
 40
2.0
 40
2.0
 40
3.0
 40
3.0
 40
3.0
 40
4.0
 40
4.0
 40
4.0
 40
5.0
 40
5.0
 40
5.0
 40
6.0
 40
6.0
 40
6.0
 40
6.0
 10
82.19193652523468
 20
153.8437687148735
 30
0.0
 10
82.19193652523468
 20
154.6816164896098
 30
0.0
 10
81.5156638353468
 20
155.360645257704
 30
0.0
 10
80.68143341325637
 20
155.360645257704
 30
0.0
 10
79.84737524605384
 20
155.360645257704
 30
0.0
 10
79.17110255616598
 20
154.6816164896098
 30
0.0
 10
79.17110255616598
 20
153.8437687148735
 30
0.0
 10
79.17110255616598
 20
153.0057486852493
 30
0.0
 10
79.84737524605384
 20
152.326719917155
 30
0.0
 10
80.68143341325637
 20
152.326719917155
 30
0.0
 10
81.5156638353468
 20
152.326719917155
 30
0.0
 10
82.19193652523468
 20
153.0057486852493
 30
0.0
 10
82.19193652523468
 20
153.8437687148735
 30
0.0
 10
82.19193652523468
 20
153.8437687148735
 30
0.0
 10
82.19193652523468
 20
153.8437687148735
 30
0.0
 10
82.19193652523468
 20
153.8437687148735
 30
0.0
 10
82.19193652523468
 20
153.8437687148735
 30
0.0
 10
82.19193652523468
 20
153.8437687148735
 30
0.0
 10
82.19193652523468
 20
153.8437687148735
 30
0.0
  0
SPLINE
  5
50E
330
1F
100
AcDbEntity
  8
0
 62
     7
100
AcDbSpline
210
0.0
220
0.0
230
1.0
 70
    11
 71
     3
 72
    23
 73
    19
 74
     0
 42
0.0000000001
 43
0.0000000001
 40
0.0
 40
0.0
 40
0.0
 40
0.0
 40
1.0
 40
1.0
 40
1.0
 40
2.0
 40
2.0
 40
2.0
 40
3.0
 40
3.0
 40
3.0
 40
4.0
 40
4.0
 40
4.0
 40
5.0
 40
5.0
 40
5.0
 40
6.0
 40
6.0
 40
6.0
 40
6.0
 10
106.4347449382353
 20
153.8437687148735
 30
0.0
 10
106.4347449382353
 20
154.3882664155193
 30
0.0
 10
105.9951504643194
 20
154.8295834383142
 30
0.0
 10
105.453236586992
 20
154.8295834383142
 30
0.0
 10
104.9109781998888
 20
154.8295834383142
 30
0.0
 10
104.4715559808608
 20
154.3882664155193
 30
0.0
 10
104.4715559808608
 20
153.8437687148735
 30
0.0
 10
104.4715559808608
 20
153.2992710142276
 30
0.0
 10
104.9109781998888
 20
152.8579539914327
 30
0.0
 10
105.453236586992
 20
152.8579539914327
 30
0.0
 10
105.9951504643194
 20
152.8579539914327
 30
0.0
 10
106.4347449382353
 20
153.2992710142276
 30
0.0
 10
106.4347449382353
 20
153.8437687148735
 30
0.0
 10
106.4347449382353
 20
153.8437687148735
 30
0.0
 10
106.4347449382353
 20
153.8437687148735
 30
0.0
 10
106.4347449382353
 20
153.8437687148735
 30
0.0
 10
106.4347449382353
 20
153.8437687148735
 30
0.0
 10
106.4347449382353
 20
153.8437687148735
 30
0.0
 10
106.4347449382353
 20
153.8437687148735
 30
0.0
  0
SPLINE
  5
50F
330
1F
100
AcDbEntity
  8
0
 62
     7
100
AcDbSpline
210
0.0
220
0.0
230
1.0
 70
    11
 71
     3
 72
    23
 73
    19
 74
     0
 42
0.0000000001
 43
0.0000000001
 40
0.0
 40
0.0
 40
0.0
 40
0.0
 40
1.0
 40
1.0
 40
1.0
 40
2.0
 40
2.0
 40
2.0
 40
3.0
 40
3.0
 40
3.0
 40
4.0
 40
4.0
 40
4.0
 40
5.0
 40
5.0
 40
5.0
 40
6.0
 40
6.0
 40
6.0
 40
6.0
 10
106.9632229343066
 20
153.8437687148735
 30
0.0
 10
106.9632229343066
 20
154.681271979834
 30
0.0
 10
106.2872947541945
 20
155.3603007479282
 30
0.0
 10
105.453236586992
 20
155.3603007479282
 30
0.0
 10
104.6193506746774
 20
155.3603007479282
 30
0.0
 10
103.9432502396774
 20
154.681271979834
 30
0.0
 10
103.9432502396774
 20
153.8437687148735
 30
0.0
 10
103.9432502396774
 20
153.0059209401372
 30
0.0
 10
104.6193506746774
 20
152.3270644269308
 30
0.0
 10
105.453236586992
 20
152.3270644269308
 30
0.0
 10
106.2872947541945
 20
152.3270644269308
 30
0.0
 10
106.9632229343066
 20
153.0059209401372
 30
0.0
 10
106.9632229343066
 20
153.8437687148735
 30
0.0
 10
106.9632229343066
 20
153.8437687148735
 30
0.0
 10
106.9632229343066
 20
153.8437687148735
 30
0.0
 10
106.9632229343066
 20
153.8437687148735
 30
0.0
 10
106.9632229343066
 20
153.8437687148735
 30
0.0
 10
106.9632229343066
 20
153.8437687148735
 30
0.0
 10
106.9632229343066
 20
153.8437687148735
 30
0.0
  0
SPLINE
  5
510
330
1F
100
AcDbEntity
  8
0
 62
     7
100
AcDbSpline
210
0.0
220
0.0
230
1.0
 70
    11
 71
     3
 72
    50
 73
    46
 74
     0
 42
0.0000000001
 43
0.0000000001
 40
0.0
 40
0.0
 40
0.0
 40
0.0
 40
1.0
 40
1.0
 40
1.0
 40
2.0
 40
2.0
 40
2.0
 40
3.0
 40
3.0
 40
3.0
 40
4.0
 40
4.0
 40
4.0
 40
5.0
 40
5.0
 40
5.0
 40
6.0
 40
6.0
 40
6.0
 40
7.0
 40
7.0
 40
7.0
 40
8.0
 40
8.0
 40
8.0
 40
9.0
 40
9.0
 40
9.0
 40
10.0
 40
10.0
 40
10.0
 40
11.0
 40
11.0
 40
11.0
 40
12.0
 40
12.0
 40
12.0
 40
13.0
 40
13.0
 40
13.0
 40
14.0
 40
14.0
 40
14.0
 40
15.0
 40
15.0
 40
15.0
 40
15.0
 10
107.794180513527
 20
149.5322288707844
 30
0.0
 10
107.794180513527
 20
149.24904183508
 30
0.0
 10
107.5664595517257
 20
149.0189093048481
 30
0.0
 10
107.285339574676
 20
149.0189093048481
 30
0.0
 10
107.285339574676
 20
149.0189093048481
 30
0.0
 10
107.285339574676
 20
149.0189093048481
 30
0.0
 10
107.285339574676
 20
149.0189093048481
 30
0.0
 10
107.285339574676
 20
149.0189093048481
 30
0.0
 10
78.77353827489719
 20
149.0189093048481
 30
0.0
 10
78.77353827489719
 20
149.0189093048481
 30
0.0
 10
78.77353827489719
 20
149.0189093048481
 30
0.0
 10
78.77353827489719
 20
149.0189093048481
 30
0.0
 10
78.77353827489719
 20
149.0189093048481
 30
0.0
 10
78.49345182717491
 20
149.0189093048481
 30
0.0
 10
78.26486959093415
 20
149.24904183508
 30
0.0
 10
78.26486959093415
 20
149.5322288707844
 30
0.0
 10
78.26486959093415
 20
149.5322288707844
 30
0.0
 10
78.26486959093415
 20
149.5322288707844
 30
0.0
 10
78.26486959093415
 20
149.5322288707844
 30
0.0
 10
78.26486959093415
 20
149.5322288707844
 30
0.0
 10
78.26486959093415
 20
158.0659082721434
 30
0.0
 10
78.26486959093415
 20
158.0659082721434
 30
0.0
 10
78.26486959093415
 20
158.0659082721434
 30
0.0
 10
78.26486959093415
 20
158.0659082721434
 30
0.0
 10
78.26486959093415
 20
158.0659082721434
 30
0.0
 10
78.26486959093415
 20
158.3477172687447
 30
0.0
 10
78.49345182717491
 20
158.5783665636402
 30
0.0
 10
78.77353827489719
 20
158.5783665636402
 30
0.0
 10
78.77353827489719
 20
158.5783665636402
 30
0.0
 10
78.77353827489719
 20
158.5783665636402
 30
0.0
 10
78.77353827489719
 20
158.5783665636402
 30
0.0
 10
78.77353827489719
 20
158.5783665636402
 30
0.0
 10
107.285339574676
 20
158.5783665636402
 30
0.0
 10
107.285339574676
 20
158.5783665636402
 30
0.0
 10
107.285339574676
 20
158.5783665636402
 30
0.0
 10
107.285339574676
 20
158.5783665636402
 30
0.0
 10
107.285339574676
 20
158.5783665636402
 30
0.0
 10
107.5664595517257
 20
158.5783665636402
 30
0.0
 10
107.794180513527
 20
158.3477172687447
 30
0.0
 10
107.794180513527
 20
158.0659082721434
 30
0.0
 10
107.794180513527
 20
158.0659082721434
 30
0.0
 10
107.794180513527
 20
158.0659082721434
 30
0.0
 10
107.794180513527
 20
158.0659082721434
 30
0.0
 10
107.794180513527
 20
158.0659082721434
 30
0.0
 10
107.794180513527
 20
149.5322288707844
 30
0.0
 10
107.794180513527
 20
149.5322288707844
 30
0.0
  0
SPLINE
  5
511
330
1F
100
AcDbEntity
  8
0
 62
     7
100
AcDbSpline
210
0.0
220
0.0
230
1.0
 70
     8
 71
     3
 72
    32
 73
    28
 74
     0
 42
0.0000000001
 43
0.0000000001
 40
0.0
 40
0.0
 40
0.0
 40
0.0
 40
1.0
 40
1.0
 40
1.0
 40
2.0
 40
2.0
 40
2.0
 40
3.0
 40
3.0
 40
3.0
 40
4.0
 40
4.0
 40
4.0
 40
5.0
 40
5.0
 40
5.0
 40
6.0
 40
6.0
 40
6.0
 40
7.0
 40
7.0
 40
7.0
 40
8.0
 40
8.0
 40
8.0
 40
9.0
 40
9.0
 40
9.0
 40
9.0
 10
78.20836998770358
 20
149.5527272024443
 30
0.0
 10
78.20836998770358
 20
149.5527272024443
 30
0.0
 10
77.92432167755963
 20
149.5527272024443
 30
0.0
 10
77.92432167755963
 20
149.5527272024443
 30
0.0
 10
77.92432167755963
 20
149.5527272024443
 30
0.0
 10
77.92432167755963
 20
149.5527272024443
 30
0.0
 10
77.92432167755963
 20
149.5527272024443
 30
0.0
 10
77.64389072006155
 20
149.5527272024443
 30
0.0
 10
77.4159975033724
 20
149.7801036544698
 30
0.0
 10
77.4159975033724
 20
150.0632906901742
 30
0.0
 10
77.4159975033724
 20
150.0632906901742
 30
0.0
 10
77.4159975033724
 20
150.0632906901742
 30
0.0
 10
77.4159975033724
 20
150.0632906901742
 30
0.0
 10
77.4159975033724
 20
150.0632906901742
 30
0.0
 10
77.4159975033724
 20
157.5357077271931
 30
0.0
 10
77.4159975033724
 20
157.5357077271931
 30
0.0
 10
77.4159975033724
 20
157.5357077271931
 30
0.0
 10
77.4159975033724
 20
157.5357077271931
 30
0.0
 10
77.4159975033724
 20
157.5357077271931
 30
0.0
 10
77.4159975033724
 20
157.8168277042428
 30
0.0
 10
77.64389072006155
 20
158.0464434698109
 30
0.0
 10
77.92432167755963
 20
158.0464434698109
 30
0.0
 10
77.92432167755963
 20
158.0464434698109
 30
0.0
 10
77.92432167755963
 20
158.0464434698109
 30
0.0
 10
77.92432167755963
 20
158.0464434698109
 30
0.0
 10
77.92432167755963
 20
158.0464434698109
 30
0.0
 10
78.20836998770358
 20
158.0464434698109
 30
0.0
 10
78.20836998770358
 20
158.0464434698109
 30
0.0
  0
SPLINE
  5
512
330
1F
100
AcDbEntity
  8
0
 62
     7
100
AcDbSpline
210
0.0
220
0.0
230
1.0
 70
     8
 71
     3
 72
    32
 73
    28
 74
     0
 42
0.0000000001
 43
0.0000000001
 40
0.0
 40
0.0
 40
0.0
 40
0.0
 40
1.0
 40
1.0
 40
1.0
 40
2.0
 40
2.0
 40
2.0
 40
3.0
 40
3.0
 40
3.0
 40
4.0
 40
4.0
 40
4.0
 40
5.0
 40
5.0
 40
5.0
 40
6.0
 40
6.0
 40
6.0
 40
7.0
 40
7.0
 40
7.0
 40
8.0
 40
8.0
 40
8.0
 40
9.0
 40
9.0
 40
9.0
 40
9.0
 10
107.8510246265333
 20
149.5527272024443
 30
0.0
 10
107.8510246265333
 20
149.5527272024443
 30
0.0
 10
108.1345561720136
 20
149.5527272024443
 30
0.0
 10
108.1345561720136
 20
149.5527272024443
 30
0.0
 10
108.1345561720136
 20
149.5527272024443
 30
0.0
 10
108.1345561720136
 20
149.5527272024443
 30
0.0
 10
108.1345561720136
 20
149.5527272024443
 30
0.0
 10
108.4173986979422
 20
149.5527272024443
 30
0.0
 10
108.6447751499677
 20
149.7801036544698
 30
0.0
 10
108.6447751499677
 20
150.0632906901742
 30
0.0
 10
108.6447751499677
 20
150.0632906901742
 30
0.0
 10
108.6447751499677
 20
150.0632906901742
 30
0.0
 10
108.6447751499677
 20
150.0632906901742
 30
0.0
 10
108.6447751499677
 20
150.0632906901742
 30
0.0
 10
108.6447751499677
 20
157.5357077271931
 30
0.0
 10
108.6447751499677
 20
157.5357077271931
 30
0.0
 10
108.6447751499677
 20
157.5357077271931
 30
0.0
 10
108.6447751499677
 20
157.5357077271931
 30
0.0
 10
108.6447751499677
 20
157.5357077271931
 30
0.0
 10
108.6447751499677
 20
157.8168277042428
 30
0.0
 10
108.4173986979422
 20
158.0464434698109
 30
0.0
 10
108.1345561720136
 20
158.0464434698109
 30
0.0
 10
108.1345561720136
 20
158.0464434698109
 30
0.0
 10
108.1345561720136
 20
158.0464434698109
 30
0.0
 10
108.1345561720136
 20
158.0464434698109
 30
0.0
 10
108.1345561720136
 20
158.0464434698109
 30
0.0
 10
107.8510246265333
 20
158.0464434698109
 30
0.0
 10
107.8510246265333
 20
158.0464434698109
 30
0.0
  0
POLYLINE
  5
513
330
1F
100
AcDbEntity
  8
0
 62
     7
100
AcDb2dPolyline
 66
     1
 10
0.0
 20
0.0
 30
0.0
  0
VERTEX
  5
514
330
513
100
AcDbEntity
  8
0
 62
     7
100
AcDbVertex
100
AcDb2dVertex
 10
89.89207452405485
 20
153.4448263945015
 30
0.0
  0
VERTEX
  5
515
330
513
100
AcDbEntity
  8
0
 62
     7
100
AcDbVertex
100
AcDb2dVertex
 10
89.30899172851983
 20
153.4448263945015
 30
0.0
  0
VERTEX
  5
516
330
513
100
AcDbEntity
  8
0
 62
     7
100
AcDbVertex
100
AcDb2dVertex
 10
89.30899172851983
 20
154.2783677970403
 30
0.0
  0
VERTEX
  5
517
330
513
100
AcDbEntity
  8
0
 62
     7
100
AcDbVertex
100
AcDb2dVertex
 10
89.89207452405485
 20
154.2783677970403
 30
0.0
  0
VERTEX
  5
518
330
513
100
AcDbEntity
  8
0
 62
     7
100
AcDbVertex
100
AcDb2dVertex
 10
89.89207452405485
 20
153.4448263945015
 30
0.0
  0
SEQEND
  5
519
330
513
100
AcDbEntity
  8
0
  0
POLYLINE
  5
51A
330
1F
100
AcDbEntity
  8
0
 62
     7
100
AcDb2dPolyline
 66
     1
 10
0.0
 20
0.0
 30
0.0
  0
VERTEX
  5
51B
330
51A
100
AcDbEntity
  8
0
 62
     7
100
AcDbVertex
100
AcDb2dVertex
 10
90.84653885789814
 20
153.4448263945015
 30
0.0
  0
VERTEX
  5
51C
330
51A
100
AcDbEntity
  8
0
 62
     7
100
AcDbVertex
100
AcDb2dVertex
 10
90.26380057213892
 20
153.4448263945015
 30
0.0
  0
VERTEX
  5
51D
330
51A
100
AcDbEntity
  8
0
 62
     7
100
AcDbVertex
100
AcDb2dVertex
 10
90.26380057213892
 20
154.2783677970403
 30
0.0
  0
VERTEX
  5
51E
330
51A
100
AcDbEntity
  8
0
 62
     7
100
AcDbVertex
100
AcDb2dVertex
 10
90.84653885789814
 20
154.2783677970403
 30
0.0
  0
VERTEX
  5
51F
330
51A
100
AcDbEntity
  8
0
 62
     7
100
AcDbVertex
100
AcDb2dVertex
 10
90.84653885789814
 20
153.4448263945015
 30
0.0
  0
SEQEND
  5
520
330
51A
100
AcDbEntity
  8
0
  0
POLYLINE
  5
521
330
1F
100
AcDbEntity
  8
0
 62
     7
100
AcDb2dPolyline
 66
     1
 10
0.0
 20
0.0
 30
0.0
  0
VERTEX
  5
522
330
521
100
AcDbEntity
  8
0
 62
     7
100
AcDbVertex
100
AcDb2dVertex
 10
89.39787525067524
 20
155.095372730341
 30
0.0
  0
VERTEX
  5
523
330
521
100
AcDbEntity
  8
0
 62
     7
100
AcDbVertex
100
AcDb2dVertex
 10
88.81341441603705
 20
155.095372730341
 30
0.0
  0
VERTEX
  5
524
330
521
100
AcDbEntity
  8
0
 62
     7
100
AcDbVertex
100
AcDb2dVertex
 10
88.81341441603705
 20
155.5332446553779
 30
0.0
  0
VERTEX
  5
525
330
521
100
AcDbEntity
  8
0
 62
     7
100
AcDbVertex
100
AcDb2dVertex
 10
89.39787525067524
 20
155.5332446553779
 30
0.0
  0
VERTEX
  5
526
330
521
100
AcDbEntity
  8
0
 62
     7
100
AcDbVertex
100
AcDb2dVertex
 10
89.39787525067524
 20
155.095372730341
 30
0.0
  0
SEQEND
  5
527
330
521
100
AcDbEntity
  8
0
  0
POLYLINE
  5
528
330
1F
100
AcDbEntity
  8
0
 62
     7
100
AcDb2dPolyline
 66
     1
 10
0.0
 20
0.0
 30
0.0
  0
VERTEX
  5
529
330
528
100
AcDbEntity
  8
0
 62
     7
100
AcDbVertex
100
AcDb2dVertex
 10
90.35165056496693
 20
155.095372730341
 30
0.0
  0
VERTEX
  5
52A
330
528
100
AcDbEntity
  8
0
 62
     7
100
AcDbVertex
100
AcDb2dVertex
 10
89.76822325965613
 20
155.095372730341
 30
0.0
  0
VERTEX
  5
52B
330
528
100
AcDbEntity
  8
0
 62
     7
100
AcDbVertex
100
AcDb2dVertex
 10
89.76822325965613
 20
155.5332446553779
 30
0.0
  0
VERTEX
  5
52C
330
528
100
AcDbEntity
  8
0
 62
     7
100
AcDbVertex
100
AcDb2dVertex
 10
90.35165056496693
 20
155.5332446553779
 30
0.0
  0
VERTEX
  5
52D
330
528
100
AcDbEntity
  8
0
 62
     7
100
AcDbVertex
100
AcDb2dVertex
 10
90.35165056496693
 20
155.095372730341
 30
0.0
  0
SEQEND
  5
52E
330
528
100
AcDbEntity
  8
0
  0
POLYLINE
  5
52F
330
1F
100
AcDbEntity
  8
0
 62
     7
100
AcDb2dPolyline
 66
     1
 10
0.0
 20
0.0
 30
0.0
  0
VERTEX
  5
530
330
52F
100
AcDbEntity
  8
0
 62
     7
100
AcDbVertex
100
AcDb2dVertex
 10
89.39787525067524
 20
152.0957261124837
 30
0.0
  0
VERTEX
  5
531
330
52F
100
AcDbEntity
  8
0
 62
     7
100
AcDbVertex
100
AcDb2dVertex
 10
88.81341441603705
 20
152.0957261124837
 30
0.0
  0
VERTEX
  5
532
330
52F
100
AcDbEntity
  8
0
 62
     7
100
AcDbVertex
100
AcDb2dVertex
 10
88.81341441603705
 20
152.5330812728569
 30
0.0
  0
VERTEX
  5
533
330
52F
100
AcDbEntity
  8
0
 62
     7
100
AcDbVertex
100
AcDb2dVertex
 10
89.39787525067524
 20
152.5330812728569
 30
0.0
  0
VERTEX
  5
534
330
52F
100
AcDbEntity
  8
0
 62
     7
100
AcDbVertex
100
AcDb2dVertex
 10
89.39787525067524
 20
152.0957261124837
 30
0.0
  0
SEQEND
  5
535
330
52F
100
AcDbEntity
  8
0
  0
POLYLINE
  5
536
330
1F
100
AcDbEntity
  8
0
 62
     7
100
AcDb2dPolyline
 66
     1
 10
0.0
 20
0.0
 30
0.0
  0
VERTEX
  5
537
330
536
100
AcDbEntity
  8
0
 62
     7
100
AcDbVertex
100
AcDb2dVertex
 10
90.35165056496693
 20
152.0957261124837
 30
0.0
  0
VERTEX
  5
538
330
536
100
AcDbEntity
  8
0
 62
     7
100
AcDbVertex
100
AcDb2dVertex
 10
89.76822325965613
 20
152.0957261124837
 30
0.0
  0
VERTEX
  5
539
330
536
100
AcDbEntity
  8
0
 62
     7
100
AcDbVertex
100
AcDb2dVertex
 10
89.76822325965613
 20
152.5330812728569
 30
0.0
  0
VERTEX
  5
53A
330
536
100
AcDbEntity
  8
0
 62
     7
100
AcDbVertex
100
AcDb2dVertex
 10
90.35165056496693
 20
152.5330812728569
 30
0.0
  0
VERTEX
  5
53B
330
536
100
AcDbEntity
  8
0
 62
     7
100
AcDbVertex
100
AcDb2dVertex
 10
90.35165056496693
 20
152.0957261124837
 30
0.0
  0
SEQEND
  5
53C
330
536
100
AcDbEntity
  8
0
  0
POLYLINE
  5
53D
330
1F
100
AcDbEntity
  8
0
 62
     7
100
AcDb2dPolyline
 66
     1
 10
0.0
 20
0.0
 30
0.0
  0
VERTEX
  5
53E
330
53D
100
AcDbEntity
  8
0
 62
     7
100
AcDbVertex
100
AcDb2dVertex
 10
96.05966078524575
 20
153.4448263945015
 30
0.0
  0
VERTEX
  5
53F
330
53D
100
AcDbEntity
  8
0
 62
     7
100
AcDbVertex
100
AcDb2dVertex
 10
96.64171005145339
 20
153.4448263945015
 30
0.0
  0
VERTEX
  5
540
330
53D
100
AcDbEntity
  8
0
 62
     7
100
AcDbVertex
100
AcDb2dVertex
 10
96.64171005145339
 20
154.2783677970403
 30
0.0
  0
VERTEX
  5
541
330
53D
100
AcDbEntity
  8
0
 62
     7
100
AcDbVertex
100
AcDb2dVertex
 10
96.05966078524575
 20
154.2783677970403
 30
0.0
  0
VERTEX
  5
542
330
53D
100
AcDbEntity
  8
0
 62
     7
100
AcDbVertex
100
AcDb2dVertex
 10
96.05966078524575
 20
153.4448263945015
 30
0.0
  0
SEQEND
  5
543
330
53D
100
AcDbEntity
  8
0
  0
POLYLINE
  5
544
330
1F
100
AcDbEntity
  8
0
 62
     7
100
AcDb2dPolyline
 66
     1
 10
0.0
 20
0.0
 30
0.0
  0
VERTEX
  5
545
330
544
100
AcDbEntity
  8
0
 62
     7
100
AcDbVertex
100
AcDb2dVertex
 10
95.10502419651458
 20
153.4448263945015
 30
0.0
  0
VERTEX
  5
546
330
544
100
AcDbEntity
  8
0
 62
     7
100
AcDbVertex
100
AcDb2dVertex
 10
95.6870734627222
 20
153.4448263945015
 30
0.0
  0
VERTEX
  5
547
330
544
100
AcDbEntity
  8
0
 62
     7
100
AcDbVertex
100
AcDb2dVertex
 10
95.6870734627222
 20
154.2783677970403
 30
0.0
  0
VERTEX
  5
548
330
544
100
AcDbEntity
  8
0
 62
     7
100
AcDbVertex
100
AcDb2dVertex
 10
95.10502419651458
 20
154.2783677970403
 30
0.0
  0
VERTEX
  5
549
330
544
100
AcDbEntity
  8
0
 62
     7
100
AcDbVertex
100
AcDb2dVertex
 10
95.10502419651458
 20
153.4448263945015
 30
0.0
  0
SEQEND
  5
54A
330
544
100
AcDbEntity
  8
0
  0
POLYLINE
  5
54B
330
1F
100
AcDbEntity
  8
0
 62
     7
100
AcDb2dPolyline
 66
     1
 10
0.0
 20
0.0
 30
0.0
  0
VERTEX
  5
54C
330
54B
100
AcDbEntity
  8
0
 62
     7
100
AcDbVertex
100
AcDb2dVertex
 10
96.55351554884958
 20
155.095372730341
 30
0.0
  0
VERTEX
  5
54D
330
54B
100
AcDbEntity
  8
0
 62
     7
100
AcDbVertex
100
AcDb2dVertex
 10
97.13694285416038
 20
155.095372730341
 30
0.0
  0
VERTEX
  5
54E
330
54B
100
AcDbEntity
  8
0
 62
     7
100
AcDbVertex
100
AcDb2dVertex
 10
97.13694285416038
 20
155.5332446553779
 30
0.0
  0
VERTEX
  5
54F
330
54B
100
AcDbEntity
  8
0
 62
     7
100
AcDbVertex
100
AcDb2dVertex
 10
96.55351554884958
 20
155.5332446553779
 30
0.0
  0
VERTEX
  5
550
330
54B
100
AcDbEntity
  8
0
 62
     7
100
AcDbVertex
100
AcDb2dVertex
 10
96.55351554884958
 20
155.095372730341
 30
0.0
  0
SEQEND
  5
551
330
54B
100
AcDbEntity
  8
0
  0
POLYLINE
  5
552
330
1F
100
AcDbEntity
  8
0
 62
     7
100
AcDb2dPolyline
 66
     1
 10
0.0
 20
0.0
 30
0.0
  0
VERTEX
  5
553
330
552
100
AcDbEntity
  8
0
 62
     7
100
AcDbVertex
100
AcDb2dVertex
 10
95.59974023455787
 20
155.095372730341
 30
0.0
  0
VERTEX
  5
554
330
552
100
AcDbEntity
  8
0
 62
     7
100
AcDbVertex
100
AcDb2dVertex
 10
96.18282303009289
 20
155.095372730341
 30
0.0
  0
VERTEX
  5
555
330
552
100
AcDbEntity
  8
0
 62
     7
100
AcDbVertex
100
AcDb2dVertex
 10
96.18282303009289
 20
155.5332446553779
 30
0.0
  0
VERTEX
  5
556
330
552
100
AcDbEntity
  8
0
 62
     7
100
AcDbVertex
100
AcDb2dVertex
 10
95.59974023455787
 20
155.5332446553779
 30
0.0
  0
VERTEX
  5
557
330
552
100
AcDbEntity
  8
0
 62
     7
100
AcDbVertex
100
AcDb2dVertex
 10
95.59974023455787
 20
155.095372730341
 30
0.0
  0
SEQEND
  5
558
330
552
100
AcDbEntity
  8
0
  0
POLYLINE
  5
559
330
1F
100
AcDbEntity
  8
0
 62
     7
100
AcDb2dPolyline
 66
     1
 10
0.0
 20
0.0
 30
0.0
  0
VERTEX
  5
55A
330
559
100
AcDbEntity
  8
0
 62
     7
100
AcDbVertex
100
AcDb2dVertex
 10
96.55351554884958
 20
152.0957261124837
 30
0.0
  0
VERTEX
  5
55B
330
559
100
AcDbEntity
  8
0
 62
     7
100
AcDbVertex
100
AcDb2dVertex
 10
97.13694285416038
 20
152.0957261124837
 30
0.0
  0
VERTEX
  5
55C
330
559
100
AcDbEntity
  8
0
 62
     7
100
AcDbVertex
100
AcDb2dVertex
 10
97.13694285416038
 20
152.5330812728569
 30
0.0
  0
VERTEX
  5
55D
330
559
100
AcDbEntity
  8
0
 62
     7
100
AcDbVertex
100
AcDb2dVertex
 10
96.55351554884958
 20
152.5330812728569
 30
0.0
  0
VERTEX
  5
55E
330
559
100
AcDbEntity
  8
0
 62
     7
100
AcDbVertex
100
AcDb2dVertex
 10
96.55351554884958
 20
152.0957261124837
 30
0.0
  0
SEQEND
  5
55F
330
559
100
AcDbEntity
  8
0
  0
POLYLINE
  5
560
330
1F
100
AcDbEntity
  8
0
 62
     7
100
AcDb2dPolyline
 66
     1
 10
0.0
 20
0.0
 30
0.0
  0
VERTEX
  5
561
330
560
100
AcDbEntity
  8
0
 62
     7
100
AcDbVertex
100
AcDb2dVertex
 10
95.59974023455787
 20
152.0957261124837
 30
0.0
  0
VERTEX
  5
562
330
560
100
AcDbEntity
  8
0
 62
     7
100
AcDbVertex
100
AcDb2dVertex
 10
96.18282303009289
 20
152.0957261124837
 30
0.0
  0
VERTEX
  5
563
330
560
100
AcDbEntity
  8
0
 62
     7
100
AcDbVertex
100
AcDb2dVertex
 10
96.18282303009289
 20
152.5330812728569
 30
0.0
  0
VERTEX
  5
564
330
560
100
AcDbEntity
  8
0
 62
     7
100
AcDbVertex
100
AcDb2dVertex
 10
95.59974023455787
 20
152.5330812728569
 30
0.0
  0
VERTEX
  5
565
330
560
100
AcDbEntity
  8
0
 62
     7
100
AcDbVertex
100
AcDb2dVertex
 10
95.59974023455787
 20
152.0957261124837
 30
0.0
  0
SEQEND
  5
566
330
560
100
AcDbEntity
  8
0
  0
POLYLINE
  5
567
330
1F
100
AcDbEntity
  8
0
 62
     7
100
AcDb2dPolyline
 66
     1
 10
0.0
 20
0.0
 30
0.0
  0
VERTEX
  5
568
330
567
100
AcDbEntity
  8
0
 62
     7
100
AcDbVertex
100
AcDb2dVertex
 10
97.89589789023934
 20
152.0957261124837
 30
0.0
  0
VERTEX
  5
569
330
567
100
AcDbEntity
  8
0
 62
     7
100
AcDbVertex
100
AcDb2dVertex
 10
88.08977163197719
 20
152.0957261124837
 30
0.0
  0
VERTEX
  5
56A
330
567
100
AcDbEntity
  8
0
 62
     7
100
AcDbVertex
100
AcDb2dVertex
 10
88.08977163197719
 20
155.5332446553779
 30
0.0
  0
VERTEX
  5
56B
330
567
100
AcDbEntity
  8
0
 62
     7
100
AcDbVertex
100
AcDb2dVertex
 10
97.89589789023934
 20
155.5332446553779
 30
0.0
  0
VERTEX
  5
56C
330
567
100
AcDbEntity
  8
0
 62
     7
100
AcDbVertex
100
AcDb2dVertex
 10
97.89589789023934
 20
152.0957261124837
 30
0.0
  0
SEQEND
  5
56D
330
567
100
AcDbEntity
  8
0
  0
POLYLINE
  5
56E
330
1F
100
AcDbEntity
  8
0
  6
AI-LINETYPE-2
 62
     7
100
AcDb2dPolyline
 66
     1
 10
0.0
 20
0.0
 30
0.0
  0
VERTEX
  5
56F
330
56E
100
AcDbEntity
  8
0
  6
AI-LINETYPE-2
 62
     7
100
AcDbVertex
100
AcDb2dVertex
 10
91.55261164339238
 20
153.8346392058149
 30
0.0
  0
VERTEX
  5
570
330
56E
100
AcDbEntity
  8
0
  6
AI-LINETYPE-2
 62
     7
100
AcDbVertex
100
AcDb2dVertex
 10
94.46837013084326
 20
153.8346392058149
 30
0.0
  0
SEQEND
  5
571
330
56E
100
AcDbEntity
  8
0
  6
AI-LINETYPE-2
  0
POLYLINE
  5
573
330
1F
100
AcDbEntity
  8
0
 62
     7
100
AcDb2dPolyline
 66
     1
 10
0.0
 20
0.0
 30
0.0
  0
VERTEX
  5
574
330
573
100
AcDbEntity
  8
0
 62
     7
100
AcDbVertex
100
AcDb2dVertex
 10
42.94004296501028
 20
170.7745293914883
 30
0.0
  0
VERTEX
  5
575
330
573
100
AcDbEntity
  8
0
 62
     7
100
AcDbVertex
100
AcDb2dVertex
 10
43.74516231104593
 20
170.7745293914883
 30
0.0
  0
VERTEX
  5
576
330
573
100
AcDbEntity
  8
0
 62
     7
100
AcDbVertex
100
AcDb2dVertex
 10
43.74516231104593
 20
171.4389164941112
 30
0.0
  0
VERTEX
  5
577
330
573
100
AcDbEntity
  8
0
 62
     7
100
AcDbVertex
100
AcDb2dVertex
 10
42.94004296501028
 20
171.4389164941112
 30
0.0
  0
VERTEX
  5
578
330
573
100
AcDbEntity
  8
0
 62
     7
100
AcDbVertex
100
AcDb2dVertex
 10
42.94004296501028
 20
170.7745293914883
 30
0.0
  0
SEQEND
  5
579
330
573
100
AcDbEntity
  8
0
  0
POLYLINE
  5
57A
330
1F
100
AcDbEntity
  8
0
 62
     7
100
AcDb2dPolyline
 66
     1
 10
0.0
 20
0.0
 30
0.0
  0
VERTEX
  5
57B
330
57A
100
AcDbEntity
  8
0
 62
     7
100
AcDbVertex
100
AcDb2dVertex
 10
45.6985327398102
 20
170.7745293914883
 30
0.0
  0
VERTEX
  5
57C
330
57A
100
AcDbEntity
  8
0
 62
     7
100
AcDbVertex
100
AcDb2dVertex
 10
46.50382434073375
 20
170.7745293914883
 30
0.0
  0
VERTEX
  5
57D
330
57A
100
AcDbEntity
  8
0
 62
     7
100
AcDbVertex
100
AcDb2dVertex
 10
46.50382434073375
 20
171.4389164941112
 30
0.0
  0
VERTEX
  5
57E
330
57A
100
AcDbEntity
  8
0
 62
     7
100
AcDbVertex
100
AcDb2dVertex
 10
45.6985327398102
 20
171.4389164941112
 30
0.0
  0
VERTEX
  5
57F
330
57A
100
AcDbEntity
  8
0
 62
     7
100
AcDbVertex
100
AcDb2dVertex
 10
45.6985327398102
 20
170.7745293914883
 30
0.0
  0
SEQEND
  5
580
330
57A
100
AcDbEntity
  8
0
  0
POLYLINE
  5
581
330
1F
100
AcDbEntity
  8
0
 62
     7
100
AcDb2dPolyline
 66
     1
 10
0.0
 20
0.0
 30
0.0
  0
VERTEX
  5
582
330
581
100
AcDbEntity
  8
0
 62
     7
100
AcDbVertex
100
AcDb2dVertex
 10
48.4592618281528
 20
170.7745293914883
 30
0.0
  0
VERTEX
  5
583
330
581
100
AcDbEntity
  8
0
 62
     7
100
AcDbVertex
100
AcDb2dVertex
 10
49.26334764486106
 20
170.7745293914883
 30
0.0
  0
VERTEX
  5
584
330
581
100
AcDbEntity
  8
0
 62
     7
100
AcDbVertex
100
AcDb2dVertex
 10
49.26334764486106
 20
171.4389164941112
 30
0.0
  0
VERTEX
  5
585
330
581
100
AcDbEntity
  8
0
 62
     7
100
AcDbVertex
100
AcDb2dVertex
 10
48.4592618281528
 20
171.4389164941112
 30
0.0
  0
VERTEX
  5
586
330
581
100
AcDbEntity
  8
0
 62
     7
100
AcDbVertex
100
AcDb2dVertex
 10
48.4592618281528
 20
170.7745293914883
 30
0.0
  0
SEQEND
  5
587
330
581
100
AcDbEntity
  8
0
  0
POLYLINE
  5
588
330
1F
100
AcDbEntity
  8
0
 62
     7
100
AcDb2dPolyline
 66
     1
 10
0.0
 20
0.0
 30
0.0
  0
VERTEX
  5
589
330
588
100
AcDbEntity
  8
0
 62
     7
100
AcDbVertex
100
AcDb2dVertex
 10
33.14735258800418
 20
166.8491850060667
 30
0.0
  0
VERTEX
  5
58A
330
588
100
AcDbEntity
  8
0
 62
     7
100
AcDbVertex
100
AcDb2dVertex
 10
35.63798601212258
 20
166.8491850060667
 30
0.0
  0
VERTEX
  5
58B
330
588
100
AcDbEntity
  8
0
 62
     7
100
AcDbVertex
100
AcDb2dVertex
 10
35.63798601212258
 20
172.1033035967341
 30
0.0
  0
VERTEX
  5
58C
330
588
100
AcDbEntity
  8
0
 62
     7
100
AcDbVertex
100
AcDb2dVertex
 10
33.14735258800418
 20
172.1033035967341
 30
0.0
  0
VERTEX
  5
58D
330
588
100
AcDbEntity
  8
0
 62
     7
100
AcDbVertex
100
AcDb2dVertex
 10
33.14735258800418
 20
166.8491850060667
 30
0.0
  0
SEQEND
  5
58E
330
588
100
AcDbEntity
  8
0
  0
POLYLINE
  5
58F
330
1F
100
AcDbEntity
  8
0
 62
     7
100
AcDb2dPolyline
 66
     1
 10
0.0
 20
0.0
 30
0.0
  0
VERTEX
  5
590
330
58F
100
AcDbEntity
  8
0
 62
     7
100
AcDbVertex
100
AcDb2dVertex
 10
35.66692483328946
 20
167.1373674335202
 30
0.0
  0
VERTEX
  5
591
330
58F
100
AcDbEntity
  8
0
 62
     7
100
AcDbVertex
100
AcDb2dVertex
 10
42.9114486536192
 20
167.1373674335202
 30
0.0
  0
VERTEX
  5
592
330
58F
100
AcDbEntity
  8
0
 62
     7
100
AcDbVertex
100
AcDb2dVertex
 10
42.9114486536192
 20
171.8142598948411
 30
0.0
  0
VERTEX
  5
593
330
58F
100
AcDbEntity
  8
0
 62
     7
100
AcDbVertex
100
AcDb2dVertex
 10
35.66692483328946
 20
171.8142598948411
 30
0.0
  0
SEQEND
  5
594
330
58F
100
AcDbEntity
  8
0
  0
POLYLINE
  5
595
330
1F
100
AcDbEntity
  8
0
 62
     7
100
AcDb2dPolyline
 66
     1
 10
0.0
 20
0.0
 30
0.0
  0
VERTEX
  5
596
330
595
100
AcDbEntity
  8
0
 62
     7
100
AcDbVertex
100
AcDb2dVertex
 10
42.39347820570966
 20
167.1373674335202
 30
0.0
  0
VERTEX
  5
597
330
595
100
AcDbEntity
  8
0
 62
     7
100
AcDbVertex
100
AcDb2dVertex
 10
42.39347820570966
 20
171.8142598948411
 30
0.0
  0
SEQEND
  5
598
330
595
100
AcDbEntity
  8
0
  0
POLYLINE
  5
599
330
1F
100
AcDbEntity
  8
0
 62
     7
100
AcDb2dPolyline
 66
     1
 10
0.0
 20
0.0
 30
0.0
  0
VERTEX
  5
59A
330
599
100
AcDbEntity
  8
0
 62
     7
100
AcDbVertex
100
AcDb2dVertex
 10
42.01882382453132
 20
167.1373674335202
 30
0.0
  0
VERTEX
  5
59B
330
599
100
AcDbEntity
  8
0
 62
     7
100
AcDbVertex
100
AcDb2dVertex
 10
42.01882382453132
 20
171.8142598948411
 30
0.0
  0
SEQEND
  5
59C
330
599
100
AcDbEntity
  8
0
  0
POLYLINE
  5
59D
330
1F
100
AcDbEntity
  8
0
 62
     7
100
AcDb2dPolyline
 66
     1
 10
0.0
 20
0.0
 30
0.0
  0
VERTEX
  5
59E
330
59D
100
AcDbEntity
  8
0
 62
     7
100
AcDbVertex
100
AcDb2dVertex
 10
40.44010777694538
 20
167.1373674335202
 30
0.0
  0
VERTEX
  5
59F
330
59D
100
AcDbEntity
  8
0
 62
     7
100
AcDbVertex
100
AcDb2dVertex
 10
40.44010777694538
 20
171.8142598948411
 30
0.0
  0
SEQEND
  5
5A0
330
59D
100
AcDbEntity
  8
0
  0
POLYLINE
  5
5A1
330
1F
100
AcDbEntity
  8
0
 62
     7
100
AcDb2dPolyline
 66
     1
 10
0.0
 20
0.0
 30
0.0
  0
VERTEX
  5
5A2
330
5A1
100
AcDbEntity
  8
0
 62
     7
100
AcDbVertex
100
AcDb2dVertex
 10
39.95021487576323
 20
167.1373674335202
 30
0.0
  0
VERTEX
  5
5A3
330
5A1
100
AcDbEntity
  8
0
 62
     7
100
AcDbVertex
100
AcDb2dVertex
 10
39.95021487576323
 20
171.8142598948411
 30
0.0
  0
SEQEND
  5
5A4
330
5A1
100
AcDbEntity
  8
0
  0
POLYLINE
  5
5A5
330
1F
100
AcDbEntity
  8
0
 62
     7
100
AcDb2dPolyline
 66
     1
 10
0.0
 20
0.0
 30
0.0
  0
VERTEX
  5
5A6
330
5A5
100
AcDbEntity
  8
0
 62
     7
100
AcDbVertex
100
AcDb2dVertex
 10
39.46290579789955
 20
167.1373674335202
 30
0.0
  0
VERTEX
  5
5A7
330
5A5
100
AcDbEntity
  8
0
 62
     7
100
AcDbVertex
100
AcDb2dVertex
 10
39.46290579789955
 20
171.8142598948411
 30
0.0
  0
SEQEND
  5
5A8
330
5A5
100
AcDbEntity
  8
0
  0
POLYLINE
  5
5A9
330
1F
100
AcDbEntity
  8
0
 62
     7
100
AcDb2dPolyline
 66
     1
 10
0.0
 20
0.0
 30
0.0
  0
VERTEX
  5
5AA
330
5A9
100
AcDbEntity
  8
0
 62
     7
100
AcDbVertex
100
AcDb2dVertex
 10
38.9730128967174
 20
167.1373674335202
 30
0.0
  0
VERTEX
  5
5AB
330
5A9
100
AcDbEntity
  8
0
 62
     7
100
AcDbVertex
100
AcDb2dVertex
 10
38.9730128967174
 20
171.8142598948411
 30
0.0
  0
SEQEND
  5
5AC
330
5A9
100
AcDbEntity
  8
0
  0
POLYLINE
  5
5AD
330
1F
100
AcDbEntity
  8
0
 62
     7
100
AcDb2dPolyline
 66
     1
 10
0.0
 20
0.0
 30
0.0
  0
VERTEX
  5
5AE
330
5AD
100
AcDbEntity
  8
0
 62
     7
100
AcDbVertex
100
AcDb2dVertex
 10
38.48398126997473
 20
167.1373674335202
 30
0.0
  0
VERTEX
  5
5AF
330
5AD
100
AcDbEntity
  8
0
 62
     7
100
AcDbVertex
100
AcDb2dVertex
 10
38.48398126997473
 20
171.8142598948411
 30
0.0
  0
SEQEND
  5
5B0
330
5AD
100
AcDbEntity
  8
0
  0
POLYLINE
  5
5B1
330
1F
100
AcDbEntity
  8
0
 62
     7
100
AcDb2dPolyline
 66
     1
 10
0.0
 20
0.0
 30
0.0
  0
VERTEX
  5
5B2
330
5B1
100
AcDbEntity
  8
0
 62
     7
100
AcDbVertex
100
AcDb2dVertex
 10
37.99615542744736
 20
167.1373674335202
 30
0.0
  0
VERTEX
  5
5B3
330
5B1
100
AcDbEntity
  8
0
 62
     7
100
AcDbVertex
100
AcDb2dVertex
 10
37.99615542744736
 20
171.8142598948411
 30
0.0
  0
SEQEND
  5
5B4
330
5B1
100
AcDbEntity
  8
0
  0
POLYLINE
  5
5B5
330
1F
100
AcDbEntity
  8
0
 62
     7
100
AcDb2dPolyline
 66
     1
 10
0.0
 20
0.0
 30
0.0
  0
VERTEX
  5
5B6
330
5B5
100
AcDbEntity
  8
0
 62
     7
100
AcDbVertex
100
AcDb2dVertex
 10
37.50815733003208
 20
167.1373674335202
 30
0.0
  0
VERTEX
  5
5B7
330
5B5
100
AcDbEntity
  8
0
 62
     7
100
AcDbVertex
100
AcDb2dVertex
 10
37.50815733003208
 20
171.8142598948411
 30
0.0
  0
SEQEND
  5
5B8
330
5B5
100
AcDbEntity
  8
0
  0
POLYLINE
  5
5B9
330
1F
100
AcDbEntity
  8
0
 62
     7
100
AcDb2dPolyline
 66
     1
 10
0.0
 20
0.0
 30
0.0
  0
VERTEX
  5
5BA
330
5B9
100
AcDbEntity
  8
0
 62
     7
100
AcDbVertex
100
AcDb2dVertex
 10
37.01860893862573
 20
167.1373674335202
 30
0.0
  0
VERTEX
  5
5BB
330
5B9
100
AcDbEntity
  8
0
 62
     7
100
AcDbVertex
100
AcDb2dVertex
 10
37.01860893862573
 20
171.8142598948411
 30
0.0
  0
SEQEND
  5
5BC
330
5B9
100
AcDbEntity
  8
0
  0
POLYLINE
  5
5BD
330
1F
100
AcDbEntity
  8
0
 62
     7
100
AcDb2dPolyline
 66
     1
 10
0.0
 20
0.0
 30
0.0
  0
VERTEX
  5
5BE
330
5BD
100
AcDbEntity
  8
0
 62
     7
100
AcDbVertex
100
AcDb2dVertex
 10
36.52923280210727
 20
167.1373674335202
 30
0.0
  0
VERTEX
  5
5BF
330
5BD
100
AcDbEntity
  8
0
 62
     7
100
AcDbVertex
100
AcDb2dVertex
 10
36.52923280210727
 20
171.8142598948411
 30
0.0
  0
SEQEND
  5
5C0
330
5BD
100
AcDbEntity
  8
0
  0
POLYLINE
  5
5C1
330
1F
100
AcDbEntity
  8
0
 62
     7
100
AcDb2dPolyline
 66
     1
 10
0.0
 20
0.0
 30
0.0
  0
VERTEX
  5
5C2
330
5C1
100
AcDbEntity
  8
0
 62
     7
100
AcDbVertex
100
AcDb2dVertex
 10
36.0410624498041
 20
167.1373674335202
 30
0.0
  0
VERTEX
  5
5C3
330
5C1
100
AcDbEntity
  8
0
 62
     7
100
AcDbVertex
100
AcDb2dVertex
 10
36.0410624498041
 20
171.8142598948411
 30
0.0
  0
SEQEND
  5
5C4
330
5C1
100
AcDbEntity
  8
0
  0
POLYLINE
  5
5C5
330
1F
100
AcDbEntity
  8
0
 62
     7
100
AcDb2dPolyline
 66
     1
 10
0.0
 20
0.0
 30
0.0
  0
VERTEX
  5
5C6
330
5C5
100
AcDbEntity
  8
0
 62
     7
100
AcDbVertex
100
AcDb2dVertex
 10
33.14735258800418
 20
168.033609615254
 30
0.0
  0
VERTEX
  5
5C7
330
5C5
100
AcDbEntity
  8
0
 62
     7
100
AcDbVertex
100
AcDb2dVertex
 10
31.81616681432779
 20
168.033609615254
 30
0.0
  0
VERTEX
  5
5C8
330
5C5
100
AcDbEntity
  8
0
 62
     7
100
AcDbVertex
100
AcDb2dVertex
 10
31.81616681432779
 20
170.9192234973227
 30
0.0
  0
VERTEX
  5
5C9
330
5C5
100
AcDbEntity
  8
0
 62
     7
100
AcDbVertex
100
AcDb2dVertex
 10
33.14735258800418
 20
170.9192234973227
 30
0.0
  0
SEQEND
  5
5CA
330
5C5
100
AcDbEntity
  8
0
  0
POLYLINE
  5
5CB
330
1F
100
AcDbEntity
  8
0
 62
     7
100
AcDb2dPolyline
 66
     1
 10
0.0
 20
0.0
 30
0.0
  0
VERTEX
  5
5CC
330
5CB
100
AcDbEntity
  8
0
 62
     7
100
AcDbVertex
100
AcDb2dVertex
 10
33.14735258800418
 20
168.6675076027189
 30
0.0
  0
VERTEX
  5
5CD
330
5CB
100
AcDbEntity
  8
0
 62
     7
100
AcDbVertex
100
AcDb2dVertex
 10
32.50587538547172
 20
168.6675076027189
 30
0.0
  0
VERTEX
  5
5CE
330
5CB
100
AcDbEntity
  8
0
 62
     7
100
AcDbVertex
100
AcDb2dVertex
 10
32.50587538547172
 20
170.2851532549698
 30
0.0
  0
VERTEX
  5
5CF
330
5CB
100
AcDbEntity
  8
0
 62
     7
100
AcDbVertex
100
AcDb2dVertex
 10
33.14735258800418
 20
170.2851532549698
 30
0.0
  0
SEQEND
  5
5D0
330
5CB
100
AcDbEntity
  8
0
  0
POLYLINE
  5
5D1
330
1F
100
AcDbEntity
  8
0
 62
     7
100
AcDb2dPolyline
 66
     1
 10
0.0
 20
0.0
 30
0.0
  0
VERTEX
  5
5D2
330
5D1
100
AcDbEntity
  8
0
 62
     7
100
AcDbVertex
100
AcDb2dVertex
 10
42.94004296501028
 20
168.1770979368731
 30
0.0
  0
VERTEX
  5
5D3
330
5D1
100
AcDbEntity
  8
0
 62
     7
100
AcDbVertex
100
AcDb2dVertex
 10
43.74516231104593
 20
168.1770979368731
 30
0.0
  0
VERTEX
  5
5D4
330
5D1
100
AcDbEntity
  8
0
 62
     7
100
AcDbVertex
100
AcDb2dVertex
 10
43.74516231104593
 20
167.5135721086897
 30
0.0
  0
VERTEX
  5
5D5
330
5D1
100
AcDbEntity
  8
0
 62
     7
100
AcDbVertex
100
AcDb2dVertex
 10
42.94004296501028
 20
167.5135721086897
 30
0.0
  0
VERTEX
  5
5D6
330
5D1
100
AcDbEntity
  8
0
 62
     7
100
AcDbVertex
100
AcDb2dVertex
 10
42.94004296501028
 20
168.1770979368731
 30
0.0
  0
SEQEND
  5
5D7
330
5D1
100
AcDbEntity
  8
0
  0
POLYLINE
  5
5D8
330
1F
100
AcDbEntity
  8
0
 62
     7
100
AcDb2dPolyline
 66
     1
 10
0.0
 20
0.0
 30
0.0
  0
VERTEX
  5
5D9
330
5D8
100
AcDbEntity
  8
0
 62
     7
100
AcDbVertex
100
AcDb2dVertex
 10
45.6985327398102
 20
168.1770979368731
 30
0.0
  0
VERTEX
  5
5DA
330
5D8
100
AcDbEntity
  8
0
 62
     7
100
AcDbVertex
100
AcDb2dVertex
 10
46.50382434073375
 20
168.1770979368731
 30
0.0
  0
VERTEX
  5
5DB
330
5D8
100
AcDbEntity
  8
0
 62
     7
100
AcDbVertex
100
AcDb2dVertex
 10
46.50382434073375
 20
167.5135721086897
 30
0.0
  0
VERTEX
  5
5DC
330
5D8
100
AcDbEntity
  8
0
 62
     7
100
AcDbVertex
100
AcDb2dVertex
 10
45.6985327398102
 20
167.5135721086897
 30
0.0
  0
VERTEX
  5
5DD
330
5D8
100
AcDbEntity
  8
0
 62
     7
100
AcDbVertex
100
AcDb2dVertex
 10
45.6985327398102
 20
168.1770979368731
 30
0.0
  0
SEQEND
  5
5DE
330
5D8
100
AcDbEntity
  8
0
  0
POLYLINE
  5
5DF
330
1F
100
AcDbEntity
  8
0
 62
     7
100
AcDb2dPolyline
 66
     1
 10
0.0
 20
0.0
 30
0.0
  0
VERTEX
  5
5E0
330
5DF
100
AcDbEntity
  8
0
 62
     7
100
AcDbVertex
100
AcDb2dVertex
 10
48.4592618281528
 20
168.1770979368731
 30
0.0
  0
VERTEX
  5
5E1
330
5DF
100
AcDbEntity
  8
0
 62
     7
100
AcDbVertex
100
AcDb2dVertex
 10
49.26334764486106
 20
168.1770979368731
 30
0.0
  0
VERTEX
  5
5E2
330
5DF
100
AcDbEntity
  8
0
 62
     7
100
AcDbVertex
100
AcDb2dVertex
 10
49.26334764486106
 20
167.5135721086897
 30
0.0
  0
VERTEX
  5
5E3
330
5DF
100
AcDbEntity
  8
0
 62
     7
100
AcDbVertex
100
AcDb2dVertex
 10
48.4592618281528
 20
167.5135721086897
 30
0.0
  0
VERTEX
  5
5E4
330
5DF
100
AcDbEntity
  8
0
 62
     7
100
AcDbVertex
100
AcDb2dVertex
 10
48.4592618281528
 20
168.1770979368731
 30
0.0
  0
SEQEND
  5
5E5
330
5DF
100
AcDbEntity
  8
0
  0
POLYLINE
  5
5E6
330
1F
100
AcDbEntity
  8
0
 62
     7
100
AcDb2dPolyline
 66
     1
 10
0.0
 20
0.0
 30
0.0
  0
VERTEX
  5
5E7
330
5E6
100
AcDbEntity
  8
0
 62
     7
100
AcDbVertex
100
AcDb2dVertex
 10
69.00496358219682
 20
170.7745293914883
 30
0.0
  0
VERTEX
  5
5E8
330
5E6
100
AcDbEntity
  8
0
 62
     7
100
AcDbVertex
100
AcDb2dVertex
 10
69.80939390868088
 20
170.7745293914883
 30
0.0
  0
VERTEX
  5
5E9
330
5E6
100
AcDbEntity
  8
0
 62
     7
100
AcDbVertex
100
AcDb2dVertex
 10
69.80939390868088
 20
171.4389164941112
 30
0.0
  0
VERTEX
  5
5EA
330
5E6
100
AcDbEntity
  8
0
 62
     7
100
AcDbVertex
100
AcDb2dVertex
 10
69.00496358219682
 20
171.4389164941112
 30
0.0
  0
VERTEX
  5
5EB
330
5E6
100
AcDbEntity
  8
0
 62
     7
100
AcDbVertex
100
AcDb2dVertex
 10
69.00496358219682
 20
170.7745293914883
 30
0.0
  0
SEQEND
  5
5EC
330
5E6
100
AcDbEntity
  8
0
  0
POLYLINE
  5
5ED
330
1F
100
AcDbEntity
  8
0
 62
     7
100
AcDb2dPolyline
 66
     1
 10
0.0
 20
0.0
 30
0.0
  0
VERTEX
  5
5EE
330
5ED
100
AcDbEntity
  8
0
 62
     7
100
AcDbVertex
100
AcDb2dVertex
 10
71.76448688632414
 20
170.7745293914883
 30
0.0
  0
VERTEX
  5
5EF
330
5ED
100
AcDbEntity
  8
0
 62
     7
100
AcDbVertex
100
AcDb2dVertex
 10
72.56960623235979
 20
170.7745293914883
 30
0.0
  0
VERTEX
  5
5F0
330
5ED
100
AcDbEntity
  8
0
 62
     7
100
AcDbVertex
100
AcDb2dVertex
 10
72.56960623235979
 20
171.4389164941112
 30
0.0
  0
VERTEX
  5
5F1
330
5ED
100
AcDbEntity
  8
0
 62
     7
100
AcDbVertex
100
AcDb2dVertex
 10
71.76448688632414
 20
171.4389164941112
 30
0.0
  0
VERTEX
  5
5F2
330
5ED
100
AcDbEntity
  8
0
 62
     7
100
AcDbVertex
100
AcDb2dVertex
 10
71.76448688632414
 20
170.7745293914883
 30
0.0
  0
SEQEND
  5
5F3
330
5ED
100
AcDbEntity
  8
0
  0
POLYLINE
  5
5F4
330
1F
100
AcDbEntity
  8
0
 62
     7
100
AcDb2dPolyline
 66
     1
 10
0.0
 20
0.0
 30
0.0
  0
VERTEX
  5
5F5
330
5F4
100
AcDbEntity
  8
0
 62
     7
100
AcDbVertex
100
AcDb2dVertex
 10
69.00496358219682
 20
168.1770979368731
 30
0.0
  0
VERTEX
  5
5F6
330
5F4
100
AcDbEntity
  8
0
 62
     7
100
AcDbVertex
100
AcDb2dVertex
 10
69.80939390868088
 20
168.1770979368731
 30
0.0
  0
VERTEX
  5
5F7
330
5F4
100
AcDbEntity
  8
0
 62
     7
100
AcDbVertex
100
AcDb2dVertex
 10
69.80939390868088
 20
167.5135721086897
 30
0.0
  0
VERTEX
  5
5F8
330
5F4
100
AcDbEntity
  8
0
 62
     7
100
AcDbVertex
100
AcDb2dVertex
 10
69.00496358219682
 20
167.5135721086897
 30
0.0
  0
VERTEX
  5
5F9
330
5F4
100
AcDbEntity
  8
0
 62
     7
100
AcDbVertex
100
AcDb2dVertex
 10
69.00496358219682
 20
168.1770979368731
 30
0.0
  0
SEQEND
  5
5FA
330
5F4
100
AcDbEntity
  8
0
  0
POLYLINE
  5
5FB
330
1F
100
AcDbEntity
  8
0
 62
     7
100
AcDb2dPolyline
 66
     1
 10
0.0
 20
0.0
 30
0.0
  0
VERTEX
  5
5FC
330
5FB
100
AcDbEntity
  8
0
 62
     7
100
AcDbVertex
100
AcDb2dVertex
 10
71.76448688632414
 20
168.1770979368731
 30
0.0
  0
VERTEX
  5
5FD
330
5FB
100
AcDbEntity
  8
0
 62
     7
100
AcDbVertex
100
AcDb2dVertex
 10
72.56960623235979
 20
168.1770979368731
 30
0.0
  0
VERTEX
  5
5FE
330
5FB
100
AcDbEntity
  8
0
 62
     7
100
AcDbVertex
100
AcDb2dVertex
 10
72.56960623235979
 20
167.5135721086897
 30
0.0
  0
VERTEX
  5
5FF
330
5FB
100
AcDbEntity
  8
0
 62
     7
100
AcDbVertex
100
AcDb2dVertex
 10
71.76448688632414
 20
167.5135721086897
 30
0.0
  0
VERTEX
  5
600
330
5FB
100
AcDbEntity
  8
0
 62
     7
100
AcDbVertex
100
AcDb2dVertex
 10
71.76448688632414
 20
168.1770979368731
 30
0.0
  0
SEQEND
  5
601
330
5FB
100
AcDbEntity
  8
0
  0
POLYLINE
  5
602
330
1F
100
AcDbEntity
  8
0
 62
     7
100
AcDb2dPolyline
 66
     1
 10
0.0
 20
0.0
 30
0.0
  0
VERTEX
  5
603
330
602
100
AcDbEntity
  8
0
 62
     7
100
AcDbVertex
100
AcDb2dVertex
 10
39.95124840509062
 20
173.6317212170538
 30
0.0
  0
VERTEX
  5
604
330
602
100
AcDbEntity
  8
0
 62
     7
100
AcDbVertex
100
AcDb2dVertex
 10
39.95124840509062
 20
174.0175721659455
 30
0.0
  0
VERTEX
  5
605
330
602
100
AcDbEntity
  8
0
 62
     7
100
AcDbVertex
100
AcDb2dVertex
 10
35.28934211901686
 20
174.0175721659455
 30
0.0
  0
VERTEX
  5
606
330
602
100
AcDbEntity
  8
0
 62
     7
100
AcDbVertex
100
AcDb2dVertex
 10
35.28934211901686
 20
173.6317212170538
 30
0.0
  0
SEQEND
  5
607
330
602
100
AcDbEntity
  8
0
  0
POLYLINE
  5
608
330
1F
100
AcDbEntity
  8
0
 62
     7
100
AcDb2dPolyline
 66
     1
 10
0.0
 20
0.0
 30
0.0
  0
VERTEX
  5
609
330
608
100
AcDbEntity
  8
0
 62
     7
100
AcDbVertex
100
AcDb2dVertex
 10
106.3572302386811
 20
173.6317212170538
 30
0.0
  0
VERTEX
  5
60A
330
608
100
AcDbEntity
  8
0
 62
     7
100
AcDbVertex
100
AcDb2dVertex
 10
106.3572302386811
 20
174.0175721659455
 30
0.0
  0
VERTEX
  5
60B
330
608
100
AcDbEntity
  8
0
 62
     7
100
AcDbVertex
100
AcDb2dVertex
 10
101.6967019917106
 20
174.0175721659455
 30
0.0
  0
VERTEX
  5
60C
330
608
100
AcDbEntity
  8
0
 62
     7
100
AcDbVertex
100
AcDb2dVertex
 10
101.6967019917106
 20
173.6317212170538
 30
0.0
  0
SEQEND
  5
60D
330
608
100
AcDbEntity
  8
0
  0
POLYLINE
  5
60E
330
1F
100
AcDbEntity
  8
0
 62
     7
100
AcDb2dPolyline
 66
     1
 10
0.0
 20
0.0
 30
0.0
  0
VERTEX
  5
60F
330
60E
100
AcDbEntity
  8
0
 62
     7
100
AcDbVertex
100
AcDb2dVertex
 10
98.66966684667753
 20
170.7745293914883
 30
0.0
  0
VERTEX
  5
610
330
60E
100
AcDbEntity
  8
0
 62
     7
100
AcDbVertex
100
AcDb2dVertex
 10
97.86592553974508
 20
170.7745293914883
 30
0.0
  0
VERTEX
  5
611
330
60E
100
AcDbEntity
  8
0
 62
     7
100
AcDbVertex
100
AcDb2dVertex
 10
97.86592553974508
 20
171.4389164941112
 30
0.0
  0
VERTEX
  5
612
330
60E
100
AcDbEntity
  8
0
 62
     7
100
AcDbVertex
100
AcDb2dVertex
 10
98.66966684667753
 20
171.4389164941112
 30
0.0
  0
VERTEX
  5
613
330
60E
100
AcDbEntity
  8
0
 62
     7
100
AcDbVertex
100
AcDb2dVertex
 10
98.66966684667753
 20
170.7745293914883
 30
0.0
  0
SEQEND
  5
614
330
60E
100
AcDbEntity
  8
0
  0
POLYLINE
  5
615
330
1F
100
AcDbEntity
  8
0
 62
     7
100
AcDb2dPolyline
 66
     1
 10
0.0
 20
0.0
 30
0.0
  0
VERTEX
  5
616
330
615
100
AcDbEntity
  8
0
 62
     7
100
AcDbVertex
100
AcDb2dVertex
 10
95.91117707187762
 20
170.7745293914883
 30
0.0
  0
VERTEX
  5
617
330
615
100
AcDbEntity
  8
0
 62
     7
100
AcDbVertex
100
AcDb2dVertex
 10
95.10640223561777
 20
170.7745293914883
 30
0.0
  0
VERTEX
  5
618
330
615
100
AcDbEntity
  8
0
 62
     7
100
AcDbVertex
100
AcDb2dVertex
 10
95.10640223561777
 20
171.4389164941112
 30
0.0
  0
VERTEX
  5
619
330
615
100
AcDbEntity
  8
0
 62
     7
100
AcDbVertex
100
AcDb2dVertex
 10
95.91117707187762
 20
171.4389164941112
 30
0.0
  0
VERTEX
  5
61A
330
615
100
AcDbEntity
  8
0
 62
     7
100
AcDbVertex
100
AcDb2dVertex
 10
95.91117707187762
 20
170.7745293914883
 30
0.0
  0
SEQEND
  5
61B
330
615
100
AcDbEntity
  8
0
  0
POLYLINE
  5
61C
330
1F
100
AcDbEntity
  8
0
 62
     7
100
AcDb2dPolyline
 66
     1
 10
0.0
 20
0.0
 30
0.0
  0
VERTEX
  5
61D
330
61C
100
AcDbEntity
  8
0
 62
     7
100
AcDbVertex
100
AcDb2dVertex
 10
93.1513092579745
 20
170.7745293914883
 30
0.0
  0
VERTEX
  5
61E
330
61C
100
AcDbEntity
  8
0
 62
     7
100
AcDbVertex
100
AcDb2dVertex
 10
92.34601765705097
 20
170.7745293914883
 30
0.0
  0
VERTEX
  5
61F
330
61C
100
AcDbEntity
  8
0
 62
     7
100
AcDbVertex
100
AcDb2dVertex
 10
92.34601765705097
 20
171.4389164941112
 30
0.0
  0
VERTEX
  5
620
330
61C
100
AcDbEntity
  8
0
 62
     7
100
AcDbVertex
100
AcDb2dVertex
 10
93.1513092579745
 20
171.4389164941112
 30
0.0
  0
VERTEX
  5
621
330
61C
100
AcDbEntity
  8
0
 62
     7
100
AcDbVertex
100
AcDb2dVertex
 10
93.1513092579745
 20
170.7745293914883
 30
0.0
  0
SEQEND
  5
622
330
61C
100
AcDbEntity
  8
0
  0
POLYLINE
  5
623
330
1F
100
AcDbEntity
  8
0
 62
     7
100
AcDb2dPolyline
 66
     1
 10
0.0
 20
0.0
 30
0.0
  0
VERTEX
  5
624
330
623
100
AcDbEntity
  8
0
 62
     7
100
AcDbVertex
100
AcDb2dVertex
 10
108.4604624199168
 20
166.8491850060667
 30
0.0
  0
VERTEX
  5
625
330
623
100
AcDbEntity
  8
0
 62
     7
100
AcDbVertex
100
AcDb2dVertex
 10
105.9710347800136
 20
166.8491850060667
 30
0.0
  0
VERTEX
  5
626
330
623
100
AcDbEntity
  8
0
 62
     7
100
AcDbVertex
100
AcDb2dVertex
 10
105.9710347800136
 20
172.1033035967341
 30
0.0
  0
VERTEX
  5
627
330
623
100
AcDbEntity
  8
0
 62
     7
100
AcDbVertex
100
AcDb2dVertex
 10
108.4604624199168
 20
172.1033035967341
 30
0.0
  0
VERTEX
  5
628
330
623
100
AcDbEntity
  8
0
 62
     7
100
AcDbVertex
100
AcDb2dVertex
 10
108.4604624199168
 20
166.8491850060667
 30
0.0
  0
SEQEND
  5
629
330
623
100
AcDbEntity
  8
0
  0
POLYLINE
  5
62A
330
1F
100
AcDbEntity
  8
0
 62
     7
100
AcDb2dPolyline
 66
     1
 10
0.0
 20
0.0
 30
0.0
  0
VERTEX
  5
62B
330
62A
100
AcDbEntity
  8
0
 62
     7
100
AcDbVertex
100
AcDb2dVertex
 10
105.941751449071
 20
167.1373674335202
 30
0.0
  0
VERTEX
  5
62C
330
62A
100
AcDbEntity
  8
0
 62
     7
100
AcDbVertex
100
AcDb2dVertex
 10
98.69895017762021
 20
167.1373674335202
 30
0.0
  0
VERTEX
  5
62D
330
62A
100
AcDbEntity
  8
0
 62
     7
100
AcDbVertex
100
AcDb2dVertex
 10
98.69895017762021
 20
171.8142598948411
 30
0.0
  0
VERTEX
  5
62E
330
62A
100
AcDbEntity
  8
0
 62
     7
100
AcDbVertex
100
AcDb2dVertex
 10
105.941751449071
 20
171.8142598948411
 30
0.0
  0
SEQEND
  5
62F
330
62A
100
AcDbEntity
  8
0
  0
POLYLINE
  5
630
330
1F
100
AcDbEntity
  8
0
 62
     7
100
AcDb2dPolyline
 66
     1
 10
0.0
 20
0.0
 30
0.0
  0
VERTEX
  5
631
330
630
100
AcDbEntity
  8
0
 62
     7
100
AcDbVertex
100
AcDb2dVertex
 10
99.21623160597815
 20
167.1373674335202
 30
0.0
  0
VERTEX
  5
632
330
630
100
AcDbEntity
  8
0
 62
     7
100
AcDbVertex
100
AcDb2dVertex
 10
99.21623160597815
 20
171.8142598948411
 30
0.0
  0
SEQEND
  5
633
330
630
100
AcDbEntity
  8
0
  0
POLYLINE
  5
634
330
1F
100
AcDbEntity
  8
0
 62
     7
100
AcDb2dPolyline
 66
     1
 10
0.0
 20
0.0
 30
0.0
  0
VERTEX
  5
635
330
634
100
AcDbEntity
  8
0
 62
     7
100
AcDbVertex
100
AcDb2dVertex
 10
99.59105824204438
 20
167.1373674335202
 30
0.0
  0
VERTEX
  5
636
330
634
100
AcDbEntity
  8
0
 62
     7
100
AcDbVertex
100
AcDb2dVertex
 10
99.59105824204438
 20
171.8142598948411
 30
0.0
  0
SEQEND
  5
637
330
634
100
AcDbEntity
  8
0
  0
POLYLINE
  5
638
330
1F
100
AcDbEntity
  8
0
 62
     7
100
AcDb2dPolyline
 66
     1
 10
0.0
 20
0.0
 30
0.0
  0
VERTEX
  5
639
330
638
100
AcDbEntity
  8
0
 62
     7
100
AcDbVertex
100
AcDb2dVertex
 10
101.1706355640698
 20
167.1373674335202
 30
0.0
  0
VERTEX
  5
63A
330
638
100
AcDbEntity
  8
0
 62
     7
100
AcDbVertex
100
AcDb2dVertex
 10
101.1706355640698
 20
171.8142598948411
 30
0.0
  0
SEQEND
  5
63B
330
638
100
AcDbEntity
  8
0
  0
POLYLINE
  5
63C
330
1F
100
AcDbEntity
  8
0
 62
     7
100
AcDb2dPolyline
 66
     1
 10
0.0
 20
0.0
 30
0.0
  0
VERTEX
  5
63D
330
63C
100
AcDbEntity
  8
0
 62
     7
100
AcDbVertex
100
AcDb2dVertex
 10
101.6584614065972
 20
167.1373674335202
 30
0.0
  0
VERTEX
  5
63E
330
63C
100
AcDbEntity
  8
0
 62
     7
100
AcDbVertex
100
AcDb2dVertex
 10
101.6584614065972
 20
171.8142598948411
 30
0.0
  0
SEQEND
  5
63F
330
63C
100
AcDbEntity
  8
0
  0
POLYLINE
  5
640
330
1F
100
AcDbEntity
  8
0
 62
     7
100
AcDb2dPolyline
 66
     1
 10
0.0
 20
0.0
 30
0.0
  0
VERTEX
  5
641
330
640
100
AcDbEntity
  8
0
 62
     7
100
AcDbVertex
100
AcDb2dVertex
 10
102.1481820528915
 20
167.1373674335202
 30
0.0
  0
VERTEX
  5
642
330
640
100
AcDbEntity
  8
0
 62
     7
100
AcDbVertex
100
AcDb2dVertex
 10
102.1481820528915
 20
171.8142598948411
 30
0.0
  0
SEQEND
  5
643
330
640
100
AcDbEntity
  8
0
  0
POLYLINE
  5
644
330
1F
100
AcDbEntity
  8
0
 62
     7
100
AcDb2dPolyline
 66
     1
 10
0.0
 20
0.0
 30
0.0
  0
VERTEX
  5
645
330
644
100
AcDbEntity
  8
0
 62
     7
100
AcDbVertex
100
AcDb2dVertex
 10
102.6370414247462
 20
167.1373674335202
 30
0.0
  0
VERTEX
  5
646
330
644
100
AcDbEntity
  8
0
 62
     7
100
AcDbVertex
100
AcDb2dVertex
 10
102.6370414247462
 20
171.8142598948411
 30
0.0
  0
SEQEND
  5
647
330
644
100
AcDbEntity
  8
0
  0
POLYLINE
  5
648
330
1F
100
AcDbEntity
  8
0
 62
     7
100
AcDb2dPolyline
 66
     1
 10
0.0
 20
0.0
 30
0.0
  0
VERTEX
  5
649
330
648
100
AcDbEntity
  8
0
 62
     7
100
AcDbVertex
100
AcDb2dVertex
 10
103.1243505026099
 20
167.1373674335202
 30
0.0
  0
VERTEX
  5
64A
330
648
100
AcDbEntity
  8
0
 62
     7
100
AcDbVertex
100
AcDb2dVertex
 10
103.1243505026099
 20
171.8142598948411
 30
0.0
  0
SEQEND
  5
64B
330
648
100
AcDbEntity
  8
0
  0
POLYLINE
  5
64C
330
1F
100
AcDbEntity
  8
0
 62
     7
100
AcDb2dPolyline
 66
     1
 10
0.0
 20
0.0
 30
0.0
  0
VERTEX
  5
64D
330
64C
100
AcDbEntity
  8
0
 62
     7
100
AcDbVertex
100
AcDb2dVertex
 10
103.6135543842405
 20
167.1373674335202
 30
0.0
  0
VERTEX
  5
64E
330
64C
100
AcDbEntity
  8
0
 62
     7
100
AcDbVertex
100
AcDb2dVertex
 10
103.6135543842405
 20
171.8142598948411
 30
0.0
  0
SEQEND
  5
64F
330
64C
100
AcDbEntity
  8
0
  0
POLYLINE
  5
650
330
1F
100
AcDbEntity
  8
0
 62
     7
100
AcDb2dPolyline
 66
     1
 10
0.0
 20
0.0
 30
0.0
  0
VERTEX
  5
651
330
650
100
AcDbEntity
  8
0
 62
     7
100
AcDbVertex
100
AcDb2dVertex
 10
104.1025860109831
 20
167.1373674335202
 30
0.0
  0
VERTEX
  5
652
330
650
100
AcDbEntity
  8
0
 62
     7
100
AcDbVertex
100
AcDb2dVertex
 10
104.1025860109831
 20
171.8142598948411
 30
0.0
  0
SEQEND
  5
653
330
650
100
AcDbEntity
  8
0
  0
POLYLINE
  5
654
330
1F
100
AcDbEntity
  8
0
 62
     7
100
AcDb2dPolyline
 66
     1
 10
0.0
 20
0.0
 30
0.0
  0
VERTEX
  5
655
330
654
100
AcDbEntity
  8
0
 62
     7
100
AcDbVertex
100
AcDb2dVertex
 10
104.5911008730621
 20
167.1373674335202
 30
0.0
  0
VERTEX
  5
656
330
654
100
AcDbEntity
  8
0
 62
     7
100
AcDbVertex
100
AcDb2dVertex
 10
104.5911008730621
 20
171.8142598948411
 30
0.0
  0
SEQEND
  5
657
330
654
100
AcDbEntity
  8
0
  0
POLYLINE
  5
658
330
1F
100
AcDbEntity
  8
0
 62
     7
100
AcDb2dPolyline
 66
     1
 10
0.0
 20
0.0
 30
0.0
  0
VERTEX
  5
659
330
658
100
AcDbEntity
  8
0
 62
     7
100
AcDbVertex
100
AcDb2dVertex
 10
105.0804770095805
 20
167.1373674335202
 30
0.0
  0
VERTEX
  5
65A
330
658
100
AcDbEntity
  8
0
 62
     7
100
AcDbVertex
100
AcDb2dVertex
 10
105.0804770095805
 20
171.8142598948411
 30
0.0
  0
SEQEND
  5
65B
330
658
100
AcDbEntity
  8
0
  0
POLYLINE
  5
65C
330
1F
100
AcDbEntity
  8
0
 62
     7
100
AcDb2dPolyline
 66
     1
 10
0.0
 20
0.0
 30
0.0
  0
VERTEX
  5
65D
330
65C
100
AcDbEntity
  8
0
 62
     7
100
AcDbVertex
100
AcDb2dVertex
 10
105.5689918716595
 20
167.1373674335202
 30
0.0
  0
VERTEX
  5
65E
330
65C
100
AcDbEntity
  8
0
 62
     7
100
AcDbVertex
100
AcDb2dVertex
 10
105.5689918716595
 20
171.8142598948411
 30
0.0
  0
SEQEND
  5
65F
330
65C
100
AcDbEntity
  8
0
  0
POLYLINE
  5
660
330
1F
100
AcDbEntity
  8
0
 62
     7
100
AcDb2dPolyline
 66
     1
 10
0.0
 20
0.0
 30
0.0
  0
VERTEX
  5
661
330
660
100
AcDbEntity
  8
0
 62
     7
100
AcDbVertex
100
AcDb2dVertex
 10
108.4604624199168
 20
168.033609615254
 30
0.0
  0
VERTEX
  5
662
330
660
100
AcDbEntity
  8
0
 62
     7
100
AcDbVertex
100
AcDb2dVertex
 10
109.7940597620237
 20
168.033609615254
 30
0.0
  0
VERTEX
  5
663
330
660
100
AcDbEntity
  8
0
 62
     7
100
AcDbVertex
100
AcDb2dVertex
 10
109.7940597620237
 20
170.9192234973227
 30
0.0
  0
VERTEX
  5
664
330
660
100
AcDbEntity
  8
0
 62
     7
100
AcDbVertex
100
AcDb2dVertex
 10
108.4604624199168
 20
170.9192234973227
 30
0.0
  0
SEQEND
  5
665
330
660
100
AcDbEntity
  8
0
  0
POLYLINE
  5
666
330
1F
100
AcDbEntity
  8
0
 62
     7
100
AcDb2dPolyline
 66
     1
 10
0.0
 20
0.0
 30
0.0
  0
VERTEX
  5
667
330
666
100
AcDbEntity
  8
0
 62
     7
100
AcDbVertex
100
AcDb2dVertex
 10
108.4604624199168
 20
168.6675076027189
 30
0.0
  0
VERTEX
  5
668
330
666
100
AcDbEntity
  8
0
 62
     7
100
AcDbVertex
100
AcDb2dVertex
 10
109.1029731517766
 20
168.6675076027189
 30
0.0
  0
VERTEX
  5
669
330
666
100
AcDbEntity
  8
0
 62
     7
100
AcDbVertex
100
AcDb2dVertex
 10
109.1029731517766
 20
170.2851532549698
 30
0.0
  0
VERTEX
  5
66A
330
666
100
AcDbEntity
  8
0
 62
     7
100
AcDbVertex
100
AcDb2dVertex
 10
108.4604624199168
 20
170.2851532549698
 30
0.0
  0
SEQEND
  5
66B
330
666
100
AcDbEntity
  8
0
  0
POLYLINE
  5
66C
330
1F
100
AcDbEntity
  8
0
 62
     7
100
AcDb2dPolyline
 66
     1
 10
0.0
 20
0.0
 30
0.0
  0
VERTEX
  5
66D
330
66C
100
AcDbEntity
  8
0
 62
     7
100
AcDbVertex
100
AcDb2dVertex
 10
98.66966684667753
 20
168.1770979368731
 30
0.0
  0
VERTEX
  5
66E
330
66C
100
AcDbEntity
  8
0
 62
     7
100
AcDbVertex
100
AcDb2dVertex
 10
97.86592553974508
 20
168.1770979368731
 30
0.0
  0
VERTEX
  5
66F
330
66C
100
AcDbEntity
  8
0
 62
     7
100
AcDbVertex
100
AcDb2dVertex
 10
97.86592553974508
 20
167.5135721086897
 30
0.0
  0
VERTEX
  5
670
330
66C
100
AcDbEntity
  8
0
 62
     7
100
AcDbVertex
100
AcDb2dVertex
 10
98.66966684667753
 20
167.5135721086897
 30
0.0
  0
VERTEX
  5
671
330
66C
100
AcDbEntity
  8
0
 62
     7
100
AcDbVertex
100
AcDb2dVertex
 10
98.66966684667753
 20
168.1770979368731
 30
0.0
  0
SEQEND
  5
672
330
66C
100
AcDbEntity
  8
0
  0
POLYLINE
  5
673
330
1F
100
AcDbEntity
  8
0
 62
     7
100
AcDb2dPolyline
 66
     1
 10
0.0
 20
0.0
 30
0.0
  0
VERTEX
  5
674
330
673
100
AcDbEntity
  8
0
 62
     7
100
AcDbVertex
100
AcDb2dVertex
 10
95.91117707187762
 20
168.1770979368731
 30
0.0
  0
VERTEX
  5
675
330
673
100
AcDbEntity
  8
0
 62
     7
100
AcDbVertex
100
AcDb2dVertex
 10
95.10640223561777
 20
168.1770979368731
 30
0.0
  0
VERTEX
  5
676
330
673
100
AcDbEntity
  8
0
 62
     7
100
AcDbVertex
100
AcDb2dVertex
 10
95.10640223561777
 20
167.5135721086897
 30
0.0
  0
VERTEX
  5
677
330
673
100
AcDbEntity
  8
0
 62
     7
100
AcDbVertex
100
AcDb2dVertex
 10
95.91117707187762
 20
167.5135721086897
 30
0.0
  0
VERTEX
  5
678
330
673
100
AcDbEntity
  8
0
 62
     7
100
AcDbVertex
100
AcDb2dVertex
 10
95.91117707187762
 20
168.1770979368731
 30
0.0
  0
SEQEND
  5
679
330
673
100
AcDbEntity
  8
0
  0
POLYLINE
  5
67A
330
1F
100
AcDbEntity
  8
0
 62
     7
100
AcDb2dPolyline
 66
     1
 10
0.0
 20
0.0
 30
0.0
  0
VERTEX
  5
67B
330
67A
100
AcDbEntity
  8
0
 62
     7
100
AcDbVertex
100
AcDb2dVertex
 10
93.1513092579745
 20
168.1770979368731
 30
0.0
  0
VERTEX
  5
67C
330
67A
100
AcDbEntity
  8
0
 62
     7
100
AcDbVertex
100
AcDb2dVertex
 10
92.34601765705097
 20
168.1770979368731
 30
0.0
  0
VERTEX
  5
67D
330
67A
100
AcDbEntity
  8
0
 62
     7
100
AcDbVertex
100
AcDb2dVertex
 10
92.34601765705097
 20
167.5135721086897
 30
0.0
  0
VERTEX
  5
67E
330
67A
100
AcDbEntity
  8
0
 62
     7
100
AcDbVertex
100
AcDb2dVertex
 10
93.1513092579745
 20
167.5135721086897
 30
0.0
  0
VERTEX
  5
67F
330
67A
100
AcDbEntity
  8
0
 62
     7
100
AcDbVertex
100
AcDb2dVertex
 10
93.1513092579745
 20
168.1770979368731
 30
0.0
  0
SEQEND
  5
680
330
67A
100
AcDbEntity
  8
0
  0
POLYLINE
  5
681
330
1F
100
AcDbEntity
  8
0
 62
     7
100
AcDb2dPolyline
 66
     1
 10
0.0
 20
0.0
 30
0.0
  0
VERTEX
  5
682
330
681
100
AcDbEntity
  8
0
 62
     7
100
AcDbVertex
100
AcDb2dVertex
 10
31.71315839136473
 20
165.6380608892553
 30
0.0
  0
VERTEX
  5
683
330
681
100
AcDbEntity
  8
0
 62
     7
100
AcDbVertex
100
AcDb2dVertex
 10
109.896723675211
 20
165.6380608892553
 30
0.0
  0
VERTEX
  5
684
330
681
100
AcDbEntity
  8
0
 62
     7
100
AcDbVertex
100
AcDb2dVertex
 10
109.896723675211
 20
172.6049098302933
 30
0.0
  0
VERTEX
  5
685
330
681
100
AcDbEntity
  8
0
 62
     7
100
AcDbVertex
100
AcDb2dVertex
 10
31.71315839136473
 20
172.6049098302933
 30
0.0
  0
VERTEX
  5
686
330
681
100
AcDbEntity
  8
0
 62
     7
100
AcDbVertex
100
AcDb2dVertex
 10
31.71315839136473
 20
165.6380608892553
 30
0.0
  0
SEQEND
  5
687
330
681
100
AcDbEntity
  8
0
  0
POLYLINE
  5
688
330
1F
100
AcDbEntity
  8
0
 62
     7
100
AcDb2dPolyline
 66
     1
 10
0.0
 20
0.0
 30
0.0
  0
VERTEX
  5
689
330
688
100
AcDbEntity
  8
0
 62
     7
100
AcDbVertex
100
AcDb2dVertex
 10
109.1939237325868
 20
172.7337564864411
 30
0.0
  0
VERTEX
  5
68A
330
688
100
AcDbEntity
  8
0
 62
     7
100
AcDbVertex
100
AcDb2dVertex
 10
109.1939237325868
 20
173.5667811243162
 30
0.0
  0
VERTEX
  5
68B
330
688
100
AcDbEntity
  8
0
 62
     7
100
AcDbVertex
100
AcDb2dVertex
 10
32.41595833398892
 20
173.5667811243162
 30
0.0
  0
VERTEX
  5
68C
330
688
100
AcDbEntity
  8
0
 62
     7
100
AcDbVertex
100
AcDb2dVertex
 10
32.41595833398892
 20
172.7337564864411
 30
0.0
  0
SEQEND
  5
68D
330
688
100
AcDbEntity
  8
0
  0
POLYLINE
  5
68E
330
1F
100
AcDbEntity
  8
0
 62
     7
100
AcDb2dPolyline
 66
     1
 10
0.0
 20
0.0
 30
0.0
  0
VERTEX
  5
68F
330
68E
100
AcDbEntity
  8
0
 62
     7
100
AcDbVertex
100
AcDb2dVertex
 10
40.20670240384348
 20
167.0903418491241
 30
0.0
  0
VERTEX
  5
690
330
68E
100
AcDbEntity
  8
0
 62
     7
100
AcDbVertex
100
AcDb2dVertex
 10
40.20670240384348
 20
166.3200179904438
 30
0.0
  0
VERTEX
  5
691
330
68E
100
AcDbEntity
  8
0
 62
     7
100
AcDbVertex
100
AcDb2dVertex
 10
69.00324103331785
 20
166.3200179904438
 30
0.0
  0
VERTEX
  5
692
330
68E
100
AcDbEntity
  8
0
 62
     7
100
AcDbVertex
100
AcDb2dVertex
 10
69.00324103331785
 20
166.833509811268
 30
0.0
  0
VERTEX
  5
693
330
68E
100
AcDbEntity
  8
0
 62
     7
100
AcDbVertex
100
AcDb2dVertex
 10
72.58063054518526
 20
166.833509811268
 30
0.0
  0
VERTEX
  5
694
330
68E
100
AcDbEntity
  8
0
 62
     7
100
AcDbVertex
100
AcDb2dVertex
 10
72.58063054518526
 20
166.3200179904438
 30
0.0
  0
VERTEX
  5
695
330
68E
100
AcDbEntity
  8
0
 62
     7
100
AcDbVertex
100
AcDb2dVertex
 10
101.4415925027335
 20
166.3200179904438
 30
0.0
  0
VERTEX
  5
696
330
68E
100
AcDbEntity
  8
0
 62
     7
100
AcDbVertex
100
AcDb2dVertex
 10
101.4415925027335
 20
167.0903418491241
 30
0.0
  0
SEQEND
  5
697
330
68E
100
AcDbEntity
  8
0
  0
POLYLINE
  5
698
330
1F
100
AcDbEntity
  8
0
 62
     7
100
AcDb2dPolyline
 66
     1
 10
0.0
 20
0.0
 30
0.0
  0
VERTEX
  5
699
330
698
100
AcDbEntity
  8
0
 62
     7
100
AcDbVertex
100
AcDb2dVertex
 10
31.9045335718195
 20
165.6380608892553
 30
0.0
  0
VERTEX
  5
69A
330
698
100
AcDbEntity
  8
0
 62
     7
100
AcDbVertex
100
AcDb2dVertex
 10
31.9045335718195
 20
165.3583189513088
 30
0.0
  0
VERTEX
  5
69B
330
698
100
AcDbEntity
  8
0
 62
     7
100
AcDbVertex
100
AcDb2dVertex
 10
47.16614438470189
 20
165.3583189513088
 30
0.0
  0
VERTEX
  5
69C
330
698
100
AcDbEntity
  8
0
 62
     7
100
AcDbVertex
100
AcDb2dVertex
 10
47.16614438470189
 20
165.6380608892553
 30
0.0
  0
SEQEND
  5
69D
330
698
100
AcDbEntity
  8
0
  0
POLYLINE
  5
69E
330
1F
100
AcDbEntity
  8
0
 62
     7
100
AcDb2dPolyline
 66
     1
 10
0.0
 20
0.0
 30
0.0
  0
VERTEX
  5
69F
330
69E
100
AcDbEntity
  8
0
 62
     7
100
AcDbVertex
100
AcDb2dVertex
 10
48.63496181380885
 20
165.6380608892553
 30
0.0
  0
VERTEX
  5
6A0
330
69E
100
AcDbEntity
  8
0
 62
     7
100
AcDbVertex
100
AcDb2dVertex
 10
48.63496181380885
 20
165.3583189513088
 30
0.0
  0
VERTEX
  5
6A1
330
69E
100
AcDbEntity
  8
0
 62
     7
100
AcDbVertex
100
AcDb2dVertex
 10
92.82161340253757
 20
165.3583189513088
 30
0.0
  0
VERTEX
  5
6A2
330
69E
100
AcDbEntity
  8
0
 62
     7
100
AcDbVertex
100
AcDb2dVertex
 10
92.82161340253757
 20
165.6380608892553
 30
0.0
  0
SEQEND
  5
6A3
330
69E
100
AcDbEntity
  8
0
  0
POLYLINE
  5
6A4
330
1F
100
AcDbEntity
  8
0
 62
     7
100
AcDb2dPolyline
 66
     1
 10
0.0
 20
0.0
 30
0.0
  0
VERTEX
  5
6A5
330
6A4
100
AcDbEntity
  8
0
 62
     7
100
AcDbVertex
100
AcDb2dVertex
 10
94.29008632186874
 20
165.6380608892553
 30
0.0
  0
VERTEX
  5
6A6
330
6A4
100
AcDbEntity
  8
0
 62
     7
100
AcDbVertex
100
AcDb2dVertex
 10
94.29008632186874
 20
165.3583189513088
 30
0.0
  0
VERTEX
  5
6A7
330
6A4
100
AcDbEntity
  8
0
 62
     7
100
AcDbVertex
100
AcDb2dVertex
 10
109.5525584091906
 20
165.3583189513088
 30
0.0
  0
VERTEX
  5
6A8
330
6A4
100
AcDbEntity
  8
0
 62
     7
100
AcDbVertex
100
AcDb2dVertex
 10
109.5525584091906
 20
165.6380608892553
 30
0.0
  0
SEQEND
  5
6A9
330
6A4
100
AcDbEntity
  8
0
  0
POLYLINE
  5
6AA
330
1F
100
AcDbEntity
  8
0
 62
     7
100
AcDb2dPolyline
 66
     1
 10
0.0
 20
0.0
 30
0.0
  0
VERTEX
  5
6AB
330
6AA
100
AcDbEntity
  8
0
 62
     7
100
AcDbVertex
100
AcDb2dVertex
 10
49.52913693688781
 20
173.5667811243162
 30
0.0
  0
VERTEX
  5
6AC
330
6AA
100
AcDbEntity
  8
0
 62
     7
100
AcDbVertex
100
AcDb2dVertex
 10
49.52913693688781
 20
173.8246466914997
 30
0.0
  0
VERTEX
  5
6AD
330
6AA
100
AcDbEntity
  8
0
 62
     7
100
AcDbVertex
100
AcDb2dVertex
 10
50.2942931489311
 20
173.8246466914997
 30
0.0
  0
VERTEX
  5
6AE
330
6AA
100
AcDbEntity
  8
0
 62
     7
100
AcDbVertex
100
AcDb2dVertex
 10
50.2942931489311
 20
173.5667811243162
 30
0.0
  0
SEQEND
  5
6AF
330
6AA
100
AcDbEntity
  8
0
  0
POLYLINE
  5
6B0
330
1F
100
AcDbEntity
  8
0
 62
     7
100
AcDb2dPolyline
 66
     1
 10
0.0
 20
0.0
 30
0.0
  0
VERTEX
  5
6B1
330
6B0
100
AcDbEntity
  8
0
 62
     7
100
AcDbVertex
100
AcDb2dVertex
 10
91.16193755763952
 20
173.5667811243162
 30
0.0
  0
VERTEX
  5
6B2
330
6B0
100
AcDbEntity
  8
0
 62
     7
100
AcDbVertex
100
AcDb2dVertex
 10
91.16193755763952
 20
173.8246466914997
 30
0.0
  0
VERTEX
  5
6B3
330
6B0
100
AcDbEntity
  8
0
 62
     7
100
AcDbVertex
100
AcDb2dVertex
 10
91.92743827945861
 20
173.8246466914997
 30
0.0
  0
VERTEX
  5
6B4
330
6B0
100
AcDbEntity
  8
0
 62
     7
100
AcDbVertex
100
AcDb2dVertex
 10
91.92743827945861
 20
173.5667811243162
 30
0.0
  0
SEQEND
  5
6B5
330
6B0
100
AcDbEntity
  8
0
  0
POLYLINE
  5
6B6
330
1F
100
AcDbEntity
  8
0
 62
     7
100
AcDb2dPolyline
 66
     1
 10
0.0
 20
0.0
 30
0.0
  0
VERTEX
  5
6B7
330
6B6
100
AcDbEntity
  8
0
 62
     7
100
AcDbVertex
100
AcDb2dVertex
 10
47.35820858470825
 20
165.6795743172387
 30
0.0
  0
VERTEX
  5
6B8
330
6B6
100
AcDbEntity
  8
0
 62
     7
100
AcDbVertex
100
AcDb2dVertex
 10
47.35820858470825
 20
166.2573172112489
 30
0.0
  0
SEQEND
  5
6B9
330
6B6
100
AcDbEntity
  8
0
  0
POLYLINE
  5
6BA
330
1F
100
AcDbEntity
  8
0
 62
     7
100
AcDb2dPolyline
 66
     1
 10
0.0
 20
0.0
 30
0.0
  0
VERTEX
  5
6BB
330
6BA
100
AcDbEntity
  8
0
 62
     7
100
AcDbVertex
100
AcDb2dVertex
 10
48.44427565290567
 20
165.6795743172387
 30
0.0
  0
VERTEX
  5
6BC
330
6BA
100
AcDbEntity
  8
0
 62
     7
100
AcDbVertex
100
AcDb2dVertex
 10
48.44427565290567
 20
166.2573172112489
 30
0.0
  0
SEQEND
  5
6BD
330
6BA
100
AcDbEntity
  8
0
  0
POLYLINE
  5
6BE
330
1F
100
AcDbEntity
  8
0
 62
     7
100
AcDb2dPolyline
 66
     1
 10
0.0
 20
0.0
 30
0.0
  0
VERTEX
  5
6BF
330
6BE
100
AcDbEntity
  8
0
 62
     7
100
AcDbVertex
100
AcDb2dVertex
 10
92.94925427447005
 20
165.6795743172387
 30
0.0
  0
VERTEX
  5
6C0
330
6BE
100
AcDbEntity
  8
0
 62
     7
100
AcDbVertex
100
AcDb2dVertex
 10
92.94925427447005
 20
166.2573172112489
 30
0.0
  0
SEQEND
  5
6C1
330
6BE
100
AcDbEntity
  8
0
  0
POLYLINE
  5
6C2
330
1F
100
AcDbEntity
  8
0
 62
     7
100
AcDb2dPolyline
 66
     1
 10
0.0
 20
0.0
 30
0.0
  0
VERTEX
  5
6C3
330
6C2
100
AcDbEntity
  8
0
 62
     7
100
AcDbVertex
100
AcDb2dVertex
 10
94.03463232311587
 20
165.6795743172387
 30
0.0
  0
VERTEX
  5
6C4
330
6C2
100
AcDbEntity
  8
0
 62
     7
100
AcDbVertex
100
AcDb2dVertex
 10
94.03463232311587
 20
166.2573172112489
 30
0.0
  0
SEQEND
  5
6C5
330
6C2
100
AcDbEntity
  8
0
  0
POLYLINE
  5
6C6
330
1F
100
AcDbEntity
  8
0
 62
     7
100
AcDb2dPolyline
 66
     1
 10
0.0
 20
0.0
 30
0.0
  0
VERTEX
  5
6C7
330
6C6
100
AcDbEntity
  8
0
 62
     7
100
AcDbVertex
100
AcDb2dVertex
 10
190.2684428000266
 20
177.8934793985403
 30
0.0
  0
VERTEX
  5
6C8
330
6C6
100
AcDbEntity
  8
0
 62
     7
100
AcDbVertex
100
AcDb2dVertex
 10
190.2684428000266
 20
173.4207089793786
 30
0.0
  0
SEQEND
  5
6C9
330
6C6
100
AcDbEntity
  8
0
  0
POLYLINE
  5
6CA
330
1F
100
AcDbEntity
  8
0
 62
     7
100
AcDb2dPolyline
 66
     1
 10
0.0
 20
0.0
 30
0.0
  0
VERTEX
  5
6CB
330
6CA
100
AcDbEntity
  8
0
 62
     7
100
AcDbVertex
100
AcDb2dVertex
 10
190.2684428000266
 20
173.4207089793786
 30
0.0
  0
VERTEX
  5
6CC
330
6CA
100
AcDbEntity
  8
0
 62
     7
100
AcDbVertex
100
AcDb2dVertex
 10
192.4564243861081
 20
171.1595190659405
 30
0.0
  0
SEQEND
  5
6CD
330
6CA
100
AcDbEntity
  8
0
  0
POLYLINE
  5
6CE
330
1F
100
AcDbEntity
  8
0
 62
     7
100
AcDb2dPolyline
 66
     1
 10
0.0
 20
0.0
 30
0.0
  0
VERTEX
  5
6CF
330
6CE
100
AcDbEntity
  8
0
 62
     7
100
AcDbVertex
100
AcDb2dVertex
 10
192.4564243861081
 20
171.1595190659405
 30
0.0
  0
VERTEX
  5
6D0
330
6CE
100
AcDbEntity
  8
0
 62
     7
100
AcDbVertex
100
AcDb2dVertex
 10
195.1659937727449
 20
171.1595190659405
 30
0.0
  0
SEQEND
  5
6D1
330
6CE
100
AcDbEntity
  8
0
  0
SPLINE
  5
6D2
330
1F
100
AcDbEntity
  8
0
 62
     7
100
AcDbSpline
210
0.0
220
0.0
230
1.0
 70
     8
 71
     3
 72
     8
 73
     4
 74
     0
 42
0.0000000001
 43
0.0000000001
 40
0.0
 40
0.0
 40
0.0
 40
0.0
 40
1.0
 40
1.0
 40
1.0
 40
1.0
 10
195.6872370635245
 20
170.6568793030539
 30
0.0
 10
195.6872370635245
 20
170.9342096725698
 30
0.0
 10
195.4557264941895
 20
171.1595190659405
 30
0.0
 10
195.1659937727449
 20
171.1595190659405
 30
0.0
  0
POLYLINE
  5
6D3
330
1F
100
AcDbEntity
  8
0
 62
     7
100
AcDb2dPolyline
 66
     1
 10
0.0
 20
0.0
 30
0.0
  0
VERTEX
  5
6D4
330
6D3
100
AcDbEntity
  8
0
 62
     7
100
AcDbVertex
100
AcDb2dVertex
 10
195.6872370635245
 20
170.6568793030539
 30
0.0
  0
VERTEX
  5
6D5
330
6D3
100
AcDbEntity
  8
0
 62
     7
100
AcDbVertex
100
AcDb2dVertex
 10
195.6872370635245
 20
169.5504861580845
 30
0.0
  0
SEQEND
  5
6D6
330
6D3
100
AcDbEntity
  8
0
  0
SPLINE
  5
6D7
330
1F
100
AcDbEntity
  8
0
 62
     7
100
AcDbSpline
210
0.0
220
0.0
230
1.0
 70
     8
 71
     3
 72
     8
 73
     4
 74
     0
 42
0.0000000001
 43
0.0000000001
 40
0.0
 40
0.0
 40
0.0
 40
0.0
 40
1.0
 40
1.0
 40
1.0
 40
1.0
 10
195.2710692543628
 20
169.0495689440769
 30
0.0
 10
195.5015462943704
 20
169.0495689440769
 30
0.0
 10
195.6872370635245
 20
169.2738448081202
 30
0.0
 10
195.6872370635245
 20
169.5504861580845
 30
0.0
  0
POLYLINE
  5
6D8
330
1F
100
AcDbEntity
  8
0
 62
     7
100
AcDb2dPolyline
 66
     1
 10
0.0
 20
0.0
 30
0.0
  0
VERTEX
  5
6D9
330
6D8
100
AcDbEntity
  8
0
 62
     7
100
AcDbVertex
100
AcDb2dVertex
 10
195.2710692543628
 20
169.0495689440769
 30
0.0
  0
VERTEX
  5
6DA
330
6D8
100
AcDbEntity
  8
0
 62
     7
100
AcDbVertex
100
AcDb2dVertex
 10
193.7066503624724
 20
169.0495689440769
 30
0.0
  0
SEQEND
  5
6DB
330
6D8
100
AcDbEntity
  8
0
  0
POLYLINE
  5
6DC
330
1F
100
AcDbEntity
  8
0
 62
     7
100
AcDb2dPolyline
 66
     1
 10
0.0
 20
0.0
 30
0.0
  0
VERTEX
  5
6DD
330
6DC
100
AcDbEntity
  8
0
 62
     7
100
AcDbVertex
100
AcDb2dVertex
 10
193.7066503624724
 20
169.0495689440769
 30
0.0
  0
VERTEX
  5
6DE
330
6DC
100
AcDbEntity
  8
0
 62
     7
100
AcDbVertex
100
AcDb2dVertex
 10
193.7066503624724
 20
167.4407082911088
 30
0.0
  0
SEQEND
  5
6DF
330
6DC
100
AcDbEntity
  8
0
  0
POLYLINE
  5
6E0
330
1F
100
AcDbEntity
  8
0
 62
     7
100
AcDb2dPolyline
 66
     1
 10
0.0
 20
0.0
 30
0.0
  0
VERTEX
  5
6E1
330
6E0
100
AcDbEntity
  8
0
 62
     7
100
AcDbVertex
100
AcDb2dVertex
 10
193.7066503624724
 20
167.4407082911088
 30
0.0
  0
VERTEX
  5
6E2
330
6E0
100
AcDbEntity
  8
0
 62
     7
100
AcDbVertex
100
AcDb2dVertex
 10
192.7702727918584
 20
166.4359455299992
 30
0.0
  0
SEQEND
  5
6E3
330
6E0
100
AcDbEntity
  8
0
  0
POLYLINE
  5
6E4
330
1F
100
AcDbEntity
  8
0
 62
     7
100
AcDb2dPolyline
 66
     1
 10
0.0
 20
0.0
 30
0.0
  0
VERTEX
  5
6E5
330
6E4
100
AcDbEntity
  8
0
 62
     7
100
AcDbVertex
100
AcDb2dVertex
 10
192.7702727918584
 20
166.4359455299992
 30
0.0
  0
VERTEX
  5
6E6
330
6E4
100
AcDbEntity
  8
0
 62
     7
100
AcDbVertex
100
AcDb2dVertex
 10
192.4564243861081
 20
166.4359455299992
 30
0.0
  0
SEQEND
  5
6E7
330
6E4
100
AcDbEntity
  8
0
  0
POLYLINE
  5
6E8
330
1F
100
AcDbEntity
  8
0
 62
     7
100
AcDb2dPolyline
 66
     1
 10
0.0
 20
0.0
 30
0.0
  0
VERTEX
  5
6E9
330
6E8
100
AcDbEntity
  8
0
 62
     7
100
AcDbVertex
100
AcDb2dVertex
 10
192.4564243861081
 20
166.4359455299992
 30
0.0
  0
VERTEX
  5
6EA
330
6E8
100
AcDbEntity
  8
0
 62
     7
100
AcDbVertex
100
AcDb2dVertex
 10
191.4153158436521
 20
167.2395145820438
 30
0.0
  0
SEQEND
  5
6EB
330
6E8
100
AcDbEntity
  8
0
  0
POLYLINE
  5
6EC
330
1F
100
AcDbEntity
  8
0
 62
     7
100
AcDb2dPolyline
 66
     1
 10
0.0
 20
0.0
 30
0.0
  0
VERTEX
  5
6ED
330
6EC
100
AcDbEntity
  8
0
 62
     7
100
AcDbVertex
100
AcDb2dVertex
 10
191.4153158436521
 20
167.2395145820438
 30
0.0
  0
VERTEX
  5
6EE
330
6EC
100
AcDbEntity
  8
0
 62
     7
100
AcDbVertex
100
AcDb2dVertex
 10
191.4153158436521
 20
168.3448741976858
 30
0.0
  0
SEQEND
  5
6EF
330
6EC
100
AcDbEntity
  8
0
  0
POLYLINE
  5
6F0
330
1F
100
AcDbEntity
  8
0
 62
     7
100
AcDb2dPolyline
 66
     1
 10
0.0
 20
0.0
 30
0.0
  0
VERTEX
  5
6F1
330
6F0
100
AcDbEntity
  8
0
 62
     7
100
AcDbVertex
100
AcDb2dVertex
 10
191.4153158436521
 20
168.3448741976858
 30
0.0
  0
VERTEX
  5
6F2
330
6F0
100
AcDbEntity
  8
0
 62
     7
100
AcDbVertex
100
AcDb2dVertex
 10
190.372484752317
 20
168.4454710522183
 30
0.0
  0
SEQEND
  5
6F3
330
6F0
100
AcDbEntity
  8
0
  0
POLYLINE
  5
6F4
330
1F
100
AcDbEntity
  8
0
 62
     7
100
AcDb2dPolyline
 66
     1
 10
0.0
 20
0.0
 30
0.0
  0
VERTEX
  5
6F5
330
6F4
100
AcDbEntity
  8
0
 62
     7
100
AcDbVertex
100
AcDb2dVertex
 10
190.372484752317
 20
168.4454710522183
 30
0.0
  0
VERTEX
  5
6F6
330
6F4
100
AcDbEntity
  8
0
 62
     7
100
AcDbVertex
100
AcDb2dVertex
 10
190.2684428000266
 20
166.1327769272986
 30
0.0
  0
SEQEND
  5
6F7
330
6F4
100
AcDbEntity
  8
0
  0
POLYLINE
  5
6F8
330
1F
100
AcDbEntity
  8
0
 62
     7
100
AcDb2dPolyline
 66
     1
 10
0.0
 20
0.0
 30
0.0
  0
VERTEX
  5
6F9
330
6F8
100
AcDbEntity
  8
0
 62
     7
100
AcDbVertex
100
AcDb2dVertex
 10
190.2684428000266
 20
166.1327769272986
 30
0.0
  0
VERTEX
  5
6FA
330
6F8
100
AcDbEntity
  8
0
 62
     7
100
AcDbVertex
100
AcDb2dVertex
 10
190.68529962874
 20
165.7824104853139
 30
0.0
  0
SEQEND
  5
6FB
330
6F8
100
AcDbEntity
  8
0
  0
SPLINE
  5
6FC
330
1F
100
AcDbEntity
  8
0
 62
     7
100
AcDbSpline
210
0.0
220
0.0
230
1.0
 70
     8
 71
     3
 72
     8
 73
     4
 74
     0
 42
0.0000000001
 43
0.0000000001
 40
0.0
 40
0.0
 40
0.0
 40
0.0
 40
1.0
 40
1.0
 40
1.0
 40
1.0
 10
190.372484752317
 20
164.8286351710222
 30
0.0
 10
190.5447396402151
 20
164.8286351710222
 30
0.0
 10
190.68529962874
 20
165.2551382734579
 30
0.0
 10
190.68529962874
 20
165.7824104853139
 30
0.0
  0
POLYLINE
  5
6FD
330
1F
100
AcDbEntity
  8
0
 62
     7
100
AcDb2dPolyline
 66
     1
 10
0.0
 20
0.0
 30
0.0
  0
VERTEX
  5
6FE
330
6FD
100
AcDbEntity
  8
0
 62
     7
100
AcDbVertex
100
AcDb2dVertex
 10
190.372484752317
 20
164.8286351710222
 30
0.0
  0
VERTEX
  5
6FF
330
6FD
100
AcDbEntity
  8
0
 62
     7
100
AcDbVertex
100
AcDb2dVertex
 10
190.372484752317
 20
160.7076092329484
 30
0.0
  0
SEQEND
  5
700
330
6FD
100
AcDbEntity
  8
0
  0
POLYLINE
  5
701
330
1F
100
AcDbEntity
  8
0
 62
     7
100
AcDb2dPolyline
 66
     1
 10
0.0
 20
0.0
 30
0.0
  0
VERTEX
  5
702
330
701
100
AcDbEntity
  8
0
 62
     7
100
AcDbVertex
100
AcDb2dVertex
 10
190.372484752317
 20
160.7076092329484
 30
0.0
  0
VERTEX
  5
703
330
701
100
AcDbEntity
  8
0
 62
     7
100
AcDbVertex
100
AcDb2dVertex
 10
190.7896860908062
 20
160.6056343393128
 30
0.0
  0
SEQEND
  5
704
330
701
100
AcDbEntity
  8
0
  0
POLYLINE
  5
705
330
1F
100
AcDbEntity
  8
0
 62
     7
100
AcDb2dPolyline
 66
     1
 10
0.0
 20
0.0
 30
0.0
  0
VERTEX
  5
706
330
705
100
AcDbEntity
  8
0
 62
     7
100
AcDbVertex
100
AcDb2dVertex
 10
190.7896860908062
 20
160.6056343393128
 30
0.0
  0
VERTEX
  5
707
330
705
100
AcDbEntity
  8
0
 62
     7
100
AcDbVertex
100
AcDb2dVertex
 10
195.6345270678277
 20
160.6056343393128
 30
0.0
  0
SEQEND
  5
708
330
705
100
AcDbEntity
  8
0
  0
POLYLINE
  5
709
330
1F
100
AcDbEntity
  8
0
 62
     7
100
AcDb2dPolyline
 66
     1
 10
0.0
 20
0.0
 30
0.0
  0
VERTEX
  5
70A
330
709
100
AcDbEntity
  8
0
 62
     7
100
AcDbVertex
100
AcDb2dVertex
 10
195.6345270678277
 20
160.6056343393128
 30
0.0
  0
VERTEX
  5
70B
330
709
100
AcDbEntity
  8
0
 62
     7
100
AcDbVertex
100
AcDb2dVertex
 10
195.6345270678277
 20
150.6546417203283
 30
0.0
  0
SEQEND
  5
70C
330
709
100
AcDbEntity
  8
0
  0
POLYLINE
  5
70D
330
1F
100
AcDbEntity
  8
0
 62
     7
100
AcDb2dPolyline
 66
     1
 10
0.0
 20
0.0
 30
0.0
  0
VERTEX
  5
70E
330
70D
100
AcDbEntity
  8
0
 62
     7
100
AcDbVertex
100
AcDb2dVertex
 10
195.6345270678277
 20
150.6546417203283
 30
0.0
  0
VERTEX
  5
70F
330
70D
100
AcDbEntity
  8
0
 62
     7
100
AcDbVertex
100
AcDb2dVertex
 10
190.2684428000266
 20
150.5547338853474
 30
0.0
  0
SEQEND
  5
710
330
70D
100
AcDbEntity
  8
0
  0
POLYLINE
  5
711
330
1F
100
AcDbEntity
  8
0
 62
     7
100
AcDb2dPolyline
 66
     1
 10
0.0
 20
0.0
 30
0.0
  0
VERTEX
  5
712
330
711
100
AcDbEntity
  8
0
 62
     7
100
AcDbVertex
100
AcDb2dVertex
 10
190.2684428000266
 20
150.5547338853474
 30
0.0
  0
VERTEX
  5
713
330
711
100
AcDbEntity
  8
0
 62
     7
100
AcDbVertex
100
AcDb2dVertex
 10
190.372484752317
 20
122.6113737156323
 30
0.0
  0
SEQEND
  5
714
330
711
100
AcDbEntity
  8
0
  0
POLYLINE
  5
715
330
1F
100
AcDbEntity
  8
0
 62
     7
100
AcDb2dPolyline
 66
     1
 10
0.0
 20
0.0
 30
0.0
  0
VERTEX
  5
716
330
715
100
AcDbEntity
  8
0
 62
     7
100
AcDbVertex
100
AcDb2dVertex
 10
190.8933835333208
 20
150.6546417203283
 30
0.0
  0
VERTEX
  5
717
330
715
100
AcDbEntity
  8
0
 62
     7
100
AcDbVertex
100
AcDb2dVertex
 10
190.8933835333208
 20
160.6056343393128
 30
0.0
  0
SEQEND
  5
718
330
715
100
AcDbEntity
  8
0
  0
POLYLINE
  5
719
330
1F
100
AcDbEntity
  8
0
 62
     7
100
AcDb2dPolyline
 66
     1
 10
0.0
 20
0.0
 30
0.0
  0
VERTEX
  5
71A
330
719
100
AcDbEntity
  8
0
 62
     7
100
AcDbVertex
100
AcDb2dVertex
 10
190.372484752317
 20
139.6983695755707
 30
0.0
  0
VERTEX
  5
71B
330
719
100
AcDbEntity
  8
0
 62
     7
100
AcDbVertex
100
AcDb2dVertex
 10
195.6345270678277
 20
139.6983695755707
 30
0.0
  0
VERTEX
  5
71C
330
719
100
AcDbEntity
  8
0
 62
     7
100
AcDbVertex
100
AcDb2dVertex
 10
195.6345270678277
 20
149.6481564103398
 30
0.0
  0
VERTEX
  5
71D
330
719
100
AcDbEntity
  8
0
 62
     7
100
AcDbVertex
100
AcDb2dVertex
 10
190.1647453575119
 20
149.6481564103398
 30
0.0
  0
SEQEND
  5
71E
330
719
100
AcDbEntity
  8
0
  0
POLYLINE
  5
71F
330
1F
100
AcDbEntity
  8
0
 62
     7
100
AcDb2dPolyline
 66
     1
 10
0.0
 20
0.0
 30
0.0
  0
VERTEX
  5
720
330
71F
100
AcDbEntity
  8
0
 62
     7
100
AcDbVertex
100
AcDb2dVertex
 10
191.4153158436521
 20
167.7423265998183
 30
0.0
  0
VERTEX
  5
721
330
71F
100
AcDbEntity
  8
0
 62
     7
100
AcDbVertex
100
AcDb2dVertex
 10
190.4768712143833
 20
167.7423265998183
 30
0.0
  0
SEQEND
  5
722
330
71F
100
AcDbEntity
  8
0
  0
POLYLINE
  5
723
330
1F
100
AcDbEntity
  8
0
 62
     7
100
AcDb2dPolyline
 66
     1
 10
0.0
 20
0.0
 30
0.0
  0
VERTEX
  5
724
330
723
100
AcDbEntity
  8
0
 62
     7
100
AcDbVertex
100
AcDb2dVertex
 10
185.9951435410509
 20
177.4909197255225
 30
0.0
  0
VERTEX
  5
725
330
723
100
AcDbEntity
  8
0
 62
     7
100
AcDbVertex
100
AcDb2dVertex
 10
189.3293091512062
 20
177.4909197255225
 30
0.0
  0
SEQEND
  5
726
330
723
100
AcDbEntity
  8
0
  0
POLYLINE
  5
727
330
1F
100
AcDbEntity
  8
0
 62
     7
100
AcDb2dPolyline
 66
     1
 10
0.0
 20
0.0
 30
0.0
  0
VERTEX
  5
728
330
727
100
AcDbEntity
  8
0
 62
     7
100
AcDbVertex
100
AcDb2dVertex
 10
189.3293091512062
 20
177.4909197255225
 30
0.0
  0
VERTEX
  5
729
330
727
100
AcDbEntity
  8
0
 62
     7
100
AcDbVertex
100
AcDb2dVertex
 10
189.3293091512062
 20
175.9838617113022
 30
0.0
  0
SEQEND
  5
72A
330
727
100
AcDbEntity
  8
0
  0
SPLINE
  5
72B
330
1F
100
AcDbEntity
  8
0
 62
     7
100
AcDbSpline
210
0.0
220
0.0
230
1.0
 70
     8
 71
     3
 72
     8
 73
     4
 74
     0
 42
0.0000000001
 43
0.0000000001
 40
0.0
 40
0.0
 40
0.0
 40
0.0
 40
1.0
 40
1.0
 40
1.0
 40
1.0
 10
189.0175278041107
 20
175.5821633127238
 30
0.0
 10
189.1884046529056
 20
175.5821633127238
 30
0.0
 10
189.3293091512062
 20
175.762686435241
 30
0.0
 10
189.3293091512062
 20
175.9838617113022
 30
0.0
  0
POLYLINE
  5
72C
330
1F
100
AcDbEntity
  8
0
 62
     7
100
AcDb2dPolyline
 66
     1
 10
0.0
 20
0.0
 30
0.0
  0
VERTEX
  5
72D
330
72C
100
AcDbEntity
  8
0
 62
     7
100
AcDbVertex
100
AcDb2dVertex
 10
189.0175278041107
 20
175.5821633127238
 30
0.0
  0
VERTEX
  5
72E
330
72C
100
AcDbEntity
  8
0
 62
     7
100
AcDbVertex
100
AcDb2dVertex
 10
186.3072693979223
 20
175.4813942033034
 30
0.0
  0
SEQEND
  5
72F
330
72C
100
AcDbEntity
  8
0
  0
POLYLINE
  5
730
330
1F
100
AcDbEntity
  8
0
 62
     7
100
AcDb2dPolyline
 66
     1
 10
0.0
 20
0.0
 30
0.0
  0
VERTEX
  5
731
330
730
100
AcDbEntity
  8
0
 62
     7
100
AcDbVertex
100
AcDb2dVertex
 10
186.3072693979223
 20
175.4813942033034
 30
0.0
  0
VERTEX
  5
732
330
730
100
AcDbEntity
  8
0
 62
     7
100
AcDbVertex
100
AcDb2dVertex
 10
185.9951435410509
 20
175.8333109392792
 30
0.0
  0
SEQEND
  5
733
330
730
100
AcDbEntity
  8
0
  0
POLYLINE
  5
734
330
1F
100
AcDbEntity
  8
0
 62
     7
100
AcDb2dPolyline
 66
     1
 10
0.0
 20
0.0
 30
0.0
  0
VERTEX
  5
735
330
734
100
AcDbEntity
  8
0
 62
     7
100
AcDbVertex
100
AcDb2dVertex
 10
185.9951435410509
 20
175.8333109392792
 30
0.0
  0
VERTEX
  5
736
330
734
100
AcDbEntity
  8
0
 62
     7
100
AcDbVertex
100
AcDb2dVertex
 10
185.9951435410509
 20
177.4909197255225
 30
0.0
  0
SEQEND
  5
737
330
734
100
AcDbEntity
  8
0
  0
SPLINE
  5
738
330
1F
100
AcDbEntity
  8
0
 62
     7
100
AcDbSpline
210
0.0
220
0.0
230
1.0
 70
    11
 71
     3
 72
    20
 73
    16
 74
     0
 42
0.0000000001
 43
0.0000000001
 40
0.0
 40
0.0
 40
0.0
 40
0.0
 40
1.0
 40
1.0
 40
1.0
 40
2.0
 40
2.0
 40
2.0
 40
3.0
 40
3.0
 40
3.0
 40
4.0
 40
4.0
 40
4.0
 40
5.0
 40
5.0
 40
5.0
 40
5.0
 10
190.4713590579705
 20
169.3503259783469
 30
0.0
 10
190.9926023487502
 20
169.3503259783469
 30
0.0
 10
191.4153158436521
 20
169.8114523132501
 30
0.0
 10
191.4153158436521
 20
170.3805824628654
 30
0.0
 10
191.4153158436521
 20
170.9495403575928
 30
0.0
 10
190.9926023487502
 20
171.4108389473838
 30
0.0
 10
190.4713590579705
 20
171.4108389473838
 30
0.0
 10
189.9501157671909
 20
171.4108389473838
 30
0.0
 10
189.5277467820648
 20
170.9495403575928
 30
0.0
 10
189.5277467820648
 20
170.3805824628654
 30
0.0
 10
189.5277467820648
 20
169.8114523132501
 30
0.0
 10
189.9501157671909
 20
169.3503259783469
 30
0.0
 10
190.4713590579705
 20
169.3503259783469
 30
0.0
 10
190.4713590579705
 20
169.3503259783469
 30
0.0
 10
190.4713590579705
 20
169.3503259783469
 30
0.0
 10
190.4713590579705
 20
169.3503259783469
 30
0.0
  0
SPLINE
  5
739
330
1F
100
AcDbEntity
  8
0
 62
     7
100
AcDbSpline
210
0.0
220
0.0
230
1.0
 70
    11
 71
     3
 72
    20
 73
    16
 74
     0
 42
0.0000000001
 43
0.0000000001
 40
0.0
 40
0.0
 40
0.0
 40
0.0
 40
1.0
 40
1.0
 40
1.0
 40
2.0
 40
2.0
 40
2.0
 40
3.0
 40
3.0
 40
3.0
 40
4.0
 40
4.0
 40
4.0
 40
5.0
 40
5.0
 40
5.0
 40
5.0
 10
186.9897432637745
 20
163.7308547704477
 30
0.0
 10
188.4859492200572
 20
163.7308547704477
 30
0.0
 10
189.6986236308597
 20
165.0244889785623
 30
0.0
 10
189.6986236308597
 20
166.6202582600502
 30
0.0
 10
189.6986236308597
 20
168.2161997964259
 30
0.0
 10
188.4859492200572
 20
169.5098340045406
 30
0.0
 10
186.9897432637745
 20
169.5098340045406
 30
0.0
 10
185.4938818172675
 20
169.5098340045406
 30
0.0
 10
184.2808628966892
 20
168.2161997964259
 30
0.0
 10
184.2808628966892
 20
166.6202582600502
 30
0.0
 10
184.2808628966892
 20
165.0244889785623
 30
0.0
 10
185.4938818172675
 20
163.7308547704477
 30
0.0
 10
186.9897432637745
 20
163.7308547704477
 30
0.0
 10
186.9897432637745
 20
163.7308547704477
 30
0.0
 10
186.9897432637745
 20
163.7308547704477
 30
0.0
 10
186.9897432637745
 20
163.7308547704477
 30
0.0
  0
POLYLINE
  5
73A
330
1F
100
AcDbEntity
  8
0
 62
     7
100
AcDb2dPolyline
 66
     1
 10
0.0
 20
0.0
 30
0.0
  0
VERTEX
  5
73B
330
73A
100
AcDbEntity
  8
0
 62
     7
100
AcDbVertex
100
AcDb2dVertex
 10
185.6816396450764
 20
168.04377265364
 30
0.0
  0
VERTEX
  5
73C
330
73A
100
AcDbEntity
  8
0
 62
     7
100
AcDbVertex
100
AcDb2dVertex
 10
188.2878560989744
 20
165.280287487091
 30
0.0
  0
SEQEND
  5
73D
330
73A
100
AcDbEntity
  8
0
  0
POLYLINE
  5
73E
330
1F
100
AcDbEntity
  8
0
 62
     7
100
AcDb2dPolyline
 66
     1
 10
0.0
 20
0.0
 30
0.0
  0
VERTEX
  5
73F
330
73E
100
AcDbEntity
  8
0
 62
     7
100
AcDbVertex
100
AcDb2dVertex
 10
188.2878560989744
 20
167.9431757991075
 30
0.0
  0
VERTEX
  5
740
330
73E
100
AcDbEntity
  8
0
 62
     7
100
AcDbVertex
100
AcDb2dVertex
 10
185.577597692786
 20
165.280287487091
 30
0.0
  0
SEQEND
  5
741
330
73E
100
AcDbEntity
  8
0
  0
SPLINE
  5
742
330
1F
100
AcDbEntity
  8
0
 62
     7
100
AcDbSpline
210
0.0
220
0.0
230
1.0
 70
    11
 71
     3
 72
    20
 73
    16
 74
     0
 42
0.0000000001
 43
0.0000000001
 40
0.0
 40
0.0
 40
0.0
 40
0.0
 40
1.0
 40
1.0
 40
1.0
 40
2.0
 40
2.0
 40
2.0
 40
3.0
 40
3.0
 40
3.0
 40
4.0
 40
4.0
 40
4.0
 40
5.0
 40
5.0
 40
5.0
 40
5.0
 10
186.9897432637745
 20
135.7237602922103
 30
0.0
 10
188.4859492200572
 20
135.7237602922103
 30
0.0
 10
189.6986236308597
 20
137.0177390101007
 30
0.0
 10
189.6986236308597
 20
138.6138528013643
 30
0.0
 10
189.6986236308597
 20
140.209966592628
 30
0.0
 10
188.4859492200572
 20
141.5036008007426
 30
0.0
 10
186.9897432637745
 20
141.5036008007426
 30
0.0
 10
185.4938818172675
 20
141.5036008007426
 30
0.0
 10
184.2808628966892
 20
140.209966592628
 30
0.0
 10
184.2808628966892
 20
138.6138528013643
 30
0.0
 10
184.2808628966892
 20
137.0177390101007
 30
0.0
 10
185.4938818172675
 20
135.7237602922103
 30
0.0
 10
186.9897432637745
 20
135.7237602922103
 30
0.0
 10
186.9897432637745
 20
135.7237602922103
 30
0.0
 10
186.9897432637745
 20
135.7237602922103
 30
0.0
 10
186.9897432637745
 20
135.7237602922103
 30
0.0
  0
POLYLINE
  5
743
330
1F
100
AcDbEntity
  8
0
 62
     7
100
AcDb2dPolyline
 66
     1
 10
0.0
 20
0.0
 30
0.0
  0
VERTEX
  5
744
330
743
100
AcDbEntity
  8
0
 62
     7
100
AcDbVertex
100
AcDb2dVertex
 10
185.6816396450764
 20
140.0363336656267
 30
0.0
  0
VERTEX
  5
745
330
743
100
AcDbEntity
  8
0
 62
     7
100
AcDbVertex
100
AcDb2dVertex
 10
188.2878560989744
 20
137.2716427148625
 30
0.0
  0
SEQEND
  5
746
330
743
100
AcDbEntity
  8
0
  0
POLYLINE
  5
747
330
1F
100
AcDbEntity
  8
0
 62
     7
100
AcDb2dPolyline
 66
     1
 10
0.0
 20
0.0
 30
0.0
  0
VERTEX
  5
748
330
747
100
AcDbEntity
  8
0
 62
     7
100
AcDbVertex
100
AcDb2dVertex
 10
188.2878560989744
 20
139.93608132087
 30
0.0
  0
VERTEX
  5
749
330
747
100
AcDbEntity
  8
0
 62
     7
100
AcDbVertex
100
AcDb2dVertex
 10
185.577597692786
 20
137.2716427148625
 30
0.0
  0
SEQEND
  5
74A
330
747
100
AcDbEntity
  8
0
  0
SPLINE
  5
74B
330
1F
100
AcDbEntity
  8
0
 62
     7
100
AcDbSpline
210
0.0
220
0.0
230
1.0
 70
     8
 71
     3
 72
    44
 73
    40
 74
     0
 42
0.0000000001
 43
0.0000000001
 40
0.0
 40
0.0
 40
0.0
 40
0.0
 40
1.0
 40
1.0
 40
1.0
 40
2.0
 40
2.0
 40
2.0
 40
3.0
 40
3.0
 40
3.0
 40
4.0
 40
4.0
 40
4.0
 40
5.0
 40
5.0
 40
5.0
 40
6.0
 40
6.0
 40
6.0
 40
7.0
 40
7.0
 40
7.0
 40
8.0
 40
8.0
 40
8.0
 40
9.0
 40
9.0
 40
9.0
 40
10.0
 40
10.0
 40
10.0
 40
11.0
 40
11.0
 40
11.0
 40
12.0
 40
12.0
 40
12.0
 40
13.0
 40
13.0
 40
13.0
 40
13.0
 10
190.2684428000266
 20
177.7930547988957
 30
0.0
 10
190.2684428000266
 20
178.2373001547849
 30
0.0
 10
189.9411585130202
 20
178.5976573802677
 30
0.0
 10
189.5370485460113
 20
178.5976573802677
 30
0.0
 10
189.5370485460113
 20
178.5976573802677
 30
0.0
 10
189.5370485460113
 20
178.5976573802677
 30
0.0
 10
189.5370485460113
 20
178.5976573802677
 30
0.0
 10
189.5370485460113
 20
178.5976573802677
 30
0.0
 10
177.1336630880219
 20
178.5976573802677
 30
0.0
 10
177.1336630880219
 20
178.5976573802677
 30
0.0
 10
177.1336630880219
 20
178.5976573802677
 30
0.0
 10
177.1336630880219
 20
178.5976573802677
 30
0.0
 10
177.1336630880219
 20
178.5976573802677
 30
0.0
 10
176.7891533122257
 20
178.5976573802677
 30
0.0
 10
176.5101003938308
 20
178.1482443777416
 30
0.0
 10
176.5101003938308
 20
177.5922055996066
 30
0.0
 10
176.5101003938308
 20
177.5922055996066
 30
0.0
 10
176.5101003938308
 20
177.5922055996066
 30
0.0
 10
176.5101003938308
 20
177.5922055996066
 30
0.0
 10
176.5101003938308
 20
177.5922055996066
 30
0.0
 10
176.528359411948
 20
122.5111213708756
 30
0.0
 10
176.528359411948
 20
122.5111213708756
 30
0.0
 10
176.528359411948
 20
122.5111213708756
 30
0.0
 10
176.528359411948
 20
122.5111213708756
 30
0.0
 10
176.528359411948
 20
122.5111213708756
 30
0.0
 10
176.528359411948
 20
122.0667037600985
 30
0.0
 10
176.8256713484601
 20
121.7077245737189
 30
0.0
 10
177.3427805219301
 20
121.7077245737189
 30
0.0
 10
177.3427805219301
 20
121.7077245737189
 30
0.0
 10
177.3427805219301
 20
121.7077245737189
 30
0.0
 10
177.3427805219301
 20
121.7077245737189
 30
0.0
 10
177.3427805219301
 20
121.7077245737189
 30
0.0
 10
189.6435020667323
 20
121.6567371269011
 30
0.0
 10
189.6435020667323
 20
121.6567371269011
 30
0.0
 10
189.6435020667323
 20
121.6567371269011
 30
0.0
 10
189.6435020667323
 20
121.6567371269011
 30
0.0
 10
189.6435020667323
 20
121.6567371269011
 30
0.0
 10
190.0452004653107
 20
121.6567371269011
 30
0.0
 10
190.372484752317
 20
122.08461826844
 30
0.0
 10
190.372484752317
 20
122.6113737156323
 30
0.0
  0
POLYLINE
  5
74C
330
1F
100
AcDbEntity
  8
0
 62
     7
100
AcDb2dPolyline
 66
     1
 10
0.0
 20
0.0
 30
0.0
  0
VERTEX
  5
74D
330
74C
100
AcDbEntity
  8
0
 62
     7
100
AcDbVertex
100
AcDb2dVertex
 10
192.1436095096851
 20
125.8266834531379
 30
0.0
  0
VERTEX
  5
74E
330
74C
100
AcDbEntity
  8
0
 62
     7
100
AcDbVertex
100
AcDb2dVertex
 10
180.8867525855453
 20
121.6567371269011
 30
0.0
  0
SEQEND
  5
74F
330
74C
100
AcDbEntity
  8
0
  0
POLYLINE
  5
750
330
1F
100
AcDbEntity
  8
0
 62
     7
100
AcDb2dPolyline
 66
     1
 10
0.0
 20
0.0
 30
0.0
  0
VERTEX
  5
751
330
750
100
AcDbEntity
  8
0
 62
     7
100
AcDbVertex
100
AcDb2dVertex
 10
193.8113813343144
 20
125.2237913454946
 30
0.0
  0
VERTEX
  5
752
330
750
100
AcDbEntity
  8
0
 62
     7
100
AcDbVertex
100
AcDb2dVertex
 10
193.8113813343144
 20
120.8013193535992
 30
0.0
  0
SEQEND
  5
753
330
750
100
AcDbEntity
  8
0
  0
POLYLINE
  5
754
330
1F
100
AcDbEntity
  8
0
 62
     7
100
AcDb2dPolyline
 66
     1
 10
0.0
 20
0.0
 30
0.0
  0
VERTEX
  5
755
330
754
100
AcDbEntity
  8
0
 62
     7
100
AcDbVertex
100
AcDb2dVertex
 10
193.289793533759
 20
120.098519410975
 30
0.0
  0
VERTEX
  5
756
330
754
100
AcDbEntity
  8
0
 62
     7
100
AcDbVertex
100
AcDb2dVertex
 10
190.2684428000266
 20
120.098519410975
 30
0.0
  0
VERTEX
  5
757
330
754
100
AcDbEntity
  8
0
 62
     7
100
AcDbVertex
100
AcDb2dVertex
 10
190.2684428000266
 20
118.4903477775585
 30
0.0
  0
VERTEX
  5
758
330
754
100
AcDbEntity
  8
0
 62
     7
100
AcDbVertex
100
AcDb2dVertex
 10
190.7896860908062
 20
118.0886493789802
 30
0.0
  0
VERTEX
  5
759
330
754
100
AcDbEntity
  8
0
 62
     7
100
AcDbVertex
100
AcDb2dVertex
 10
194.7481034147042
 20
118.0886493789802
 30
0.0
  0
SEQEND
  5
75A
330
754
100
AcDbEntity
  8
0
  0
POLYLINE
  5
75B
330
1F
100
AcDbEntity
  8
0
 62
     7
100
AcDb2dPolyline
 66
     1
 10
0.0
 20
0.0
 30
0.0
  0
VERTEX
  5
75C
330
75B
100
AcDbEntity
  8
0
 62
     7
100
AcDbVertex
100
AcDb2dVertex
 10
195.7399470592214
 20
119.0922063558744
 30
0.0
  0
VERTEX
  5
75D
330
75B
100
AcDbEntity
  8
0
 62
     7
100
AcDbVertex
100
AcDb2dVertex
 10
195.6872370635245
 20
131.8587051175531
 30
0.0
  0
VERTEX
  5
75E
330
75B
100
AcDbEntity
  8
0
 62
     7
100
AcDbVertex
100
AcDb2dVertex
 10
192.0409455964979
 20
134.0687353292855
 30
0.0
  0
VERTEX
  5
75F
330
75B
100
AcDbEntity
  8
0
 62
     7
100
AcDbVertex
100
AcDb2dVertex
 10
191.5706897525361
 20
134.0687353292855
 30
0.0
  0
VERTEX
  5
760
330
75B
100
AcDbEntity
  8
0
 62
     7
100
AcDbVertex
100
AcDb2dVertex
 10
191.5183242666151
 20
132.8643291531021
 30
0.0
  0
VERTEX
  5
761
330
75B
100
AcDbEntity
  8
0
 62
     7
100
AcDbVertex
100
AcDb2dVertex
 10
185.2634047772599
 20
132.8643291531021
 30
0.0
  0
SEQEND
  5
762
330
75B
100
AcDbEntity
  8
0
  0
POLYLINE
  5
763
330
1F
100
AcDbEntity
  8
0
 62
     7
100
AcDb2dPolyline
 66
     1
 10
0.0
 20
0.0
 30
0.0
  0
VERTEX
  5
764
330
763
100
AcDbEntity
  8
0
 62
     7
100
AcDbVertex
100
AcDb2dVertex
 10
185.160051844521
 20
134.3715594222103
 30
0.0
  0
VERTEX
  5
765
330
763
100
AcDbEntity
  8
0
 62
     7
100
AcDbVertex
100
AcDb2dVertex
 10
190.2684428000266
 20
134.3715594222103
 30
0.0
  0
SEQEND
  5
766
330
763
100
AcDbEntity
  8
0
  0
POLYLINE
  5
767
330
1F
100
AcDbEntity
  8
0
 62
     7
100
AcDb2dPolyline
 66
     1
 10
0.0
 20
0.0
 30
0.0
  0
VERTEX
  5
768
330
767
100
AcDbEntity
  8
0
 62
     7
100
AcDbVertex
100
AcDb2dVertex
 10
192.873970234373
 20
131.9579239329823
 30
0.0
  0
VERTEX
  5
769
330
767
100
AcDbEntity
  8
0
 62
     7
100
AcDbVertex
100
AcDb2dVertex
 10
185.3164592827325
 20
131.5565700441798
 30
0.0
  0
SEQEND
  5
76A
330
767
100
AcDbEntity
  8
0
  0
SPLINE
  5
76B
330
1F
100
AcDbEntity
  8
0
 62
     7
100
AcDbSpline
210
0.0
220
0.0
230
1.0
 70
     8
 71
     3
 72
     8
 73
     4
 74
     0
 42
0.0000000001
 43
0.0000000001
 40
0.0
 40
0.0
 40
0.0
 40
0.0
 40
1.0
 40
1.0
 40
1.0
 40
1.0
 10
185.3164592827325
 20
131.5565700441798
 30
0.0
 10
184.9426661759936
 20
131.5565700441798
 30
0.0
 10
184.6391530635172
 20
131.1059512574384
 30
0.0
 10
184.6391530635172
 20
130.5512905184066
 30
0.0
  0
SPLINE
  5
76C
330
1F
100
AcDbEntity
  8
0
 62
     7
100
AcDbSpline
210
0.0
220
0.0
230
1.0
 70
     8
 71
     3
 72
     8
 73
     4
 74
     0
 42
0.0000000001
 43
0.0000000001
 40
0.0
 40
0.0
 40
0.0
 40
0.0
 40
1.0
 40
1.0
 40
1.0
 40
1.0
 10
184.6391530635172
 20
130.5512905184066
 30
0.0
 10
184.6391530635172
 20
130.0520958532779
 30
0.0
 10
184.965748330972
 20
129.6466078471659
 30
0.0
 10
185.3688247686535
 20
129.6466078471659
 30
0.0
  0
POLYLINE
  5
76D
330
1F
100
AcDbEntity
  8
0
 62
     7
100
AcDb2dPolyline
 66
     1
 10
0.0
 20
0.0
 30
0.0
  0
VERTEX
  5
76E
330
76D
100
AcDbEntity
  8
0
 62
     7
100
AcDbVertex
100
AcDb2dVertex
 10
189.9566614529311
 20
130.4510381736499
 30
0.0
  0
VERTEX
  5
76F
330
76D
100
AcDbEntity
  8
0
 62
     7
100
AcDbVertex
100
AcDb2dVertex
 10
191.7267526809718
 20
130.4510381736499
 30
0.0
  0
VERTEX
  5
770
330
76D
100
AcDbEntity
  8
0
 62
     7
100
AcDbVertex
100
AcDb2dVertex
 10
191.8307946332622
 20
128.5410759766359
 30
0.0
  0
VERTEX
  5
771
330
76D
100
AcDbEntity
  8
0
 62
     7
100
AcDbVertex
100
AcDb2dVertex
 10
185.055320872679
 20
125.8266834531379
 30
0.0
  0
SEQEND
  5
772
330
76D
100
AcDbEntity
  8
0
  0
POLYLINE
  5
773
330
1F
100
AcDbEntity
  8
0
 62
     7
100
AcDb2dPolyline
 66
     1
 10
0.0
 20
0.0
 30
0.0
  0
VERTEX
  5
774
330
773
100
AcDbEntity
  8
0
 62
     7
100
AcDbVertex
100
AcDb2dVertex
 10
185.9951435410509
 20
124.1189484945163
 30
0.0
  0
VERTEX
  5
775
330
773
100
AcDbEntity
  8
0
 62
     7
100
AcDbVertex
100
AcDb2dVertex
 10
192.873970234373
 20
126.6321473089494
 30
0.0
  0
SEQEND
  5
776
330
773
100
AcDbEntity
  8
0
  0
POLYLINE
  5
777
330
1F
100
AcDbEntity
  8
0
 62
     7
100
AcDb2dPolyline
 66
     1
 10
0.0
 20
0.0
 30
0.0
  0
VERTEX
  5
778
330
777
100
AcDbEntity
  8
0
 62
     7
100
AcDbVertex
100
AcDb2dVertex
 10
193.7066503624724
 20
131.2558130099098
 30
0.0
  0
VERTEX
  5
779
330
777
100
AcDbEntity
  8
0
 62
     7
100
AcDbVertex
100
AcDb2dVertex
 10
193.7066503624724
 20
127.9381838689927
 30
0.0
  0
SEQEND
  5
77A
330
777
100
AcDbEntity
  8
0
  0
POLYLINE
  5
77B
330
1F
100
AcDbEntity
  8
0
 62
     7
100
AcDb2dPolyline
 66
     1
 10
0.0
 20
0.0
 30
0.0
  0
VERTEX
  5
77C
330
77B
100
AcDbEntity
  8
0
 62
     7
100
AcDbVertex
100
AcDb2dVertex
 10
184.6391530635172
 20
130.5512905184066
 30
0.0
  0
VERTEX
  5
77D
330
77B
100
AcDbEntity
  8
0
 62
     7
100
AcDbVertex
100
AcDb2dVertex
 10
184.6391530635172
 20
124.8224374566921
 30
0.0
  0
SEQEND
  5
77E
330
77B
100
AcDbEntity
  8
0
  0
SPLINE
  5
77F
330
1F
100
AcDbEntity
  8
0
 62
     7
100
AcDbSpline
210
0.0
220
0.0
230
1.0
 70
     8
 71
     3
 72
     8
 73
     4
 74
     0
 42
0.0000000001
 43
0.0000000001
 40
0.0
 40
0.0
 40
0.0
 40
0.0
 40
1.0
 40
1.0
 40
1.0
 40
1.0
 10
185.160051844521
 20
134.3715594222103
 30
0.0
 10
184.8720416719554
 20
134.3715594222103
 30
0.0
 10
184.6391530635172
 20
134.0112021967275
 30
0.0
 10
184.6391530635172
 20
133.5678181152778
 30
0.0
  0
SPLINE
  5
780
330
1F
100
AcDbEntity
  8
0
 62
     7
100
AcDbSpline
210
0.0
220
0.0
230
1.0
 70
     8
 71
     3
 72
     8
 73
     4
 74
     0
 42
0.0000000001
 43
0.0000000001
 40
0.0
 40
0.0
 40
0.0
 40
0.0
 40
1.0
 40
1.0
 40
1.0
 40
1.0
 10
184.6391530635172
 20
133.5678181152778
 30
0.0
 10
184.6391530635172
 20
133.178866578404
 30
0.0
 10
184.9199285307911
 20
132.8643291531021
 30
0.0
 10
185.2634047772599
 20
132.8643291531021
 30
0.0
  0
SPLINE
  5
781
330
1F
100
AcDbEntity
  8
0
 62
     7
100
AcDbSpline
210
0.0
220
0.0
230
1.0
 70
     8
 71
     3
 72
     8
 73
     4
 74
     0
 42
0.0000000001
 43
0.0000000001
 40
0.0
 40
0.0
 40
0.0
 40
0.0
 40
1.0
 40
1.0
 40
1.0
 40
1.0
 10
189.0175278041107
 20
129.6466078471659
 30
0.0
 10
189.419226202689
 20
129.6466078471659
 30
0.0
 10
189.7451324505922
 20
130.0073095824245
 30
0.0
 10
189.7451324505922
 20
130.4510381736499
 30
0.0
  0
SPLINE
  5
782
330
1F
100
AcDbEntity
  8
0
 62
     7
100
AcDbSpline
210
0.0
220
0.0
230
1.0
 70
     8
 71
     3
 72
     8
 73
     4
 74
     0
 42
0.0000000001
 43
0.0000000001
 40
0.0
 40
0.0
 40
0.0
 40
0.0
 40
1.0
 40
1.0
 40
1.0
 40
1.0
 10
185.055320872679
 20
125.8266834531379
 30
0.0
 10
184.8837550043325
 20
125.8266834531379
 30
0.0
 10
184.7431950158077
 20
125.2658215381418
 30
0.0
 10
184.7431950158077
 20
124.5699117910335
 30
0.0
  0
SPLINE
  5
783
330
1F
100
AcDbEntity
  8
0
 62
     7
100
AcDbSpline
210
0.0
220
0.0
230
1.0
 70
     8
 71
     3
 72
     8
 73
     4
 74
     0
 42
0.0000000001
 43
0.0000000001
 40
0.0
 40
0.0
 40
0.0
 40
0.0
 40
1.0
 40
1.0
 40
1.0
 40
1.0
 10
184.8475814778739
 20
124.420394548338
 30
0.0
 10
184.8475814778739
 20
124.5030768945291
 30
0.0
 10
184.8014171679172
 20
124.5699117910335
 30
0.0
 10
184.7431950158077
 20
124.5699117910335
 30
0.0
  0
SPLINE
  5
784
330
1F
100
AcDbEntity
  8
0
 62
     7
100
AcDbSpline
210
0.0
220
0.0
230
1.0
 70
     8
 71
     3
 72
     8
 73
     4
 74
     0
 42
0.0000000001
 43
0.0000000001
 40
0.0
 40
0.0
 40
0.0
 40
0.0
 40
1.0
 40
1.0
 40
1.0
 40
1.0
 10
184.7431950158077
 20
124.5203023833189
 30
0.0
 10
184.7431950158077
 20
124.2980935779303
 30
0.0
 10
185.3495322212089
 20
124.1189484945163
 30
0.0
 10
186.0988409835656
 20
124.1189484945163
 30
0.0
  0
SPLINE
  5
785
330
1F
100
AcDbEntity
  8
0
 62
     7
100
AcDbSpline
210
0.0
220
0.0
230
1.0
 70
     8
 71
     3
 72
     8
 73
     4
 74
     0
 42
0.0000000001
 43
0.0000000001
 40
0.0
 40
0.0
 40
0.0
 40
0.0
 40
1.0
 40
1.0
 40
1.0
 40
1.0
 10
193.7138850677641
 20
130.8541146113314
 30
0.0
 10
193.7138850677641
 20
131.5197074981696
 30
0.0
 10
193.3835001927756
 20
132.0585207875148
 30
0.0
 10
192.9780121866635
 20
132.0585207875148
 30
0.0
  0
SPLINE
  5
786
330
1F
100
AcDbEntity
  8
0
 62
     7
100
AcDbSpline
210
0.0
220
0.0
230
1.0
 70
     8
 71
     3
 72
     8
 73
     4
 74
     0
 42
0.0000000001
 43
0.0000000001
 40
0.0
 40
0.0
 40
0.0
 40
0.0
 40
1.0
 40
1.0
 40
1.0
 40
1.0
 10
192.873970234373
 20
126.6321473089494
 30
0.0
 10
193.3373358828189
 20
126.6321473089494
 30
0.0
 10
193.7145740873157
 20
127.263289218208
 30
0.0
 10
193.7145740873157
 20
128.0394697430767
 30
0.0
  0
POLYLINE
  5
787
330
1F
100
AcDbEntity
  8
0
 62
     7
100
AcDb2dPolyline
 66
     1
 10
0.0
 20
0.0
 30
0.0
  0
VERTEX
  5
788
330
787
100
AcDbEntity
  8
0
 62
     7
100
AcDbVertex
100
AcDb2dVertex
 10
192.1436095096851
 20
125.8266834531379
 30
0.0
  0
VERTEX
  5
789
330
787
100
AcDbEntity
  8
0
 62
     7
100
AcDbVertex
100
AcDb2dVertex
 10
192.2483404815272
 20
125.8266834531379
 30
0.0
  0
SEQEND
  5
78A
330
787
100
AcDbEntity
  8
0
  0
SPLINE
  5
78B
330
1F
100
AcDbEntity
  8
0
 62
     7
100
AcDbSpline
210
0.0
220
0.0
230
1.0
 70
     8
 71
     3
 72
     8
 73
     4
 74
     0
 42
0.0000000001
 43
0.0000000001
 40
0.0
 40
0.0
 40
0.0
 40
0.0
 40
1.0
 40
1.0
 40
1.0
 40
1.0
 10
193.289793533759
 20
120.098519410975
 30
0.0
 10
193.6377484073131
 20
120.098519410975
 30
0.0
 10
193.9178348550354
 20
120.4130568362769
 30
0.0
 10
193.9178348550354
 20
120.8013193535992
 30
0.0
  0
SPLINE
  5
78C
330
1F
100
AcDbEntity
  8
0
 62
     7
100
AcDbSpline
210
0.0
220
0.0
230
1.0
 70
     8
 71
     3
 72
     8
 73
     4
 74
     0
 42
0.0000000001
 43
0.0000000001
 40
0.0
 40
0.0
 40
0.0
 40
0.0
 40
1.0
 40
1.0
 40
1.0
 40
1.0
 10
194.696082438559
 20
118.1885572139611
 30
0.0
 10
195.2724472934659
 20
118.1885572139611
 30
0.0
 10
195.7399470592214
 20
118.5930116907458
 30
0.0
 10
195.7399470592214
 20
119.0922063558744
 30
0.0
  0
SPLINE
  5
78D
330
1F
100
AcDbEntity
  8
0
 62
     7
100
AcDbSpline
210
0.0
220
0.0
230
1.0
 70
     8
 71
     3
 72
     8
 73
     4
 74
     0
 42
0.0000000001
 43
0.0000000001
 40
0.0
 40
0.0
 40
0.0
 40
0.0
 40
1.0
 40
1.0
 40
1.0
 40
1.0
 10
193.1864406010202
 20
125.927969327222
 30
0.0
 10
192.610420255889
 20
125.927969327222
 30
0.0
 10
192.1436095096851
 20
125.8387412952908
 30
0.0
 10
192.1436095096851
 20
125.7278091474844
 30
0.0
  0
SPLINE
  5
78E
330
1F
100
AcDbEntity
  8
0
 62
     7
100
AcDbSpline
210
0.0
220
0.0
230
1.0
 70
     8
 71
     3
 72
     8
 73
     4
 74
     0
 42
0.0000000001
 43
0.0000000001
 40
0.0
 40
0.0
 40
0.0
 40
0.0
 40
1.0
 40
1.0
 40
1.0
 40
1.0
 10
193.8113813343144
 20
125.0229421462055
 30
0.0
 10
193.8113813343144
 20
125.5221368113341
 30
0.0
 10
193.5323284159195
 20
125.927969327222
 30
0.0
 10
193.1864406010202
 20
125.927969327222
 30
0.0
  0
POLYLINE
  5
78F
330
1F
100
AcDbEntity
  8
0
 62
     7
100
AcDb2dPolyline
 66
     1
 10
0.0
 20
0.0
 30
0.0
  0
VERTEX
  5
790
330
78F
100
AcDbEntity
  8
0
 62
     7
100
AcDbVertex
100
AcDb2dVertex
 10
189.0175278041107
 20
129.6466078471659
 30
0.0
  0
VERTEX
  5
791
330
78F
100
AcDbEntity
  8
0
 62
     7
100
AcDbVertex
100
AcDb2dVertex
 10
185.3164592827325
 20
129.5460109926334
 30
0.0
  0
SEQEND
  5
792
330
78F
100
AcDbEntity
  8
0
  0
POLYLINE
  5
793
330
1F
100
AcDbEntity
  8
0
 62
     7
100
AcDb2dPolyline
 66
     1
 10
0.0
 20
0.0
 30
0.0
  0
VERTEX
  5
794
330
793
100
AcDbEntity
  8
0
 62
     7
100
AcDbVertex
100
AcDb2dVertex
 10
173.7295619933799
 20
149.0530157726519
 30
0.0
  0
VERTEX
  5
795
330
793
100
AcDbEntity
  8
0
 62
     7
100
AcDbVertex
100
AcDb2dVertex
 10
176.528359411948
 20
149.0530157726519
 30
0.0
  0
VERTEX
  5
796
330
793
100
AcDbEntity
  8
0
 62
     7
100
AcDbVertex
100
AcDb2dVertex
 10
176.528359411948
 20
158.4679511804976
 30
0.0
  0
VERTEX
  5
797
330
793
100
AcDbEntity
  8
0
 62
     7
100
AcDbVertex
100
AcDb2dVertex
 10
173.7295619933799
 20
158.4679511804976
 30
0.0
  0
VERTEX
  5
798
330
793
100
AcDbEntity
  8
0
 62
     7
100
AcDbVertex
100
AcDb2dVertex
 10
173.7295619933799
 20
149.0530157726519
 30
0.0
  0
SEQEND
  5
799
330
793
100
AcDbEntity
  8
0
  0
POLYLINE
  5
79A
330
1F
100
AcDbEntity
  8
0
 62
     7
100
AcDb2dPolyline
 66
     1
 10
0.0
 20
0.0
 30
0.0
  0
VERTEX
  5
79B
330
79A
100
AcDbEntity
  8
0
 62
     7
100
AcDbVertex
100
AcDb2dVertex
 10
158.7113473370975
 20
172.198216039966
 30
0.0
  0
VERTEX
  5
79C
330
79A
100
AcDbEntity
  8
0
 62
     7
100
AcDbVertex
100
AcDb2dVertex
 10
158.8115996818542
 20
174.0435826540181
 30
0.0
  0
VERTEX
  5
79D
330
79A
100
AcDbEntity
  8
0
 62
     7
100
AcDbVertex
100
AcDb2dVertex
 10
176.528359411948
 20
174.0435826540181
 30
0.0
  0
SEQEND
  5
79E
330
79A
100
AcDbEntity
  8
0
  0
POLYLINE
  5
79F
330
1F
100
AcDbEntity
  8
0
 62
     7
100
AcDb2dPolyline
 66
     1
 10
0.0
 20
0.0
 30
0.0
  0
VERTEX
  5
7A0
330
79F
100
AcDbEntity
  8
0
 62
     7
100
AcDbVertex
100
AcDb2dVertex
 10
158.9197757514542
 20
167.0720828310069
 30
0.0
  0
VERTEX
  5
7A1
330
79F
100
AcDbEntity
  8
0
 62
     7
100
AcDbVertex
100
AcDb2dVertex
 10
158.9197757514542
 20
165.1614316144413
 30
0.0
  0
VERTEX
  5
7A2
330
79F
100
AcDbEntity
  8
0
 62
     7
100
AcDbVertex
100
AcDb2dVertex
 10
176.528359411948
 20
165.1614316144413
 30
0.0
  0
SEQEND
  5
7A3
330
79F
100
AcDbEntity
  8
0
  0
POLYLINE
  5
7A4
330
1F
100
AcDbEntity
  8
0
 62
     7
100
AcDb2dPolyline
 66
     1
 10
0.0
 20
0.0
 30
0.0
  0
VERTEX
  5
7A5
330
7A4
100
AcDbEntity
  8
0
 62
     7
100
AcDbVertex
100
AcDb2dVertex
 10
148.809447361164
 20
172.198216039966
 30
0.0
  0
VERTEX
  5
7A6
330
7A4
100
AcDbEntity
  8
0
 62
     7
100
AcDbVertex
100
AcDb2dVertex
 10
171.4282366910615
 20
172.198216039966
 30
0.0
  0
SEQEND
  5
7A7
330
7A4
100
AcDbEntity
  8
0
  0
POLYLINE
  5
7A8
330
1F
100
AcDbEntity
  8
0
 62
     7
100
AcDb2dPolyline
 66
     1
 10
0.0
 20
0.0
 30
0.0
  0
VERTEX
  5
7A9
330
7A8
100
AcDbEntity
  8
0
 62
     7
100
AcDbVertex
100
AcDb2dVertex
 10
148.809447361164
 20
167.0720828310069
 30
0.0
  0
VERTEX
  5
7AA
330
7A8
100
AcDbEntity
  8
0
 62
     7
100
AcDbVertex
100
AcDb2dVertex
 10
171.4282366910615
 20
167.0720828310069
 30
0.0
  0
SEQEND
  5
7AB
330
7A8
100
AcDbEntity
  8
0
  0
POLYLINE
  5
7AC
330
1F
100
AcDbEntity
  8
0
 62
     7
100
AcDb2dPolyline
 66
     1
 10
0.0
 20
0.0
 30
0.0
  0
VERTEX
  5
7AD
330
7AC
100
AcDbEntity
  8
0
 62
     7
100
AcDbVertex
100
AcDb2dVertex
 10
148.809447361164
 20
172.198216039966
 30
0.0
  0
VERTEX
  5
7AE
330
7AC
100
AcDbEntity
  8
0
 62
     7
100
AcDbVertex
100
AcDb2dVertex
 10
148.809447361164
 20
167.1220367484973
 30
0.0
  0
SEQEND
  5
7AF
330
7AC
100
AcDbEntity
  8
0
  0
POLYLINE
  5
7B0
330
1F
100
AcDbEntity
  8
0
 62
     7
100
AcDb2dPolyline
 66
     1
 10
0.0
 20
0.0
 30
0.0
  0
VERTEX
  5
7B1
330
7B0
100
AcDbEntity
  8
0
 62
     7
100
AcDbVertex
100
AcDb2dVertex
 10
152.9790491776251
 20
172.198216039966
 30
0.0
  0
VERTEX
  5
7B2
330
7B0
100
AcDbEntity
  8
0
 62
     7
100
AcDbVertex
100
AcDb2dVertex
 10
152.9790491776251
 20
167.1220367484973
 30
0.0
  0
SEQEND
  5
7B3
330
7B0
100
AcDbEntity
  8
0
  0
POLYLINE
  5
7B4
330
1F
100
AcDbEntity
  8
0
 62
     7
100
AcDb2dPolyline
 66
     1
 10
0.0
 20
0.0
 30
0.0
  0
VERTEX
  5
7B5
330
7B4
100
AcDbEntity
  8
0
 62
     7
100
AcDbVertex
100
AcDb2dVertex
 10
171.4564864926768
 20
172.1064041847163
 30
0.0
  0
VERTEX
  5
7B6
330
7B4
100
AcDbEntity
  8
0
 62
     7
100
AcDbVertex
100
AcDb2dVertex
 10
171.4564864926768
 20
167.0310861676871
 30
0.0
  0
SEQEND
  5
7B7
330
7B4
100
AcDbEntity
  8
0
  0
POLYLINE
  5
7B8
330
1F
100
AcDbEntity
  8
0
 62
     7
100
AcDb2dPolyline
 66
     1
 10
0.0
 20
0.0
 30
0.0
  0
VERTEX
  5
7B9
330
7B8
100
AcDbEntity
  8
0
 62
     7
100
AcDbVertex
100
AcDb2dVertex
 10
169.4197446981699
 20
166.9894004848158
 30
0.0
  0
VERTEX
  5
7BA
330
7B8
100
AcDbEntity
  8
0
 62
     7
100
AcDbVertex
100
AcDb2dVertex
 10
169.4483390095609
 20
165.1114776969509
 30
0.0
  0
SEQEND
  5
7BB
330
7B8
100
AcDbEntity
  8
0
  0
POLYLINE
  5
7BC
330
1F
100
AcDbEntity
  8
0
 62
     7
100
AcDb2dPolyline
 66
     1
 10
0.0
 20
0.0
 30
0.0
  0
VERTEX
  5
7BD
330
7BC
100
AcDbEntity
  8
0
 62
     7
100
AcDbVertex
100
AcDb2dVertex
 10
163.0711185497981
 20
166.9894004848158
 30
0.0
  0
VERTEX
  5
7BE
330
7BC
100
AcDbEntity
  8
0
 62
     7
100
AcDbVertex
100
AcDb2dVertex
 10
163.0990238416375
 20
165.1114776969509
 30
0.0
  0
SEQEND
  5
7BF
330
7BC
100
AcDbEntity
  8
0
  0
POLYLINE
  5
7C0
330
1F
100
AcDbEntity
  8
0
 62
     7
100
AcDb2dPolyline
 66
     1
 10
0.0
 20
0.0
 30
0.0
  0
VERTEX
  5
7C1
330
7C0
100
AcDbEntity
  8
0
 62
     7
100
AcDbVertex
100
AcDb2dVertex
 10
169.3708243100068
 20
174.0435826540181
 30
0.0
  0
VERTEX
  5
7C2
330
7C0
100
AcDbEntity
  8
0
 62
     7
100
AcDbVertex
100
AcDb2dVertex
 10
169.4001076409495
 20
172.1525684946729
 30
0.0
  0
SEQEND
  5
7C3
330
7C0
100
AcDbEntity
  8
0
  0
POLYLINE
  5
7C4
330
1F
100
AcDbEntity
  8
0
 62
     7
100
AcDb2dPolyline
 66
     1
 10
0.0
 20
0.0
 30
0.0
  0
VERTEX
  5
7C5
330
7C4
100
AcDbEntity
  8
0
 62
     7
100
AcDbVertex
100
AcDb2dVertex
 10
163.022198161635
 20
174.0435826540181
 30
0.0
  0
VERTEX
  5
7C6
330
7C4
100
AcDbEntity
  8
0
 62
     7
100
AcDbVertex
100
AcDb2dVertex
 10
163.0514814925777
 20
172.1525684946729
 30
0.0
  0
SEQEND
  5
7C7
330
7C4
100
AcDbEntity
  8
0
  0
SPLINE
  5
7C8
330
1F
100
AcDbEntity
  8
0
 62
     7
100
AcDbSpline
210
0.0
220
0.0
230
1.0
 70
     8
 71
     3
 72
    20
 73
    16
 74
     0
 42
0.0000000001
 43
0.0000000001
 40
0.0
 40
0.0
 40
0.0
 40
0.0
 40
1.0
 40
1.0
 40
1.0
 40
2.0
 40
2.0
 40
2.0
 40
3.0
 40
3.0
 40
3.0
 40
4.0
 40
4.0
 40
4.0
 40
5.0
 40
5.0
 40
5.0
 40
5.0
 10
150.8778840550443
 20
127.5575005667379
 30
0.0
 10
150.8778840550443
 20
127.5575005667379
 30
0.0
 10
150.8778840550443
 20
125.0053721476399
 30
0.0
 10
150.8778840550443
 20
125.0053721476399
 30
0.0
 10
150.8778840550443
 20
125.0053721476399
 30
0.0
 10
150.8778840550443
 20
125.0053721476399
 30
0.0
 10
150.8778840550443
 20
125.0053721476399
 30
0.0
 10
150.9350726778264
 20
124.577491006101
 30
0.0
 10
151.3384936252837
 20
124.2181673099456
 30
0.0
 10
151.8903982861092
 20
124.1055126132603
 30
0.0
 10
151.8903982861092
 20
124.1055126132603
 30
0.0
 10
151.8903982861092
 20
124.1055126132603
 30
0.0
 10
151.8903982861092
 20
124.1055126132603
 30
0.0
 10
151.8903982861092
 20
124.1055126132603
 30
0.0
 10
176.2620533552576
 20
124.0300649723609
 30
0.0
 10
176.2620533552576
 20
124.0300649723609
 30
0.0
  0
POLYLINE
  5
7C9
330
1F
100
AcDbEntity
  8
0
 62
     7
100
AcDb2dPolyline
 66
     1
 10
0.0
 20
0.0
 30
0.0
  0
VERTEX
  5
7CA
330
7C9
100
AcDbEntity
  8
0
 62
     7
100
AcDbVertex
100
AcDb2dVertex
 10
150.8778840550443
 20
127.5575005667379
 30
0.0
  0
VERTEX
  5
7CB
330
7C9
100
AcDbEntity
  8
0
 62
     7
100
AcDbVertex
100
AcDb2dVertex
 10
153.2140048447181
 20
127.5947076225239
 30
0.0
  0
VERTEX
  5
7CC
330
7C9
100
AcDbEntity
  8
0
 62
     7
100
AcDbVertex
100
AcDb2dVertex
 10
153.2140048447181
 20
124.3311665164068
 30
0.0
  0
SEQEND
  5
7CD
330
7C9
100
AcDbEntity
  8
0
  0
POLYLINE
  5
7CE
330
1F
100
AcDbEntity
  8
0
 62
     7
100
AcDb2dPolyline
 66
     1
 10
0.0
 20
0.0
 30
0.0
  0
VERTEX
  5
7CF
330
7CE
100
AcDbEntity
  8
0
 62
     7
100
AcDbVertex
100
AcDb2dVertex
 10
151.0494499233907
 20
140.1713814977388
 30
0.0
  0
VERTEX
  5
7D0
330
7CE
100
AcDbEntity
  8
0
 62
     7
100
AcDbVertex
100
AcDb2dVertex
 10
151.0814893325398
 20
132.3765033105747
 30
0.0
  0
SEQEND
  5
7D1
330
7CE
100
AcDbEntity
  8
0
  0
POLYLINE
  5
7D2
330
1F
100
AcDbEntity
  8
0
 62
     7
100
AcDb2dPolyline
 66
     1
 10
0.0
 20
0.0
 30
0.0
  0
VERTEX
  5
7D3
330
7D2
100
AcDbEntity
  8
0
 62
     7
100
AcDbVertex
100
AcDb2dVertex
 10
150.5285511423869
 20
127.5382080192933
 30
0.0
  0
VERTEX
  5
7D4
330
7D2
100
AcDbEntity
  8
0
 62
     7
100
AcDbVertex
100
AcDb2dVertex
 10
150.5285511423869
 20
132.406475661069
 30
0.0
  0
VERTEX
  5
7D5
330
7D2
100
AcDbEntity
  8
0
 62
     7
100
AcDbVertex
100
AcDb2dVertex
 10
150.7225101461602
 20
132.3792593887811
 30
0.0
  0
VERTEX
  5
7D6
330
7D2
100
AcDbEntity
  8
0
 62
     7
100
AcDbVertex
100
AcDb2dVertex
 10
153.0972160307232
 20
132.3610003706639
 30
0.0
  0
VERTEX
  5
7D7
330
7D2
100
AcDbEntity
  8
0
 62
     7
100
AcDbVertex
100
AcDb2dVertex
 10
153.1340785767333
 20
140.2010093384573
 30
0.0
  0
VERTEX
  5
7D8
330
7D2
100
AcDbEntity
  8
0
 62
     7
100
AcDbVertex
100
AcDb2dVertex
 10
150.646717995485
 20
140.1638022826713
 30
0.0
  0
VERTEX
  5
7D9
330
7D2
100
AcDbEntity
  8
0
 62
     7
100
AcDbVertex
100
AcDb2dVertex
 10
150.646717995485
 20
144.8164068047986
 30
0.0
  0
VERTEX
  5
7DA
330
7D2
100
AcDbEntity
  8
0
 62
     7
100
AcDbVertex
100
AcDb2dVertex
 10
176.2620533552576
 20
144.8164068047986
 30
0.0
  0
SEQEND
  5
7DB
330
7D2
100
AcDbEntity
  8
0
  0
POLYLINE
  5
7DC
330
1F
100
AcDbEntity
  8
0
 62
     7
100
AcDb2dPolyline
 66
     1
 10
0.0
 20
0.0
 30
0.0
  0
VERTEX
  5
7DD
330
7DC
100
AcDbEntity
  8
0
 62
     7
100
AcDbVertex
100
AcDb2dVertex
 10
150.5285511423869
 20
127.5382080192933
 30
0.0
  0
VERTEX
  5
7DE
330
7DC
100
AcDbEntity
  8
0
 62
     7
100
AcDbVertex
100
AcDb2dVertex
 10
150.8778840550443
 20
127.5382080192933
 30
0.0
  0
SEQEND
  5
7DF
330
7DC
100
AcDbEntity
  8
0
  0
SPLINE
  5
7E0
330
1F
100
AcDbEntity
  8
0
 62
     7
100
AcDbSpline
210
0.0
220
0.0
230
1.0
 70
    11
 71
     3
 72
    20
 73
    16
 74
     0
 42
0.0000000001
 43
0.0000000001
 40
0.0
 40
0.0
 40
0.0
 40
0.0
 40
1.0
 40
1.0
 40
1.0
 40
2.0
 40
2.0
 40
2.0
 40
3.0
 40
3.0
 40
3.0
 40
4.0
 40
4.0
 40
4.0
 40
5.0
 40
5.0
 40
5.0
 40
5.0
 10
152.9780156482977
 20
143.4214867225999
 30
0.0
 10
152.9783601580735
 20
143.7701306157056
 30
0.0
 10
152.6917280246111
 20
144.0529731416343
 30
0.0
 10
152.3382609946442
 20
144.0529731416343
 30
0.0
 10
151.9847939646774
 20
144.0533176514101
 30
0.0
 10
151.6978173214391
 20
143.7708196352572
 30
0.0
 10
151.6978173214391
 20
143.4221757421515
 30
0.0
 10
151.6974728116633
 20
143.0735318490457
 30
0.0
 10
151.9841049451258
 20
142.7906893231171
 30
0.0
 10
152.3375719750926
 20
142.7906893231171
 30
0.0
 10
152.6910390050595
 20
142.7903448133413
 30
0.0
 10
152.9780156482977
 20
143.0728428294941
 30
0.0
 10
152.9780156482977
 20
143.4214867225999
 30
0.0
 10
152.9780156482977
 20
143.4214867225999
 30
0.0
 10
152.9780156482977
 20
143.4214867225999
 30
0.0
 10
152.9780156482977
 20
143.4214867225999
 30
0.0
  0
POLYLINE
  5
7E1
330
1F
100
AcDbEntity
  8
0
 62
     7
100
AcDb2dPolyline
 66
     1
 10
0.0
 20
0.0
 30
0.0
  0
VERTEX
  5
7E2
330
7E1
100
AcDbEntity
  8
0
 62
     7
100
AcDbVertex
100
AcDb2dVertex
 10
20.82871653486057
 20
145.511972042131
 30
0.0
  0
VERTEX
  5
7E3
330
7E1
100
AcDbEntity
  8
0
 62
     7
100
AcDbVertex
100
AcDb2dVertex
 10
21.14411523460197
 20
144.328925472047
 30
0.0
  0
SEQEND
  5
7E4
330
7E1
100
AcDbEntity
  8
0
  0
POLYLINE
  5
7E5
330
1F
100
AcDbEntity
  8
0
 62
     7
100
AcDb2dPolyline
 66
     1
 10
0.0
 20
0.0
 30
0.0
  0
VERTEX
  5
7E6
330
7E5
100
AcDbEntity
  8
0
 62
     7
100
AcDbVertex
100
AcDb2dVertex
 10
108.8959227765231
 20
118.1778774109114
 30
0.0
  0
VERTEX
  5
7E7
330
7E5
100
AcDbEntity
  8
0
 62
     7
100
AcDbVertex
100
AcDb2dVertex
 10
117.0401338763445
 20
118.1778774109114
 30
0.0
  0
SEQEND
  5
7E8
330
7E5
100
AcDbEntity
  8
0
  0
POLYLINE
  5
7E9
330
1F
100
AcDbEntity
  8
0
 62
     7
100
AcDb2dPolyline
 66
     1
 10
0.0
 20
0.0
 30
0.0
  0
VERTEX
  5
7EA
330
7E9
100
AcDbEntity
  8
0
 62
     7
100
AcDbVertex
100
AcDb2dVertex
 10
117.0401338763445
 20
118.1871791748579
 30
0.0
  0
VERTEX
  5
7EB
330
7E9
100
AcDbEntity
  8
0
 62
     7
100
AcDbVertex
100
AcDb2dVertex
 10
117.0401338763445
 20
121.4727689066259
 30
0.0
  0
SEQEND
  5
7EC
330
7E9
100
AcDbEntity
  8
0
  0
POLYLINE
  5
7ED
330
1F
100
AcDbEntity
  8
0
 62
     7
100
AcDb2dPolyline
 66
     1
 10
0.0
 20
0.0
 30
0.0
  0
VERTEX
  5
7EE
330
7ED
100
AcDbEntity
  8
0
 62
     7
100
AcDbVertex
100
AcDb2dVertex
 10
108.8807643463881
 20
118.1871791748579
 30
0.0
  0
VERTEX
  5
7EF
330
7ED
100
AcDbEntity
  8
0
 62
     7
100
AcDbVertex
100
AcDb2dVertex
 10
108.8807643463881
 20
121.4727689066259
 30
0.0
  0
SEQEND
  5
7F0
330
7ED
100
AcDbEntity
  8
0
  0
POLYLINE
  5
7F1
330
1F
100
AcDbEntity
  8
0
 62
     7
100
AcDb2dPolyline
 66
     1
 10
0.0
 20
0.0
 30
0.0
  0
VERTEX
  5
7F2
330
7F1
100
AcDbEntity
  8
0
 62
     7
100
AcDbVertex
100
AcDb2dVertex
 10
108.8959227765231
 20
120.2349452821903
 30
0.0
  0
VERTEX
  5
7F3
330
7F1
100
AcDbEntity
  8
0
 62
     7
100
AcDbVertex
100
AcDb2dVertex
 10
117.0401338763445
 20
120.2349452821903
 30
0.0
  0
SEQEND
  5
7F4
330
7F1
100
AcDbEntity
  8
0
  0
POLYLINE
  5
7F5
330
1F
100
AcDbEntity
  8
0
 62
     7
100
AcDb2dPolyline
 66
     1
 10
0.0
 20
0.0
 30
0.0
  0
VERTEX
  5
7F6
330
7F5
100
AcDbEntity
  8
0
 62
     7
100
AcDbVertex
100
AcDb2dVertex
 10
25.00899815437128
 20
118.1778774109114
 30
0.0
  0
VERTEX
  5
7F7
330
7F5
100
AcDbEntity
  8
0
 62
     7
100
AcDbVertex
100
AcDb2dVertex
 10
33.15286474441692
 20
118.1778774109114
 30
0.0
  0
SEQEND
  5
7F8
330
7F5
100
AcDbEntity
  8
0
  0
POLYLINE
  5
7F9
330
1F
100
AcDbEntity
  8
0
 62
     7
100
AcDb2dPolyline
 66
     1
 10
0.0
 20
0.0
 30
0.0
  0
VERTEX
  5
7FA
330
7F9
100
AcDbEntity
  8
0
 62
     7
100
AcDbVertex
100
AcDb2dVertex
 10
33.15286474441692
 20
118.1871791748579
 30
0.0
  0
VERTEX
  5
7FB
330
7F9
100
AcDbEntity
  8
0
 62
     7
100
AcDbVertex
100
AcDb2dVertex
 10
33.15286474441692
 20
121.4727689066259
 30
0.0
  0
SEQEND
  5
7FC
330
7F9
100
AcDbEntity
  8
0
  0
POLYLINE
  5
7FD
330
1F
100
AcDbEntity
  8
0
 62
     7
100
AcDb2dPolyline
 66
     1
 10
0.0
 20
0.0
 30
0.0
  0
VERTEX
  5
7FE
330
7FD
100
AcDbEntity
  8
0
 62
     7
100
AcDbVertex
100
AcDb2dVertex
 10
24.99383972423625
 20
118.1871791748579
 30
0.0
  0
VERTEX
  5
7FF
330
7FD
100
AcDbEntity
  8
0
 62
     7
100
AcDbVertex
100
AcDb2dVertex
 10
24.99383972423625
 20
121.4727689066259
 30
0.0
  0
SEQEND
  5
800
330
7FD
100
AcDbEntity
  8
0
  0
POLYLINE
  5
801
330
1F
100
AcDbEntity
  8
0
 62
     7
100
AcDb2dPolyline
 66
     1
 10
0.0
 20
0.0
 30
0.0
  0
VERTEX
  5
802
330
801
100
AcDbEntity
  8
0
 62
     7
100
AcDbVertex
100
AcDb2dVertex
 10
25.00899815437128
 20
120.2349452821903
 30
0.0
  0
VERTEX
  5
803
330
801
100
AcDbEntity
  8
0
 62
     7
100
AcDbVertex
100
AcDb2dVertex
 10
33.15286474441692
 20
120.2349452821903
 30
0.0
  0
SEQEND
  5
804
330
801
100
AcDbEntity
  8
0
  0
ENDSEC
  0
SECTION
  2
OBJECTS
  0
DICTIONARY
  5
C
330
0
100
AcDbDictionary
  3
ACAD_GROUP
350
D
  3
ACAD_LAYOUT
350
1A
  3
ACAD_MLINESTYLE
350
17
  3
ACAD_PLOTSETTINGS
350
19
  3
ACAD_TABLESTYLE
350
805
  3
ACAD_VISUALSTYLE
350
2A
  3
ACDBHEADERROUNDTRIPXREC
350
806
  0
DICTIONARY
  5
826
330
29
100
AcDbDictionary
280
     1
  3
ACAD_XREC_ROUNDTRIP
360
827
  0
DICTIONARY
  5
D
102
{ACAD_REACTORS
330
C
102
}
330
C
100
AcDbDictionary
  0
DICTIONARY
  5
1A
102
{ACAD_REACTORS
330
C
102
}
330
C
100
AcDbDictionary
  0
DICTIONARY
  5
17
102
{ACAD_REACTORS
330
C
102
}
330
C
100
AcDbDictionary
  3
STANDARD
350
18
  0
DICTIONARY
  5
19
102
{ACAD_REACTORS
330
C
102
}
330
C
100
AcDbDictionary
  0
DICTIONARY
  5
805
102
{ACAD_REACTORS
330
C
102
}
330
C
100
AcDbDictionary
  0
DICTIONARY
  5
2A
102
{ACAD_REACTORS
330
C
102
}
330
C
100
AcDbDictionary
  3
2DWIREFRAME
350
2F
  3
3D_HIDDEN
350
31
  3
3DWIREFRAME
350
30
  3
BASIC
350
32
  3
BRIGHTEN
350
36
  3
COLORCHANGE
350
3A
  3
CONCEPTUAL
350
34
  3
DIM
350
35
  3
FACEPATTERN
350
39
  3
FLAT
350
2B
  3
FLATWITHEDGES
350
2C
  3
GOURAUD
350
2D
  3
GOURAUDWITHEDGES
350
2E
  3
LINEPATTERN
350
38
  3
REALISTIC
350
33
  3
THICKEN
350
37
  0
DICTIONARY
  5
806
102
{ACAD_REACTORS
330
C
102
}
330
C
100
AcDbDictionary
  3
CEPSNTYPE
350
80F
  3
DIMSTYLEDATA
350
825
  3
FINGERPRINTGUID
350
810
  3
HYPERLINKBASE
350
809
  3
INSUNITS
350
80E
  3
LAYOUTDICT
350
80B
  3
LWETCUNION
350
80D
  3
PLOTSETDICT
350
80C
  3
PSVPSCALE
350
812
  3
PUCSBASE
350
815
  3
PUCSORGBACK
350
81B
  3
PUCSORGBOTTOM
350
817
  3
PUCSORGFRONT
350
81A
  3
PUCSORGLEFT
350
818
  3
PUCSORGRIGHT
350
819
  3
PUCSORGTOP
350
816
  3
PUCSORTHOREF
350
813
  3
PUCSORTHOVIEW
350
814
  3
STYLESHEET
350
80A
  3
TSTACKALIGN
350
807
  3
TSTACKSIZE
350
808
  3
UCSBASE
350
81E
  3
UCSORGBACK
350
824
  3
UCSORGBOTTOM
350
820
  3
UCSORGFRONT
350
823
  3
UCSORGLEFT
350
821
  3
UCSORGRIGHT
350
822
  3
UCSORGTOP
350
81F
  3
UCSORTHOREF
350
81C
  3
UCSORTHOVIEW
350
81D
  3
VERSIONGUID
350
811
  0
XRECORD
  5
827
102
{ACAD_REACTORS
330
826
102
}
330
826
100
AcDbXrecord
102
UCS
 74
     0
 71
     1
 10
0.0
 20
0.0
 30
0.0
 10
1.0
 20
0.0
 30
0.0
 10
0.0
 20
1.0
 30
0.0
146
0.0
 79
     0
102
VIEW
281
     0
  0
MLINESTYLE
  5
18
102
{ACAD_REACTORS
330
17
102
}
330
17
100
AcDbMlineStyle
  2
Standard
 70
     0
  3

 62
   256
 51
90.0
 52
90.0
 71
     2
 49
0.5
 62
   256
  6
BYLAYER
 49
-0.5
 62
   256
  6
BYLAYER
  0
ACAD_PROXY_OBJECT_WRAPPER
  5
2F
102
{ACAD_REACTORS
330
2A
102
}
330
2A
100
AcDbVisualStyle
  2
2dWireframe
 70
     4
 71
     0
 72
     2
 73
     0
 90
        0
 40
-0.6
 41
-30.0
 62
     5
 63
     7
421
 16777215
 74
     1
 91
        4
 64
     7
 65
   257
 75
     1
175
     1
 42
1.0
 92
        0
 66
   257
 43
1.0
 76
     1
 77
     6
 78
     2
 67
     7
 79
     5
170
     0
171
     0
290
     0
174
     0
 93
        1
 44
0.0
173
     0
291
     0
 45
0.0
1001
ACAD
1000
AcDbSavedByObjectVersion
1070
     0
1000
AcadProxyRoundTripData
1071
      501
1071
       25
1070
     1
  0
ACAD_PROXY_OBJECT_WRAPPER
  5
31
102
{ACAD_REACTORS
330
2A
102
}
330
2A
100
AcDbVisualStyle
  2
3D Hidden
 70
     6
 71
     1
 72
     2
 73
     2
 90
        0
 40
-0.6
 41
-30.0
 62
     5
 63
     7
421
 16777215
 74
     2
 91
        2
 64
     7
 65
   257
 75
     2
175
     1
 42
40.0
 92
        0
 66
   257
 43
1.0
 76
     1
 77
     6
 78
     2
 67
     7
 79
     3
170
     0
171
     0
290
     0
174
     0
 93
        1
 44
0.0
173
     0
291
     0
 45
0.0
1001
ACAD
1000
AcDbSavedByObjectVersion
1070
     0
1000
AcadProxyRoundTripData
1071
      501
1071
       25
1070
     1
  0
ACAD_PROXY_OBJECT_WRAPPER
  5
30
102
{ACAD_REACTORS
330
2A
102
}
330
2A
100
AcDbVisualStyle
  2
3dWireframe
 70
     5
 71
     0
 72
     2
 73
     0
 90
        0
 40
-0.6
 41
-30.0
 62
     5
 63
     7
421
 16777215
 74
     1
 91
        4
 64
     7
 65
   257
 75
     1
175
     1
 42
1.0
 92
        0
 66
   257
 43
1.0
 76
     1
 77
     6
 78
     2
 67
     7
 79
     5
170
     0
171
     0
290
     0
174
     0
 93
        1
 44
0.0
173
     0
291
     0
 45
0.0
1001
ACAD
1000
AcDbSavedByObjectVersion
1070
     0
1000
AcadProxyRoundTripData
1071
      501
1071
       25
1070
     1
  0
ACAD_PROXY_OBJECT_WRAPPER
  5
32
102
{ACAD_REACTORS
330
2A
102
}
330
2A
100
AcDbVisualStyle
  2
Basic
 70
     7
 71
     1
 72
     0
 73
     1
 90
        0
 40
-0.6
 41
-30.0
 62
     5
 63
     7
421
 16777215
 74
     0
 91
        4
 64
     7
 65
   257
 75
     1
175
     1
 42
1.0
 92
        8
 66
     7
 43
1.0
 76
     1
 77
     6
 78
     2
 67
     7
 79
     5
170
     0
171
     0
290
     0
174
     0
 93
        1
 44
0.0
173
     0
291
     1
 45
0.0
1001
ACAD
1000
AcDbSavedByObjectVersion
1070
     0
1000
AcadProxyRoundTripData
1071
      501
1071
       25
1070
     1
  0
ACAD_PROXY_OBJECT_WRAPPER
  5
36
102
{ACAD_REACTORS
330
2A
102
}
330
2A
100
AcDbVisualStyle
  2
Brighten
 70
    12
 71
     2
 72
     2
 73
     0
 90
        0
 40
-0.6
 41
-30.0
 62
     5
 63
     7
421
 16777215
 74
     1
 91
        4
 64
     7
 65
   257
 75
     1
175
     1
 42
1.0
 92
        8
 66
     7
 43
1.0
 76
     1
 77
     6
 78
     2
 67
     7
 79
     5
170
     0
171
     0
290
     0
174
     0
 93
        1
 44
50.0
173
     0
291
     1
 45
0.0
1001
ACAD
1000
AcDbSavedByObjectVersion
1070
     0
1000
AcadProxyRoundTripData
1071
      501
1071
       25
1070
     1
  0
ACAD_PROXY_OBJECT_WRAPPER
  5
3A
102
{ACAD_REACTORS
330
2A
102
}
330
2A
100
AcDbVisualStyle
  2
ColorChange
 70
    16
 71
     2
 72
     2
 73
     3
 90
        0
 40
-0.6
 41
-30.0
 62
     5
 63
     8
421
  8421504
 74
     1
 91
        4
 64
     7
 65
   257
 75
     1
175
     1
 42
1.0
 92
        8
 66
     8
424
  8421504
 43
1.0
 76
     1
 77
     6
 78
     2
 67
     7
 79
     5
170
     0
171
     0
290
     0
174
     0
 93
        1
 44
0.0
173
     0
291
     1
 45
0.0
1001
ACAD
1000
AcDbSavedByObjectVersion
1070
     0
1000
AcadProxyRoundTripData
1071
      501
1071
       25
1070
     1
  0
ACAD_PROXY_OBJECT_WRAPPER
  5
34
102
{ACAD_REACTORS
330
2A
102
}
330
2A
100
AcDbVisualStyle
  2
Conceptual
 70
     9
 71
     3
 72
     2
 73
     0
 90
        0
 40
-0.6
 41
-30.0
 62
     5
 63
     7
421
 16777215
 74
     2
 91
        2
 64
     7
 65
   257
 75
     1
175
     1
 42
40.0
 92
        8
 66
     7
 43
1.0
 76
     1
 77
     6
 78
     2
 67
     7
 79
     3
170
     0
171
     0
290
     0
174
     0
 93
        1
 44
0.0
173
     0
291
     0
 45
0.0
1001
ACAD
1000
AcDbSavedByObjectVersion
1070
     0
1000
AcadProxyRoundTripData
1071
      501
1071
       25
1070
     1
  0
ACAD_PROXY_OBJECT_WRAPPER
  5
35
102
{ACAD_REACTORS
330
2A
102
}
330
2A
100
AcDbVisualStyle
  2
Dim
 70
    11
 71
     2
 72
     2
 73
     0
 90
        0
 40
-0.6
 41
-30.0
 62
     5
 63
     7
421
 16777215
 74
     1
 91
        4
 64
     7
 65
   257
 75
     1
175
     1
 42
1.0
 92
        8
 66
     7
 43
1.0
 76
     1
 77
     6
 78
     2
 67
     7
 79
     5
170
     0
171
     0
290
     0
174
     0
 93
        1
 44
-50.0
173
     0
291
     1
 45
0.0
1001
ACAD
1000
AcDbSavedByObjectVersion
1070
     0
1000
AcadProxyRoundTripData
1071
      501
1071
       25
1070
     1
  0
ACAD_PROXY_OBJECT_WRAPPER
  5
39
102
{ACAD_REACTORS
330
2A
102
}
330
2A
100
AcDbVisualStyle
  2
Facepattern
 70
    15
 71
     2
 72
     2
 73
     0
 90
        0
 40
-0.6
 41
-30.0
 62
     5
 63
     7
421
 16777215
 74
     1
 91
        4
 64
     7
 65
   257
 75
     1
175
     1
 42
1.0
 92
        8
 66
     7
 43
1.0
 76
     1
 77
     6
 78
     2
 67
     7
 79
     5
170
     0
171
     0
290
     0
174
     0
 93
        1
 44
0.0
173
     0
291
     1
 45
0.0
1001
ACAD
1000
AcDbSavedByObjectVersion
1070
     0
1000
AcadProxyRoundTripData
1071
      501
1071
       25
1070
     1
  0
ACAD_PROXY_OBJECT_WRAPPER
  5
2B
102
{ACAD_REACTORS
330
2A
102
}
330
2A
100
AcDbVisualStyle
  2
Flat
 70
     0
 71
     2
 72
     1
 73
     1
 90
        2
 40
-0.6
 41
30.0
 62
     5
 63
     7
421
 16777215
 74
     0
 91
        4
 64
     7
 65
   257
 75
     1
175
     1
 42
1.0
 92
        8
 66
     7
 43
1.0
 76
     1
 77
     6
 78
     2
 67
     7
 79
     5
170
     0
171
     0
290
     0
174
     0
 93
       13
 44
0.0
173
     0
291
     1
 45
0.0
1001
ACAD
1000
AcDbSavedByObjectVersion
1070
     0
1000
AcadProxyRoundTripData
1071
      501
1071
       25
1070
     1
  0
ACAD_PROXY_OBJECT_WRAPPER
  5
2C
102
{ACAD_REACTORS
330
2A
102
}
330
2A
100
AcDbVisualStyle
  2
FlatWithEdges
 70
     1
 71
     2
 72
     1
 73
     1
 90
        2
 40
-0.6
 41
30.0
 62
     5
 63
     7
421
 16777215
 74
     1
 91
        4
 64
     7
 65
   257
 75
     1
175
     1
 42
1.0
 92
        0
 66
   257
 43
1.0
 76
     1
 77
     6
 78
     2
 67
     7
 79
     5
170
     0
171
     0
290
     0
174
     0
 93
       13
 44
0.0
173
     0
291
     1
 45
0.0
1001
ACAD
1000
AcDbSavedByObjectVersion
1070
     0
1000
AcadProxyRoundTripData
1071
      501
1071
       25
1070
     1
  0
ACAD_PROXY_OBJECT_WRAPPER
  5
2D
102
{ACAD_REACTORS
330
2A
102
}
330
2A
100
AcDbVisualStyle
  2
Gouraud
 70
     2
 71
     2
 72
     2
 73
     1
 90
        2
 40
-0.6
 41
30.0
 62
     5
 63
     7
421
 16777215
 74
     0
 91
        4
 64
     7
 65
   257
 75
     1
175
     1
 42
1.0
 92
        0
 66
     7
 43
1.0
 76
     1
 77
     6
 78
     2
 67
     7
 79
     5
170
     0
171
     0
290
     0
174
     0
 93
       13
 44
0.0
173
     0
291
     1
 45
0.0
1001
ACAD
1000
AcDbSavedByObjectVersion
1070
     0
1000
AcadProxyRoundTripData
1071
      501
1071
       25
1070
     1
  0
ACAD_PROXY_OBJECT_WRAPPER
  5
2E
102
{ACAD_REACTORS
330
2A
102
}
330
2A
100
AcDbVisualStyle
  2
GouraudWithEdges
 70
     3
 71
     2
 72
     2
 73
     1
 90
        2
 40
-0.6
 41
30.0
 62
     5
 63
     7
421
 16777215
 74
     1
 91
        4
 64
     7
 65
   257
 75
     1
175
     1
 42
1.0
 92
        0
 66
   257
 43
1.0
 76
     1
 77
     6
 78
     2
 67
     7
 79
     5
170
     0
171
     0
290
     0
174
     0
 93
       13
 44
0.0
173
     0
291
     1
 45
0.0
1001
ACAD
1000
AcDbSavedByObjectVersion
1070
     0
1000
AcadProxyRoundTripData
1071
      501
1071
       25
1070
     1
  0
ACAD_PROXY_OBJECT_WRAPPER
  5
38
102
{ACAD_REACTORS
330
2A
102
}
330
2A
100
AcDbVisualStyle
  2
Linepattern
 70
    14
 71
     2
 72
     2
 73
     0
 90
        0
 40
-0.6
 41
-30.0
 62
     5
 63
     7
421
 16777215
 74
     1
 91
        4
 64
     7
 65
   257
 75
     7
175
     7
 42
1.0
 92
        8
 66
     7
 43
1.0
 76
     1
 77
     6
 78
     2
 67
     7
 79
     5
170
     0
171
     0
290
     0
174
     0
 93
        1
 44
0.0
173
     0
291
     1
 45
0.0
1001
ACAD
1000
AcDbSavedByObjectVersion
1070
     0
1000
AcadProxyRoundTripData
1071
      501
1071
       25
1070
     1
  0
ACAD_PROXY_OBJECT_WRAPPER
  5
33
102
{ACAD_REACTORS
330
2A
102
}
330
2A
100
AcDbVisualStyle
  2
Realistic
 70
     8
 71
     2
 72
     2
 73
     0
 90
        0
 40
-0.6
 41
-30.0
 62
     5
 63
     7
421
 16777215
 74
     1
 91
        0
 64
     7
 65
   257
 75
     1
175
     1
 42
1.0
 92
        8
 66
     8
424
  7895160
 43
1.0
 76
     1
 77
     6
 78
     2
 67
     7
 79
     5
170
     0
171
     0
290
     0
174
     0
 93
       13
 44
0.0
173
     0
291
     0
 45
0.0
1001
ACAD
1000
AcDbSavedByObjectVersion
1070
     0
1000
AcadProxyRoundTripData
1071
      501
1071
       25
1070
     1
  0
ACAD_PROXY_OBJECT_WRAPPER
  5
37
102
{ACAD_REACTORS
330
2A
102
}
330
2A
100
AcDbVisualStyle
  2
Thicken
 70
    13
 71
     2
 72
     2
 73
     0
 90
        0
 40
-0.6
 41
-30.0
 62
     5
 63
     7
421
 16777215
 74
     1
 91
        4
 64
     7
 65
   257
 75
     1
175
     1
 42
1.0
 92
       12
 66
     7
 43
1.0
 76
     1
 77
     6
 78
     2
 67
     7
 79
     5
170
     0
171
     0
290
     0
174
     0
 93
        1
 44
0.0
173
     0
291
     1
 45
0.0
1001
ACAD
1000
AcDbSavedByObjectVersion
1070
     0
1000
AcadProxyRoundTripData
1071
      501
1071
       25
1070
     1
  0
XRECORD
  5
80F
102
{ACAD_REACTORS
330
806
102
}
330
806
100
AcDbXrecord
 90
        0
  0
XRECORD
  5
825
102
{ACAD_REACTORS
330
806
102
}
330
806
100
AcDbXrecord
1000
DSTYLE
1002
{
1070
   340
340
11
1002
}
  0
XRECORD
  5
810
102
{ACAD_REACTORS
330
806
102
}
330
806
100
AcDbXrecord
  1
{8A242D6A-CD0C-40D5-A377-E73D46FC8D44}
  0
XRECORD
  5
809
102
{ACAD_REACTORS
330
806
102
}
330
806
100
AcDbXrecord
  1

  0
XRECORD
  5
80E
102
{ACAD_REACTORS
330
806
102
}
330
806
100
AcDbXrecord
 90
        1
  0
XRECORD
  5
80B
102
{ACAD_REACTORS
330
806
102
}
330
806
100
AcDbXrecord
340
1A
  0
XRECORD
  5
80D
102
{ACAD_REACTORS
330
806
102
}
330
806
100
AcDbXrecord
 90
    10269
  0
XRECORD
  5
80C
102
{ACAD_REACTORS
330
806
102
}
330
806
100
AcDbXrecord
340
19
  0
XRECORD
  5
812
102
{ACAD_REACTORS
330
806
102
}
330
806
100
AcDbXrecord
 40
0.0
  0
XRECORD
  5
815
102
{ACAD_REACTORS
330
806
102
}
330
806
100
AcDbXrecord
340
0
  0
XRECORD
  5
81B
102
{ACAD_REACTORS
330
806
102
}
330
806
100
AcDbXrecord
 10
0.0
 20
0.0
 30
0.0
  0
XRECORD
  5
817
102
{ACAD_REACTORS
330
806
102
}
330
806
100
AcDbXrecord
 10
0.0
 20
0.0
 30
0.0
  0
XRECORD
  5
81A
102
{ACAD_REACTORS
330
806
102
}
330
806
100
AcDbXrecord
 10
0.0
 20
0.0
 30
0.0
  0
XRECORD
  5
818
102
{ACAD_REACTORS
330
806
102
}
330
806
100
AcDbXrecord
 10
0.0
 20
0.0
 30
0.0
  0
XRECORD
  5
819
102
{ACAD_REACTORS
330
806
102
}
330
806
100
AcDbXrecord
 10
0.0
 20
0.0
 30
0.0
  0
XRECORD
  5
816
102
{ACAD_REACTORS
330
806
102
}
330
806
100
AcDbXrecord
 10
0.0
 20
0.0
 30
0.0
  0
XRECORD
  5
813
102
{ACAD_REACTORS
330
806
102
}
330
806
100
AcDbXrecord
340
0
  0
XRECORD
  5
814
102
{ACAD_REACTORS
330
806
102
}
330
806
100
AcDbXrecord
 70
     0
  0
XRECORD
  5
80A
102
{ACAD_REACTORS
330
806
102
}
330
806
100
AcDbXrecord
  1

  0
XRECORD
  5
807
102
{ACAD_REACTORS
330
806
102
}
330
806
100
AcDbXrecord
 90
        1
  0
XRECORD
  5
808
102
{ACAD_REACTORS
330
806
102
}
330
806
100
AcDbXrecord
 90
       70
  0
XRECORD
  5
81E
102
{ACAD_REACTORS
330
806
102
}
330
806
100
AcDbXrecord
340
0
  0
XRECORD
  5
824
102
{ACAD_REACTORS
330
806
102
}
330
806
100
AcDbXrecord
 10
0.0
 20
0.0
 30
0.0
  0
XRECORD
  5
820
102
{ACAD_REACTORS
330
806
102
}
330
806
100
AcDbXrecord
 10
0.0
 20
0.0
 30
0.0
  0
XRECORD
  5
823
102
{ACAD_REACTORS
330
806
102
}
330
806
100
AcDbXrecord
 10
0.0
 20
0.0
 30
0.0
  0
XRECORD
  5
821
102
{ACAD_REACTORS
330
806
102
}
330
806
100
AcDbXrecord
 10
0.0
 20
0.0
 30
0.0
  0
XRECORD
  5
822
102
{ACAD_REACTORS
330
806
102
}
330
806
100
AcDbXrecord
 10
0.0
 20
0.0
 30
0.0
  0
XRECORD
  5
81F
102
{ACAD_REACTORS
330
806
102
}
330
806
100
AcDbXrecord
 10
0.0
 20
0.0
 30
0.0
  0
XRECORD
  5
81C
102
{ACAD_REACTORS
330
806
102
}
330
806
100
AcDbXrecord
340
0
  0
XRECORD
  5
81D
102
{ACAD_REACTORS
330
806
102
}
330
806
100
AcDbXrecord
 70
     0
  0
XRECORD
  5
811
102
{ACAD_REACTORS
330
806
102
}
330
806
100
AcDbXrecord
  1
{FAEB1C32-E019-11D5-929B-00C0DF256EC4}
  0
ENDSEC
  0
EOF
