  0
SECTION
  2
HEADER
  9
$ACADVER
  1
AC1014
  9
$ACADMAINTVER
 70
     9
  9
$DWGCODEPAGE
  3
ASCII
  9
$INSBASE
 10
0.0
 20
0.0
 30
0.0
  9
$EXTMIN
 10
1.000000000000000E+20
 20
1.000000000000000E+20
 30
1.000000000000000E+20
  9
$EXTMAX
 10
-1.000000000000000E+20
 20
-1.000000000000000E+20
 30
-1.000000000000000E+20
  9
$LIMMIN
 10
0.0
 20
0.0
  9
$LIMMAX
 10
12.0
 20
9.0
  9
$ORTHOMODE
 70
     0
  9
$REGENMODE
 70
     1
  9
$FILLMODE
 70
     1
  9
$QTEXTMODE
 70
     0
  9
$MIRRTEXT
 70
     1
  9
$DRAGMODE
 70
     2
  9
$LTSCALE
 40
1.0
  9
$OSMODE
 70
    37
  9
$ATTMODE
 70
     1
  9
$TEXTSIZE
 40
0.2
  9
$TRACEWID
 40
0.05
  9
$TEXTSTYLE
  7
STANDARD
  9
$CLAYER
  8
0
  9
$CELTYPE
  6
BYLAYER
  9
$CECOLOR
 62
   256
  9
$CELTSCALE
 40
1.0
  9
$DELOBJ
 70
     1
  9
$DISPSILH
 70
     0
  9
$DIMSCALE
 40
1.0
  9
$DIMASZ
 40
0.18
  9
$DIMEXO
 40
0.0625
  9
$DIMDLI
 40
0.38
  9
$DIMRND
 40
0.0
  9
$DIMDLE
 40
0.0
  9
$DIMEXE
 40
0.18
  9
$DIMTP
 40
0.0
  9
$DIMTM
 40
0.0
  9
$DIMTXT
 40
0.18
  9
$DIMCEN
 40
0.09
  9
$DIMTSZ
 40
0.0
  9
$DIMTOL
 70
     0
  9
$DIMLIM
 70
     0
  9
$DIMTIH
 70
     1
  9
$DIMTOH
 70
     1
  9
$DIMSE1
 70
     0
  9
$DIMSE2
 70
     0
  9
$DIMTAD
 70
     0
  9
$DIMZIN
 70
     0
  9
$DIMBLK
  1

  9
$DIMASO
 70
     1
  9
$DIMSHO
 70
     1
  9
$DIMPOST
  1

  9
$DIMAPOST
  1

  9
$DIMALT
 70
     0
  9
$DIMALTD
 70
     2
  9
$DIMALTF
 40
25.4
  9
$DIMLFAC
 40
1.0
  9
$DIMTOFL
 70
     0
  9
$DIMTVP
 40
0.0
  9
$DIMTIX
 70
     0
  9
$DIMSOXD
 70
     0
  9
$DIMSAH
 70
     0
  9
$DIMBLK1
  1

  9
$DIMBLK2
  1

  9
$DIMSTYLE
  2
STANDARD
  9
$DIMCLRD
 70
     0
  9
$DIMCLRE
 70
     0
  9
$DIMCLRT
 70
     0
  9
$DIMTFAC
 40
1.0
  9
$DIMGAP
 40
0.09
  9
$DIMJUST
 70
     0
  9
$DIMSD1
 70
     0
  9
$DIMSD2
 70
     0
  9
$DIMTOLJ
 70
     1
  9
$DIMTZIN
 70
     0
  9
$DIMALTZ
 70
     0
  9
$DIMALTTZ
 70
     0
  9
$DIMFIT
 70
     3
  9
$DIMUPT
 70
     0
  9
$DIMUNIT
 70
     2
  9
$DIMDEC
 70
     4
  9
$DIMTDEC
 70
     4
  9
$DIMALTU
 70
     2
  9
$DIMALTTD
 70
     2
  9
$DIMTXSTY
  7
STANDARD
  9
$DIMAUNIT
 70
     0
  9
$LUNITS
 70
     2
  9
$LUPREC
 70
     4
  9
$SKETCHINC
 40
0.1
  9
$FILLETRAD
 40
0.5
  9
$AUNITS
 70
     0
  9
$AUPREC
 70
     0
  9
$MENU
  1
.
  9
$ELEVATION
 40
0.0
  9
$PELEVATION
 40
0.0
  9
$THICKNESS
 40
0.0
  9
$LIMCHECK
 70
     0
  9
$CHAMFERA
 40
0.5
  9
$CHAMFERB
 40
0.5
  9
$CHAMFERC
 40
1.0
  9
$CHAMFERD
 40
0.0
  9
$SKPOLY
 70
     0
  9
$TDCREATE
 40
2456674.769772697
  9
$TDUPDATE
 40
2456674.769772708
  9
$TDINDWG
 40
0.0000000116
  9
$TDUSRTIMER
 40
0.0000000116
  9
$USRTIMER
 70
     1
  9
$ANGBASE
 50
0.0
  9
$ANGDIR
 70
     0
  9
$PDMODE
 70
     0
  9
$PDSIZE
 40
0.0
  9
$PLINEWID
 40
0.0
  9
$COORDS
 70
     1
  9
$SPLFRAME
 70
     0
  9
$SPLINETYPE
 70
     6
  9
$SPLINESEGS
 70
     8
  9
$ATTDIA
 70
     0
  9
$ATTREQ
 70
     1
  9
$HANDLING
 70
     1
  9
$HANDSEED
  5
181
  9
$SURFTAB1
 70
     6
  9
$SURFTAB2
 70
     6
  9
$SURFTYPE
 70
     6
  9
$SURFU
 70
     6
  9
$SURFV
 70
     6
  9
$UCSNAME
  2

  9
$UCSORG
 10
0.0
 20
0.0
 30
0.0
  9
$UCSXDIR
 10
1.0
 20
0.0
 30
0.0
  9
$UCSYDIR
 10
0.0
 20
1.0
 30
0.0
  9
$PUCSNAME
  2

  9
$PUCSORG
 10
0.0
 20
0.0
 30
0.0
  9
$PUCSXDIR
 10
1.0
 20
0.0
 30
0.0
  9
$PUCSYDIR
 10
0.0
 20
1.0
 30
0.0
  9
$USERI1
 70
     0
  9
$USERI2
 70
     0
  9
$USERI3
 70
     0
  9
$USERI4
 70
     0
  9
$USERI5
 70
     0
  9
$USERR1
 40
0.0
  9
$USERR2
 40
0.0
  9
$USERR3
 40
0.0
  9
$USERR4
 40
0.0
  9
$USERR5
 40
0.0
  9
$WORLDVIEW
 70
     1
  9
$SHADEDGE
 70
     3
  9
$SHADEDIF
 70
    70
  9
$TILEMODE
 70
     1
  9
$MAXACTVP
 70
    64
  9
$PINSBASE
 10
0.0
 20
0.0
 30
0.0
  9
$PLIMCHECK
 70
     0
  9
$PEXTMIN
 10
1.000000000000000E+20
 20
1.000000000000000E+20
 30
1.000000000000000E+20
  9
$PEXTMAX
 10
-1.000000000000000E+20
 20
-1.000000000000000E+20
 30
-1.000000000000000E+20
  9
$PLIMMIN
 10
0.0
 20
0.0
  9
$PLIMMAX
 10
12.0
 20
9.0
  9
$UNITMODE
 70
     0
  9
$VISRETAIN
 70
     1
  9
$PLINEGEN
 70
     0
  9
$PSLTSCALE
 70
     1
  9
$TREEDEPTH
 70
  3020
  9
$PICKSTYLE
 70
     1
  9
$CMLSTYLE
  2
STANDARD
  9
$CMLJUST
 70
     0
  9
$CMLSCALE
 40
1.0
  9
$PROXYGRAPHICS
 70
     1
  9
$MEASUREMENT
 70
     0
  0
ENDSEC
  0
SECTION
  2
CLASSES
  0
CLASS
  1
ACDBDICTIONARYWDFLT
  2
AcDbDictionaryWithDefault
  3
ObjectDBX Classes
 90
        0
280
     0
281
     0
  0
CLASS
  1
VISUALSTYLE
  2
AcDbVisualStyle
  3
ObjectDBX Classes
 90
     4095
280
     1
281
     0
  0
CLASS
  1
ACAD_PROXY_OBJECT_WRAPPER
  2
AcDbProxyObjectWrapper
  3
AutoCAD 2000
 90
        0
280
     0
281
     0
  0
CLASS
  1
XRECORD
  2
AcDbXrecord
  3
AutoCAD 2000
 90
        0
280
     0
281
     0
  0
CLASS
  1
LWPOLYLINE
  2
AcDbPolyline
  3
AutoCAD 2000
 90
        0
280
     0
281
     1
  0
CLASS
  1
HATCH
  2
AcDbHatch
  3
AutoCAD 2000
 90
        0
280
     0
281
     1
  0
CLASS
  1
ACDBPLACEHOLDER
  2
AcDbPlaceHolder
  3
ObjectDBX Classes
 90
        0
280
     0
281
     0
  0
CLASS
  1
LAYOUT
  2
AcDbLayout
  3
ObjectDBX Classes
 90
        0
280
     0
281
     0
  0
ENDSEC
  0
SECTION
  2
TABLES
  0
TABLE
  2
VPORT
  5
8
330
0
100
AcDbSymbolTable
 70
     1
  0
VPORT
  5
29
102
{ACAD_XDICTIONARY
360
17F
102
}
330
8
100
AcDbSymbolTableRecord
100
AcDbViewportTableRecord
  2
*ACTIVE
 70
     0
 10
0.0
 20
0.0
 11
1.0
 21
1.0
 12
0.0
 22
0.0
 13
0.0
 23
0.0
 14
0.5
 24
0.5
 15
0.5
 25
0.5
 16
0.0
 26
0.0
 36
1.0
 17
105.0008091239277
 27
148.5001637099431
 37
0.0
 40
297.0003274198861
 41
0.7070753762199199
 42
50.0
 43
0.0
 44
0.0
 50
0.0
 51
0.0
 71
     0
 72
   100
 73
     1
 74
     3
 75
     0
 76
     0
 77
     0
 78
     0
  0
ENDTAB
  0
TABLE
  2
LTYPE
  5
5
330
0
100
AcDbSymbolTable
 70
    12
  0
LTYPE
  5
14
330
5
100
AcDbSymbolTableRecord
100
AcDbLinetypeTableRecord
  2
BYBLOCK
 70
     0
  3

 72
    65
 73
     0
 40
0.0
  0
LTYPE
  5
15
330
5
100
AcDbSymbolTableRecord
100
AcDbLinetypeTableRecord
  2
BYLAYER
 70
     0
  3

 72
    65
 73
     0
 40
0.0
  0
LTYPE
  5
16
330
5
100
AcDbSymbolTableRecord
100
AcDbLinetypeTableRecord
  2
CONTINUOUS
 70
     0
  3
Solid line
 72
    65
 73
     0
 40
0.0
  0
LTYPE
  5
3C
330
5
100
AcDbSymbolTableRecord
100
AcDbLinetypeTableRecord
  2
AI-LINETYPE-1
 70
     0
  3
Adobe Illustrator Linetype No. 1
 72
    65
 73
     2
 40
2.009247626638186
 49
1.339498081323463
 74
     0
 49
-0.6697495453147233
 74
     0
  0
LTYPE
  5
41
330
5
100
AcDbSymbolTableRecord
100
AcDbLinetypeTableRecord
  2
AI-LINETYPE-2
 70
     0
  3
Adobe Illustrator Linetype No. 2
 72
    65
 73
     2
 40
2.009247626638186
 49
1.339498081323463
 74
     0
 49
-0.6697495453147233
 74
     0
  0
LTYPE
  5
46
330
5
100
AcDbSymbolTableRecord
100
AcDbLinetypeTableRecord
  2
AI-LINETYPE-3
 70
     0
  3
Adobe Illustrator Linetype No. 3
 72
    65
 73
     2
 40
2.009247626638186
 49
1.339498081323463
 74
     0
 49
-0.6697495453147233
 74
     0
  0
LTYPE
  5
138
330
5
100
AcDbSymbolTableRecord
100
AcDbLinetypeTableRecord
  2
AI-LINETYPE-4
 70
     0
  3
Adobe Illustrator Linetype No. 4
 72
    65
 73
     4
 40
37.13878195558424
 49
23.21173910072989
 74
     0
 49
-4.642347618284782
 74
     0
 49
4.642347618284782
 74
     0
 49
-4.642347618284782
 74
     0
  0
LTYPE
  5
13D
330
5
100
AcDbSymbolTableRecord
100
AcDbLinetypeTableRecord
  2
AI-LINETYPE-5
 70
     0
  3
Adobe Illustrator Linetype No. 5
 72
    65
 73
     4
 40
37.13878195558424
 49
23.21173910072989
 74
     0
 49
-4.642347618284782
 74
     0
 49
4.642347618284782
 74
     0
 49
-4.642347618284782
 74
     0
  0
LTYPE
  5
142
330
5
100
AcDbSymbolTableRecord
100
AcDbLinetypeTableRecord
  2
AI-LINETYPE-6
 70
     0
  3
Adobe Illustrator Linetype No. 6
 72
    65
 73
     4
 40
37.13878195558424
 49
23.21173910072989
 74
     0
 49
-4.642347618284782
 74
     0
 49
4.642347618284782
 74
     0
 49
-4.642347618284782
 74
     0
  0
LTYPE
  5
147
330
5
100
AcDbSymbolTableRecord
100
AcDbLinetypeTableRecord
  2
AI-LINETYPE-7
 70
     0
  3
Adobe Illustrator Linetype No. 7
 72
    65
 73
     4
 40
37.13878195558424
 49
23.21173910072989
 74
     0
 49
-4.642347618284782
 74
     0
 49
4.642347618284782
 74
     0
 49
-4.642347618284782
 74
     0
  0
LTYPE
  5
14C
330
5
100
AcDbSymbolTableRecord
100
AcDbLinetypeTableRecord
  2
AI-LINETYPE-8
 70
     0
  3
Adobe Illustrator Linetype No. 8
 72
    65
 73
     4
 40
37.13878195558424
 49
23.21173910072989
 74
     0
 49
-4.642347618284782
 74
     0
 49
4.642347618284782
 74
     0
 49
-4.642347618284782
 74
     0
  0
LTYPE
  5
151
330
5
100
AcDbSymbolTableRecord
100
AcDbLinetypeTableRecord
  2
AI-LINETYPE-9
 70
     0
  3
Adobe Illustrator Linetype No. 9
 72
    65
 73
     4
 40
37.13878195558424
 49
23.21173910072989
 74
     0
 49
-4.642347618284782
 74
     0
 49
4.642347618284782
 74
     0
 49
-4.642347618284782
 74
     0
  0
LTYPE
  5
156
330
5
100
AcDbSymbolTableRecord
100
AcDbLinetypeTableRecord
  2
AI-LINETYPE-10
 70
     0
  3
Adobe Illustrator Linetype No. 10
 72
    65
 73
     4
 40
37.13878195558424
 49
23.21173910072989
 74
     0
 49
-4.642347618284782
 74
     0
 49
4.642347618284782
 74
     0
 49
-4.642347618284782
 74
     0
  0
LTYPE
  5
15B
330
5
100
AcDbSymbolTableRecord
100
AcDbLinetypeTableRecord
  2
AI-LINETYPE-11
 70
     0
  3
Adobe Illustrator Linetype No. 11
 72
    65
 73
     4
 40
37.13878195558424
 49
23.21173910072989
 74
     0
 49
-4.642347618284782
 74
     0
 49
4.642347618284782
 74
     0
 49
-4.642347618284782
 74
     0
  0
ENDTAB
  0
TABLE
  2
LAYER
  5
2
330
0
100
AcDbSymbolTable
 70
     1
  0
LAYER
  5
10
330
2
100
AcDbSymbolTableRecord
100
AcDbLayerTableRecord
  2
0
 70
     0
 62
     7
  6
CONTINUOUS
  0
ENDTAB
  0
TABLE
  2
STYLE
  5
3
330
0
100
AcDbSymbolTable
 70
     1
  0
STYLE
  5
11
330
3
100
AcDbSymbolTableRecord
100
AcDbTextStyleTableRecord
  2
STANDARD
 70
     0
 40
0.0
 41
1.0
 50
0.0
 71
     0
 42
0.2
  3
txt
  4

  0
ENDTAB
  0
TABLE
  2
VIEW
  5
6
330
0
100
AcDbSymbolTable
 70
     0
  0
ENDTAB
  0
TABLE
  2
UCS
  5
7
330
0
100
AcDbSymbolTable
 70
     0
  0
ENDTAB
  0
TABLE
  2
APPID
  5
9
330
0
100
AcDbSymbolTable
 70
     1
  0
APPID
  5
12
330
9
100
AcDbSymbolTableRecord
100
AcDbRegAppTableRecord
  2
ACAD
 70
     0
  0
ENDTAB
  0
TABLE
  2
DIMSTYLE
  5
A
330
0
100
AcDbSymbolTable
 70
     1
  0
DIMSTYLE
105
27
330
A
100
AcDbSymbolTableRecord
100
AcDbDimStyleTableRecord
  2
STANDARD
 70
     0
  3

  4

  5

  6

  7

 40
1.0
 41
0.18
 42
0.0625
 43
0.38
 44
0.18
 45
0.0
 46
0.0
 47
0.0
 48
0.0
140
0.18
141
0.09
142
0.0
143
25.4
144
1.0
145
0.0
146
1.0
147
0.09
 71
     0
 72
     0
 73
     1
 74
     1
 75
     0
 76
     0
 77
     0
 78
     0
170
     0
171
     2
172
     0
173
     0
174
     0
175
     0
176
     0
177
     0
178
     0
270
     2
271
     4
272
     4
273
     2
274
     2
340
11
275
     0
280
     0
281
     0
282
     0
283
     1
284
     0
285
     0
286
     0
287
     3
288
     0
  0
ENDTAB
  0
TABLE
  2
BLOCK_RECORD
  5
1
330
0
100
AcDbSymbolTable
 70
     1
  0
BLOCK_RECORD
  5
1F
330
1
100
AcDbSymbolTableRecord
100
AcDbBlockTableRecord
  2
*MODEL_SPACE
  0
BLOCK_RECORD
  5
1B
330
1
100
AcDbSymbolTableRecord
100
AcDbBlockTableRecord
  2
*PAPER_SPACE
  0
ENDTAB
  0
ENDSEC
  0
SECTION
  2
BLOCKS
  0
BLOCK
  5
20
330
1F
100
AcDbEntity
  8
0
100
AcDbBlockBegin
  2
*MODEL_SPACE
 70
     0
 71
     0
 10
0.0
 20
0.0
 30
0.0
  3
*MODEL_SPACE
  1

  0
ENDBLK
  5
21
330
1F
100
AcDbEntity
  8
0
100
AcDbBlockEnd
  0
BLOCK
  5
1C
330
1B
100
AcDbEntity
 67
     1
  8
0
100
AcDbBlockBegin
  2
*PAPER_SPACE
 70
     0
 71
     0
 10
0.0
 20
0.0
 30
0.0
  3
*PAPER_SPACE
  1

  0
ENDBLK
  5
1D
330
1B
100
AcDbEntity
 67
     1
  8
0
100
AcDbBlockEnd
  0
ENDSEC
  0
SECTION
  2
ENTITIES
  0
SPLINE
  5
3B
330
1F
100
AcDbEntity
  8
0
  6
AI-LINETYPE-1
 62
     7
100
AcDbSpline
210
0.0
220
0.0
230
1.0
 70
     8
 71
     3
 72
     8
 73
     4
 74
     0
 42
0.0000000001
 43
0.0000000001
 40
0.0
 40
0.0
 40
0.0
 40
0.0
 40
1.0
 40
1.0
 40
1.0
 40
1.0
 10
84.12480862233909
 20
152.4211155957232
 30
0.0
 10
83.94635255847666
 20
152.4211155957232
 30
0.0
 10
83.80183070753017
 20
152.5553021533958
 30
0.0
 10
83.80183070753017
 20
152.7210113555537
 30
0.0
  0
POLYLINE
  5
3D
330
1F
100
AcDbEntity
  8
0
  6
AI-LINETYPE-2
 62
     7
100
AcDb2dPolyline
 66
     1
 10
0.0
 20
0.0
 30
0.0
  0
VERTEX
  5
3E
330
3D
100
AcDbEntity
  8
0
  6
AI-LINETYPE-2
 62
     7
100
AcDbVertex
100
AcDb2dVertex
 10
83.80183070753017
 20
153.0209071153843
 30
0.0
  0
VERTEX
  5
3F
330
3D
100
AcDbEntity
  8
0
  6
AI-LINETYPE-2
 62
     7
100
AcDbVertex
100
AcDb2dVertex
 10
83.80183070753017
 20
152.7210113555537
 30
0.0
  0
SEQEND
  5
40
330
3D
100
AcDbEntity
  8
0
  6
AI-LINETYPE-2
  0
POLYLINE
  5
42
330
1F
100
AcDbEntity
  8
0
  6
AI-LINETYPE-3
 62
     7
100
AcDb2dPolyline
 66
     1
 10
0.0
 20
0.0
 30
0.0
  0
VERTEX
  5
43
330
42
100
AcDbEntity
  8
0
  6
AI-LINETYPE-3
 62
     7
100
AcDbVertex
100
AcDb2dVertex
 10
84.12480862233909
 20
152.4211155957232
 30
0.0
  0
VERTEX
  5
44
330
42
100
AcDbEntity
  8
0
  6
AI-LINETYPE-3
 62
     7
100
AcDbVertex
100
AcDb2dVertex
 10
85.9572561197989
 20
152.4211155957232
 30
0.0
  0
SEQEND
  5
45
330
42
100
AcDbEntity
  8
0
  6
AI-LINETYPE-3
  0
POLYLINE
  5
47
330
1F
100
AcDbEntity
  8
0
 62
     7
100
AcDb2dPolyline
 66
     1
 10
0.0
 20
0.0
 30
0.0
  0
VERTEX
  5
48
330
47
100
AcDbEntity
  8
0
 62
     7
100
AcDbVertex
100
AcDb2dVertex
 10
91.88454681237199
 20
149.9573539341169
 30
0.0
  0
VERTEX
  5
49
330
47
100
AcDbEntity
  8
0
 62
     7
100
AcDbVertex
100
AcDb2dVertex
 10
95.91100481698972
 20
144.0436713776878
 30
0.0
  0
SEQEND
  5
4A
330
47
100
AcDbEntity
  8
0
  0
POLYLINE
  5
4B
330
1F
100
AcDbEntity
  8
0
 62
     7
100
AcDb2dPolyline
 66
     1
 10
0.0
 20
0.0
 30
0.0
  0
VERTEX
  5
4C
330
4B
100
AcDbEntity
  8
0
 62
     7
100
AcDbVertex
100
AcDb2dVertex
 10
91.88454681237199
 20
142.7014612911859
 30
0.0
  0
VERTEX
  5
4D
330
4B
100
AcDbEntity
  8
0
 62
     7
100
AcDbVertex
100
AcDb2dVertex
 10
95.91100481698972
 20
148.1646973157615
 30
0.0
  0
SEQEND
  5
4E
330
4B
100
AcDbEntity
  8
0
  0
POLYLINE
  5
4F
330
1F
100
AcDbEntity
  8
0
 62
     7
100
AcDb2dPolyline
 66
     1
 10
0.0
 20
0.0
 30
0.0
  0
VERTEX
  5
50
330
4F
100
AcDbEntity
  8
0
 62
     7
100
AcDbVertex
100
AcDb2dVertex
 10
97.27319647048776
 20
151.6714623235907
 30
0.0
  0
VERTEX
  5
51
330
4F
100
AcDbEntity
  8
0
 62
     7
100
AcDbVertex
100
AcDb2dVertex
 10
97.27319647048776
 20
130.4320901359811
 30
0.0
  0
SEQEND
  5
52
330
4F
100
AcDbEntity
  8
0
  0
POLYLINE
  5
53
330
1F
100
AcDbEntity
  8
0
 62
     7
100
AcDb2dPolyline
 66
     1
 10
0.0
 20
0.0
 30
0.0
  0
VERTEX
  5
54
330
53
100
AcDbEntity
  8
0
 62
     7
100
AcDbVertex
100
AcDb2dVertex
 10
97.27319647048776
 20
130.4320901359811
 30
0.0
  0
VERTEX
  5
55
330
53
100
AcDbEntity
  8
0
 62
     7
100
AcDbVertex
100
AcDb2dVertex
 10
89.94478451975166
 20
130.4320901359811
 30
0.0
  0
SEQEND
  5
56
330
53
100
AcDbEntity
  8
0
  0
POLYLINE
  5
57
330
1F
100
AcDbEntity
  8
0
 62
     7
100
AcDb2dPolyline
 66
     1
 10
0.0
 20
0.0
 30
0.0
  0
VERTEX
  5
58
330
57
100
AcDbEntity
  8
0
 62
     7
100
AcDbVertex
100
AcDb2dVertex
 10
89.94478451975166
 20
152.4211155957232
 30
0.0
  0
VERTEX
  5
59
330
57
100
AcDbEntity
  8
0
 62
     7
100
AcDbVertex
100
AcDb2dVertex
 10
89.94478451975166
 20
129.6331719659098
 30
0.0
  0
SEQEND
  5
5A
330
57
100
AcDbEntity
  8
0
  0
POLYLINE
  5
5B
330
1F
100
AcDbEntity
  8
0
 62
     7
100
AcDb2dPolyline
 66
     1
 10
0.0
 20
0.0
 30
0.0
  0
VERTEX
  5
5C
330
5B
100
AcDbEntity
  8
0
 62
     7
100
AcDbVertex
100
AcDb2dVertex
 10
89.94478451975166
 20
129.6331719659098
 30
0.0
  0
VERTEX
  5
5D
330
5B
100
AcDbEntity
  8
0
 62
     7
100
AcDbVertex
100
AcDb2dVertex
 10
84.12480862233909
 20
129.6331719659098
 30
0.0
  0
SEQEND
  5
5E
330
5B
100
AcDbEntity
  8
0
  0
SPLINE
  5
5F
330
1F
100
AcDbEntity
  8
0
 62
     7
100
AcDbSpline
210
0.0
220
0.0
230
1.0
 70
     8
 71
     3
 72
     8
 73
     4
 74
     0
 42
0.0000000001
 43
0.0000000001
 40
0.0
 40
0.0
 40
0.0
 40
0.0
 40
1.0
 40
1.0
 40
1.0
 40
1.0
 10
83.80183070753017
 20
129.3331039511913
 30
0.0
 10
83.80183070753017
 20
129.4988131533493
 30
0.0
 10
83.94635255847666
 20
129.6331719659098
 30
0.0
 10
84.12480862233909
 20
129.6331719659098
 30
0.0
  0
POLYLINE
  5
60
330
1F
100
AcDbEntity
  8
0
 62
     7
100
AcDb2dPolyline
 66
     1
 10
0.0
 20
0.0
 30
0.0
  0
VERTEX
  5
61
330
60
100
AcDbEntity
  8
0
 62
     7
100
AcDbVertex
100
AcDb2dVertex
 10
83.80183070753017
 20
156.0191756941384
 30
0.0
  0
VERTEX
  5
62
330
60
100
AcDbEntity
  8
0
 62
     7
100
AcDbVertex
100
AcDb2dVertex
 10
83.80183070753017
 20
126.0351118674946
 30
0.0
  0
SEQEND
  5
63
330
60
100
AcDbEntity
  8
0
  0
POLYLINE
  5
64
330
1F
100
AcDbEntity
  8
0
 62
     7
100
AcDb2dPolyline
 66
     1
 10
0.0
 20
0.0
 30
0.0
  0
VERTEX
  5
65
330
64
100
AcDbEntity
  8
0
 62
     7
100
AcDbVertex
100
AcDb2dVertex
 10
83.80183070753017
 20
126.0351118674946
 30
0.0
  0
VERTEX
  5
66
330
64
100
AcDbEntity
  8
0
 62
     7
100
AcDbVertex
100
AcDb2dVertex
 10
80.56843420679523
 20
126.0351118674946
 30
0.0
  0
SEQEND
  5
67
330
64
100
AcDbEntity
  8
0
  0
POLYLINE
  5
68
330
1F
100
AcDbEntity
  8
0
 62
     7
100
AcDb2dPolyline
 66
     1
 10
0.0
 20
0.0
 30
0.0
  0
VERTEX
  5
69
330
68
100
AcDbEntity
  8
0
 62
     7
100
AcDbVertex
100
AcDb2dVertex
 10
80.56843420679523
 20
126.0351118674946
 30
0.0
  0
VERTEX
  5
6A
330
68
100
AcDbEntity
  8
0
 62
     7
100
AcDbVertex
100
AcDb2dVertex
 10
80.56843420679523
 20
156.0191756941384
 30
0.0
  0
SEQEND
  5
6B
330
68
100
AcDbEntity
  8
0
  0
POLYLINE
  5
6C
330
1F
100
AcDbEntity
  8
0
 62
     7
100
AcDb2dPolyline
 66
     1
 10
0.0
 20
0.0
 30
0.0
  0
VERTEX
  5
6D
330
6C
100
AcDbEntity
  8
0
 62
     7
100
AcDbVertex
100
AcDb2dVertex
 10
78.9516498289838
 20
131.0322261654181
 30
0.0
  0
VERTEX
  5
6E
330
6C
100
AcDbEntity
  8
0
 62
     7
100
AcDbVertex
100
AcDb2dVertex
 10
70.8687614692541
 20
131.0322261654181
 30
0.0
  0
SEQEND
  5
6F
330
6C
100
AcDbEntity
  8
0
  0
POLYLINE
  5
70
330
1F
100
AcDbEntity
  8
0
 62
     7
100
AcDb2dPolyline
 66
     1
 10
0.0
 20
0.0
 30
0.0
  0
VERTEX
  5
71
330
70
100
AcDbEntity
  8
0
 62
     7
100
AcDbVertex
100
AcDb2dVertex
 10
70.8687614692541
 20
131.0322261654181
 30
0.0
  0
VERTEX
  5
72
330
70
100
AcDbEntity
  8
0
 62
     7
100
AcDbVertex
100
AcDb2dVertex
 10
70.8687614692541
 20
151.022061396215
 30
0.0
  0
SEQEND
  5
73
330
70
100
AcDbEntity
  8
0
  0
POLYLINE
  5
74
330
1F
100
AcDbEntity
  8
0
 62
     7
100
AcDb2dPolyline
 66
     1
 10
0.0
 20
0.0
 30
0.0
  0
VERTEX
  5
75
330
74
100
AcDbEntity
  8
0
 62
     7
100
AcDbVertex
100
AcDb2dVertex
 10
70.8687614692541
 20
151.022061396215
 30
0.0
  0
VERTEX
  5
76
330
74
100
AcDbEntity
  8
0
 62
     7
100
AcDbVertex
100
AcDb2dVertex
 10
78.9516498289838
 20
151.022061396215
 30
0.0
  0
SEQEND
  5
77
330
74
100
AcDbEntity
  8
0
  0
POLYLINE
  5
78
330
1F
100
AcDbEntity
  8
0
 62
     7
100
AcDb2dPolyline
 66
     1
 10
0.0
 20
0.0
 30
0.0
  0
VERTEX
  5
79
330
78
100
AcDbEntity
  8
0
 62
     7
100
AcDbVertex
100
AcDb2dVertex
 10
80.56843420679523
 20
156.0191756941384
 30
0.0
  0
VERTEX
  5
7A
330
78
100
AcDbEntity
  8
0
 62
     7
100
AcDbVertex
100
AcDb2dVertex
 10
83.80183070753017
 20
156.0191756941384
 30
0.0
  0
SEQEND
  5
7B
330
78
100
AcDbEntity
  8
0
  0
POLYLINE
  5
7C
330
1F
100
AcDbEntity
  8
0
 62
     7
100
AcDb2dPolyline
 66
     1
 10
0.0
 20
0.0
 30
0.0
  0
VERTEX
  5
7D
330
7C
100
AcDbEntity
  8
0
 62
     7
100
AcDbVertex
100
AcDb2dVertex
 10
85.9572561197989
 20
152.4211155957232
 30
0.0
  0
VERTEX
  5
7E
330
7C
100
AcDbEntity
  8
0
 62
     7
100
AcDbVertex
100
AcDb2dVertex
 10
89.94478451975166
 20
152.4211155957232
 30
0.0
  0
SEQEND
  5
7F
330
7C
100
AcDbEntity
  8
0
  0
POLYLINE
  5
80
330
1F
100
AcDbEntity
  8
0
 62
     7
100
AcDb2dPolyline
 66
     1
 10
0.0
 20
0.0
 30
0.0
  0
VERTEX
  5
81
330
80
100
AcDbEntity
  8
0
 62
     7
100
AcDbVertex
100
AcDb2dVertex
 10
89.94478451975166
 20
151.8214963309499
 30
0.0
  0
VERTEX
  5
82
330
80
100
AcDbEntity
  8
0
 62
     7
100
AcDbVertex
100
AcDb2dVertex
 10
91.88454681237199
 20
151.8214963309499
 30
0.0
  0
SEQEND
  5
83
330
80
100
AcDbEntity
  8
0
  0
SPLINE
  5
84
330
1F
100
AcDbEntity
  8
0
 62
     7
100
AcDbSpline
210
0.0
220
0.0
230
1.0
 70
     8
 71
     3
 72
     8
 73
     4
 74
     0
 42
0.0000000001
 43
0.0000000001
 40
0.0
 40
0.0
 40
0.0
 40
0.0
 40
1.0
 40
1.0
 40
1.0
 40
1.0
 10
91.88454681237199
 20
152.2212999257614
 30
0.0
 10
91.88454681237199
 20
152.330165014913
 30
0.0
 10
91.97842572627644
 20
152.4190485370684
 30
0.0
 10
92.09555905004714
 20
152.4211155957232
 30
0.0
  0
POLYLINE
  5
85
330
1F
100
AcDbEntity
  8
0
 62
     7
100
AcDb2dPolyline
 66
     1
 10
0.0
 20
0.0
 30
0.0
  0
VERTEX
  5
86
330
85
100
AcDbEntity
  8
0
 62
     7
100
AcDbVertex
100
AcDb2dVertex
 10
91.88454681237199
 20
152.2212999257614
 30
0.0
  0
VERTEX
  5
87
330
85
100
AcDbEntity
  8
0
 62
     7
100
AcDbVertex
100
AcDb2dVertex
 10
91.88454681237199
 20
130.4320901359811
 30
0.0
  0
SEQEND
  5
88
330
85
100
AcDbEntity
  8
0
  0
SPLINE
  5
89
330
1F
100
AcDbEntity
  8
0
 62
     7
100
AcDbSpline
210
0.0
220
0.0
230
1.0
 70
     8
 71
     3
 72
     8
 73
     4
 74
     0
 42
0.0000000001
 43
0.0000000001
 40
0.0
 40
0.0
 40
0.0
 40
0.0
 40
1.0
 40
1.0
 40
1.0
 40
1.0
 10
92.10038218690829
 20
152.4183595175168
 30
0.0
 10
93.85807106302035
 20
152.4509156913296
 30
0.0
 10
95.60869748872858
 20
152.1982177707831
 30
0.0
 10
97.27250745093618
 20
151.6721513431423
 30
0.0
  0
POLYLINE
  5
8A
330
1F
100
AcDbEntity
  8
0
 62
     7
100
AcDb2dPolyline
 66
     1
 10
0.0
 20
0.0
 30
0.0
  0
VERTEX
  5
8B
330
8A
100
AcDbEntity
  8
0
 62
     7
100
AcDbVertex
100
AcDb2dVertex
 10
85.9572561197989
 20
152.4211155957232
 30
0.0
  0
VERTEX
  5
8C
330
8A
100
AcDbEntity
  8
0
 62
     7
100
AcDbVertex
100
AcDb2dVertex
 10
85.9572561197989
 20
153.0209071153843
 30
0.0
  0
SEQEND
  5
8D
330
8A
100
AcDbEntity
  8
0
  0
POLYLINE
  5
8E
330
1F
100
AcDbEntity
  8
0
 62
     7
100
AcDb2dPolyline
 66
     1
 10
0.0
 20
0.0
 30
0.0
  0
VERTEX
  5
8F
330
8E
100
AcDbEntity
  8
0
 62
     7
100
AcDbVertex
100
AcDb2dVertex
 10
85.9572561197989
 20
153.0209071153843
 30
0.0
  0
VERTEX
  5
90
330
8E
100
AcDbEntity
  8
0
 62
     7
100
AcDbVertex
100
AcDb2dVertex
 10
83.80183070753017
 20
153.0209071153843
 30
0.0
  0
SEQEND
  5
91
330
8E
100
AcDbEntity
  8
0
  0
POLYLINE
  5
92
330
1F
100
AcDbEntity
  8
0
 62
     7
100
AcDb2dPolyline
 66
     1
 10
0.0
 20
0.0
 30
0.0
  0
VERTEX
  5
93
330
92
100
AcDbEntity
  8
0
 62
     7
100
AcDbVertex
100
AcDb2dVertex
 10
80.56843420679523
 20
155.5196365192339
 30
0.0
  0
VERTEX
  5
94
330
92
100
AcDbEntity
  8
0
 62
     7
100
AcDbVertex
100
AcDb2dVertex
 10
78.9516498289838
 20
155.5196365192339
 30
0.0
  0
SEQEND
  5
95
330
92
100
AcDbEntity
  8
0
  0
POLYLINE
  5
96
330
1F
100
AcDbEntity
  8
0
 62
     7
100
AcDb2dPolyline
 66
     1
 10
0.0
 20
0.0
 30
0.0
  0
VERTEX
  5
97
330
96
100
AcDbEntity
  8
0
 62
     7
100
AcDbVertex
100
AcDb2dVertex
 10
78.9516498289838
 20
155.5196365192339
 30
0.0
  0
VERTEX
  5
98
330
96
100
AcDbEntity
  8
0
 62
     7
100
AcDbVertex
100
AcDb2dVertex
 10
78.9516498289838
 20
126.5346510423991
 30
0.0
  0
SEQEND
  5
99
330
96
100
AcDbEntity
  8
0
  0
POLYLINE
  5
9A
330
1F
100
AcDbEntity
  8
0
 62
     7
100
AcDb2dPolyline
 66
     1
 10
0.0
 20
0.0
 30
0.0
  0
VERTEX
  5
9B
330
9A
100
AcDbEntity
  8
0
 62
     7
100
AcDbVertex
100
AcDb2dVertex
 10
78.9516498289838
 20
126.5346510423991
 30
0.0
  0
VERTEX
  5
9C
330
9A
100
AcDbEntity
  8
0
 62
     7
100
AcDbVertex
100
AcDb2dVertex
 10
80.56843420679523
 20
126.5346510423991
 30
0.0
  0
SEQEND
  5
9D
330
9A
100
AcDbEntity
  8
0
  0
SPLINE
  5
9E
330
1F
100
AcDbEntity
  8
0
 62
     7
100
AcDbSpline
210
0.0
220
0.0
230
1.0
 70
     8
 71
     3
 72
     8
 73
     4
 74
     0
 42
0.0000000001
 43
0.0000000001
 40
0.0
 40
0.0
 40
0.0
 40
0.0
 40
1.0
 40
1.0
 40
1.0
 40
1.0
 10
91.88454681237199
 20
149.9573539341169
 30
0.0
 10
93.84170684867003
 20
149.7608111070252
 30
0.0
 10
95.60680268496169
 20
148.7763744226876
 30
0.0
 10
96.71112877127632
 20
147.2651822911577
 30
0.0
  0
SPLINE
  5
9F
330
1F
100
AcDbEntity
  8
0
 62
     7
100
AcDbSpline
210
0.0
220
0.0
230
1.0
 70
     8
 71
     3
 72
     8
 73
     4
 74
     0
 42
0.0000000001
 43
0.0000000001
 40
0.0
 40
0.0
 40
0.0
 40
0.0
 40
1.0
 40
1.0
 40
1.0
 40
1.0
 10
96.8477268973795
 20
145.2370532410457
 30
0.0
 10
95.91031579743812
 20
143.5279402433209
 30
0.0
 10
93.943164977642
 20
142.5230052273235
 30
0.0
 10
91.88454681237199
 20
142.7014612911859
 30
0.0
  0
SPLINE
  5
A0
330
1F
100
AcDbEntity
  8
0
 62
     7
100
AcDbSpline
210
0.0
220
0.0
230
1.0
 70
     8
 71
     3
 72
     8
 73
     4
 74
     0
 42
0.0000000001
 43
0.0000000001
 40
0.0
 40
0.0
 40
0.0
 40
0.0
 40
1.0
 40
1.0
 40
1.0
 40
1.0
 10
96.71112877127632
 20
147.2651822911577
 30
0.0
 10
97.15141226474383
 20
146.6626346932902
 30
0.0
 10
97.20377775066484
 20
145.8857651488699
 30
0.0
 10
96.8477268973795
 20
145.2370532410457
 30
0.0
  0
POLYLINE
  5
A1
330
1F
100
AcDbEntity
  8
0
 62
     7
100
AcDb2dPolyline
 66
     1
 10
0.0
 20
0.0
 30
0.0
  0
VERTEX
  5
A2
330
A1
100
AcDbEntity
  8
0
 62
     7
100
AcDbVertex
100
AcDb2dVertex
 10
66.98923688401344
 20
143.625781019647
 30
0.0
  0
VERTEX
  5
A3
330
A1
100
AcDbEntity
  8
0
 62
     7
100
AcDbVertex
100
AcDb2dVertex
 10
66.98923688401344
 20
142.8210061833871
 30
0.0
  0
SEQEND
  5
A4
330
A1
100
AcDbEntity
  8
0
  0
POLYLINE
  5
A5
330
1F
100
AcDbEntity
  8
0
 62
     7
100
AcDb2dPolyline
 66
     1
 10
0.0
 20
0.0
 30
0.0
  0
VERTEX
  5
A6
330
A5
100
AcDbEntity
  8
0
 62
     7
100
AcDbVertex
100
AcDb2dVertex
 10
69.14431778650638
 20
144.4253882092699
 30
0.0
  0
VERTEX
  5
A7
330
A5
100
AcDbEntity
  8
0
 62
     7
100
AcDbVertex
100
AcDb2dVertex
 10
70.8687614692541
 20
144.4253882092699
 30
0.0
  0
SEQEND
  5
A8
330
A5
100
AcDbEntity
  8
0
  0
POLYLINE
  5
A9
330
1F
100
AcDbEntity
  8
0
 62
     7
100
AcDb2dPolyline
 66
     1
 10
0.0
 20
0.0
 30
0.0
  0
VERTEX
  5
AA
330
A9
100
AcDbEntity
  8
0
 62
     7
100
AcDbVertex
100
AcDb2dVertex
 10
66.98923688401344
 20
142.8261738300241
 30
0.0
  0
VERTEX
  5
AB
330
A9
100
AcDbEntity
  8
0
 62
     7
100
AcDbVertex
100
AcDb2dVertex
 10
70.8687614692541
 20
142.8261738300241
 30
0.0
  0
SEQEND
  5
AC
330
A9
100
AcDbEntity
  8
0
  0
SPLINE
  5
AD
330
1F
100
AcDbEntity
  8
0
 62
     7
100
AcDbSpline
210
0.0
220
0.0
230
1.0
 70
     8
 71
     3
 72
     8
 73
     4
 74
     0
 42
0.0000000001
 43
0.0000000001
 40
0.0
 40
0.0
 40
0.0
 40
0.0
 40
1.0
 40
1.0
 40
1.0
 40
1.0
 10
69.14431778650638
 20
144.4253882092699
 30
0.0
 10
68.5574453834376
 20
143.9206813877285
 30
0.0
 10
67.78970534807584
 20
143.6354272933693
 30
0.0
 10
66.98923688401344
 20
143.625781019647
 30
0.0
  0
SPLINE
  5
AE
330
1F
100
AcDbEntity
  8
0
 62
     7
100
AcDbSpline
210
0.0
220
0.0
230
1.0
 70
     8
 71
     3
 72
     8
 73
     4
 74
     0
 42
0.0000000001
 43
0.0000000001
 40
0.0
 40
0.0
 40
0.0
 40
0.0
 40
1.0
 40
1.0
 40
1.0
 40
1.0
 10
69.14431778650638
 20
141.8267509704394
 30
0.0
 10
68.5574453834376
 20
141.322044148898
 30
0.0
 10
67.78970534807584
 20
141.0367900545388
 30
0.0
 10
66.98923688401344
 20
141.0271437808165
 30
0.0
  0
POLYLINE
  5
AF
330
1F
100
AcDbEntity
  8
0
 62
     7
100
AcDb2dPolyline
 66
     1
 10
0.0
 20
0.0
 30
0.0
  0
VERTEX
  5
B0
330
AF
100
AcDbEntity
  8
0
 62
     7
100
AcDbVertex
100
AcDb2dVertex
 10
69.14431778650638
 20
141.8267509704394
 30
0.0
  0
VERTEX
  5
B1
330
AF
100
AcDbEntity
  8
0
 62
     7
100
AcDbVertex
100
AcDb2dVertex
 10
70.8687614692541
 20
141.8267509704394
 30
0.0
  0
SEQEND
  5
B2
330
AF
100
AcDbEntity
  8
0
  0
POLYLINE
  5
B3
330
1F
100
AcDbEntity
  8
0
 62
     7
100
AcDb2dPolyline
 66
     1
 10
0.0
 20
0.0
 30
0.0
  0
VERTEX
  5
B4
330
B3
100
AcDbEntity
  8
0
 62
     7
100
AcDbVertex
100
AcDb2dVertex
 10
66.98923688401344
 20
138.428506541986
 30
0.0
  0
VERTEX
  5
B5
330
B3
100
AcDbEntity
  8
0
 62
     7
100
AcDbVertex
100
AcDb2dVertex
 10
66.98923688401344
 20
137.6237317057261
 30
0.0
  0
SEQEND
  5
B6
330
B3
100
AcDbEntity
  8
0
  0
SPLINE
  5
B7
330
1F
100
AcDbEntity
  8
0
 62
     7
100
AcDbSpline
210
0.0
220
0.0
230
1.0
 70
     8
 71
     3
 72
     8
 73
     4
 74
     0
 42
0.0000000001
 43
0.0000000001
 40
0.0
 40
0.0
 40
0.0
 40
0.0
 40
1.0
 40
1.0
 40
1.0
 40
1.0
 10
69.14431778650638
 20
139.2281137316089
 30
0.0
 10
68.5574453834376
 20
138.7234069100675
 30
0.0
 10
67.78970534807584
 20
138.4384973254841
 30
0.0
 10
66.98923688401344
 20
138.428506541986
 30
0.0
  0
POLYLINE
  5
B8
330
1F
100
AcDbEntity
  8
0
 62
     7
100
AcDb2dPolyline
 66
     1
 10
0.0
 20
0.0
 30
0.0
  0
VERTEX
  5
B9
330
B8
100
AcDbEntity
  8
0
 62
     7
100
AcDbVertex
100
AcDb2dVertex
 10
66.98923688401344
 20
137.6288993523631
 30
0.0
  0
VERTEX
  5
BA
330
B8
100
AcDbEntity
  8
0
 62
     7
100
AcDbVertex
100
AcDb2dVertex
 10
70.8687614692541
 20
137.6288993523631
 30
0.0
  0
SEQEND
  5
BB
330
B8
100
AcDbEntity
  8
0
  0
POLYLINE
  5
BC
330
1F
100
AcDbEntity
  8
0
 62
     7
100
AcDb2dPolyline
 66
     1
 10
0.0
 20
0.0
 30
0.0
  0
VERTEX
  5
BD
330
BC
100
AcDbEntity
  8
0
 62
     7
100
AcDbVertex
100
AcDb2dVertex
 10
69.14431778650638
 20
139.2281137316089
 30
0.0
  0
VERTEX
  5
BE
330
BC
100
AcDbEntity
  8
0
 62
     7
100
AcDbVertex
100
AcDb2dVertex
 10
70.8687614692541
 20
139.2281137316089
 30
0.0
  0
SEQEND
  5
BF
330
BC
100
AcDbEntity
  8
0
  0
POLYLINE
  5
C0
330
1F
100
AcDbEntity
  8
0
 62
     7
100
AcDb2dPolyline
 66
     1
 10
0.0
 20
0.0
 30
0.0
  0
VERTEX
  5
C1
330
C0
100
AcDbEntity
  8
0
 62
     7
100
AcDbVertex
100
AcDb2dVertex
 10
66.98923688401344
 20
141.0271437808165
 30
0.0
  0
VERTEX
  5
C2
330
C0
100
AcDbEntity
  8
0
 62
     7
100
AcDbVertex
100
AcDb2dVertex
 10
66.98923688401344
 20
140.2223689445566
 30
0.0
  0
SEQEND
  5
C3
330
C0
100
AcDbEntity
  8
0
  0
POLYLINE
  5
C4
330
1F
100
AcDbEntity
  8
0
 62
     7
100
AcDb2dPolyline
 66
     1
 10
0.0
 20
0.0
 30
0.0
  0
VERTEX
  5
C5
330
C4
100
AcDbEntity
  8
0
 62
     7
100
AcDbVertex
100
AcDb2dVertex
 10
66.98923688401344
 20
140.2275365911936
 30
0.0
  0
VERTEX
  5
C6
330
C4
100
AcDbEntity
  8
0
 62
     7
100
AcDbVertex
100
AcDb2dVertex
 10
70.8687614692541
 20
140.2275365911936
 30
0.0
  0
SEQEND
  5
C7
330
C4
100
AcDbEntity
  8
0
  0
SPLINE
  5
C8
330
1F
100
AcDbEntity
  8
0
 62
     7
100
AcDbSpline
210
0.0
220
0.0
230
1.0
 70
    11
 71
     3
 72
    38
 73
    34
 74
     0
 42
0.0000000001
 43
0.0000000001
 40
0.0
 40
0.0
 40
0.0
 40
0.0
 40
1.0
 40
1.0
 40
1.0
 40
2.0
 40
2.0
 40
2.0
 40
3.0
 40
3.0
 40
3.0
 40
4.0
 40
4.0
 40
4.0
 40
5.0
 40
5.0
 40
5.0
 40
6.0
 40
6.0
 40
6.0
 40
7.0
 40
7.0
 40
7.0
 40
8.0
 40
8.0
 40
8.0
 40
9.0
 40
9.0
 40
9.0
 40
10.0
 40
10.0
 40
10.0
 40
11.0
 40
11.0
 40
11.0
 40
11.0
 10
138.3652889981274
 20
141.0271437808165
 30
0.0
 10
138.3652889981274
 20
145.0014085544011
 30
0.0
 10
135.1437780846574
 20
148.2232639776469
 30
0.0
 10
131.1695133110728
 20
148.2232639776469
 30
0.0
 10
131.1695133110728
 20
148.2232639776469
 30
0.0
 10
131.1695133110728
 20
148.2232639776469
 30
0.0
 10
131.1695133110728
 20
148.2232639776469
 30
0.0
 10
127.1949040277124
 20
148.2232639776469
 30
0.0
 10
123.9733931142424
 20
145.0014085544011
 30
0.0
 10
123.9733931142424
 20
141.0271437808165
 30
0.0
 10
123.9733931142424
 20
141.0271437808165
 30
0.0
 10
123.9733931142424
 20
141.0271437808165
 30
0.0
 10
123.9733931142424
 20
141.0271437808165
 30
0.0
 10
123.9733931142424
 20
137.0525344974561
 30
0.0
 10
127.1949040277124
 20
133.8310235839861
 30
0.0
 10
131.1695133110728
 20
133.8310235839861
 30
0.0
 10
131.1695133110728
 20
133.8310235839861
 30
0.0
 10
131.1695133110728
 20
133.8310235839861
 30
0.0
 10
131.1695133110728
 20
133.8310235839861
 30
0.0
 10
135.1437780846574
 20
133.8310235839861
 30
0.0
 10
138.3652889981274
 20
137.0525344974561
 30
0.0
 10
138.3652889981274
 20
141.0271437808165
 30
0.0
 10
138.3652889981274
 20
141.0271437808165
 30
0.0
 10
138.3652889981274
 20
141.0271437808165
 30
0.0
 10
138.3652889981274
 20
141.0271437808165
 30
0.0
 10
138.3652889981274
 20
141.0271437808165
 30
0.0
 10
138.3652889981274
 20
141.0271437808165
 30
0.0
 10
138.3652889981274
 20
141.0271437808165
 30
0.0
 10
138.3652889981274
 20
141.0271437808165
 30
0.0
 10
138.3652889981274
 20
141.0271437808165
 30
0.0
 10
138.3652889981274
 20
141.0271437808165
 30
0.0
 10
138.3652889981274
 20
141.0271437808165
 30
0.0
 10
138.3652889981274
 20
141.0271437808165
 30
0.0
 10
138.3652889981274
 20
141.0271437808165
 30
0.0
  0
SPLINE
  5
C9
330
1F
100
AcDbEntity
  8
0
 62
     7
100
AcDbSpline
210
0.0
220
0.0
230
1.0
 70
     8
 71
     3
 72
     8
 73
     4
 74
     0
 42
0.0000000001
 43
0.0000000001
 40
0.0
 40
0.0
 40
0.0
 40
0.0
 40
1.0
 40
1.0
 40
1.0
 40
1.0
 10
129.5713324611544
 20
149.7268768941092
 30
0.0
 10
124.8605057869176
 20
148.8614683373093
 30
0.0
 10
121.6951499669024
 20
144.4050621324979
 30
0.0
 10
122.4286112795724
 20
139.672531342386
 30
0.0
  0
SPLINE
  5
CA
330
1F
100
AcDbEntity
  8
0
 62
     7
100
AcDbSpline
210
0.0
220
0.0
230
1.0
 70
     8
 71
     3
 72
     8
 73
     4
 74
     0
 42
0.0000000001
 43
0.0000000001
 40
0.0
 40
0.0
 40
0.0
 40
0.0
 40
1.0
 40
1.0
 40
1.0
 40
1.0
 10
122.9205712394094
 20
137.833538159186
 30
0.0
 10
123.343629244087
 20
136.7421311894637
 30
0.0
 10
123.9782162511036
 20
135.7454644080854
 30
0.0
 10
124.7885032437762
 20
134.901070947609
 30
0.0
  0
SPLINE
  5
CB
330
1F
100
AcDbEntity
  8
0
 62
     7
100
AcDbSpline
210
0.0
220
0.0
230
1.0
 70
     8
 71
     3
 72
     8
 73
     4
 74
     0
 42
0.0000000001
 43
0.0000000001
 40
0.0
 40
0.0
 40
0.0
 40
0.0
 40
1.0
 40
1.0
 40
1.0
 40
1.0
 10
126.245779595394
 20
133.6787502630842
 30
0.0
 10
128.995656625799
 20
131.8366564919021
 30
0.0
 10
132.5434182969479
 20
131.6833496416728
 30
0.0
 10
135.4414345309453
 20
133.281875001367
 30
0.0
  0
SPLINE
  5
CC
330
1F
100
AcDbEntity
  8
0
 62
     7
100
AcDbSpline
210
0.0
220
0.0
230
1.0
 70
     8
 71
     3
 72
     8
 73
     4
 74
     0
 42
0.0000000001
 43
0.0000000001
 40
0.0
 40
0.0
 40
0.0
 40
0.0
 40
1.0
 40
1.0
 40
1.0
 40
1.0
 10
136.9958626393376
 20
134.3719039319861
 30
0.0
 10
138.4689864406421
 20
135.6610595130154
 30
0.0
 10
139.4721989077605
 20
137.402556429665
 30
0.0
 10
139.8487480927057
 20
139.322509410177
 30
0.0
  0
SPLINE
  5
CD
330
1F
100
AcDbEntity
  8
0
 62
     7
100
AcDbSpline
210
0.0
220
0.0
230
1.0
 70
     8
 71
     3
 72
     8
 73
     4
 74
     0
 42
0.0000000001
 43
0.0000000001
 40
0.0
 40
0.0
 40
0.0
 40
0.0
 40
1.0
 40
1.0
 40
1.0
 40
1.0
 10
140.0127347459847
 20
141.2076669033337
 30
0.0
 10
139.9269518118114
 20
145.407241070289
 30
0.0
 10
136.8993999021147
 20
148.9679218580303
 30
0.0
 10
132.768038670767
 20
149.7268768941092
 30
0.0
  0
SPLINE
  5
CE
330
1F
100
AcDbEntity
  8
0
 62
     7
100
AcDbSpline
210
0.0
220
0.0
230
1.0
 70
    11
 71
     3
 72
    38
 73
    34
 74
     0
 42
0.0000000001
 43
0.0000000001
 40
0.0
 40
0.0
 40
0.0
 40
0.0
 40
1.0
 40
1.0
 40
1.0
 40
2.0
 40
2.0
 40
2.0
 40
3.0
 40
3.0
 40
3.0
 40
4.0
 40
4.0
 40
4.0
 40
5.0
 40
5.0
 40
5.0
 40
6.0
 40
6.0
 40
6.0
 40
7.0
 40
7.0
 40
7.0
 40
8.0
 40
8.0
 40
8.0
 40
9.0
 40
9.0
 40
9.0
 40
10.0
 40
10.0
 40
10.0
 40
11.0
 40
11.0
 40
11.0
 40
11.0
 10
140.7647995865477
 20
141.0271437808165
 30
0.0
 10
140.7647995865477
 20
146.3263931521132
 30
0.0
 10
136.4687626823695
 20
150.6222578014035
 30
0.0
 10
131.1698578208486
 20
150.6222578014035
 30
0.0
 10
131.1698578208486
 20
150.6222578014035
 30
0.0
 10
131.1698578208486
 20
150.6222578014035
 30
0.0
 10
131.1698578208486
 20
150.6222578014035
 30
0.0
 10
125.8706084495519
 20
150.6222578014035
 30
0.0
 10
121.5745715453737
 20
146.3263931521132
 30
0.0
 10
121.5745715453737
 20
141.0271437808165
 30
0.0
 10
121.5745715453737
 20
141.0271437808165
 30
0.0
 10
121.5745715453737
 20
141.0271437808165
 30
0.0
 10
121.5745715453737
 20
141.0271437808165
 30
0.0
 10
121.5745715453737
 20
135.7278944095198
 30
0.0
 10
125.8706084495519
 20
131.4322020151174
 30
0.0
 10
131.1698578208486
 20
131.4322020151174
 30
0.0
 10
131.1698578208486
 20
131.4322020151174
 30
0.0
 10
131.1698578208486
 20
131.4322020151174
 30
0.0
 10
131.1698578208486
 20
131.4322020151174
 30
0.0
 10
136.4687626823695
 20
131.4322020151174
 30
0.0
 10
140.7647995865477
 20
135.7278944095198
 30
0.0
 10
140.7647995865477
 20
141.0271437808165
 30
0.0
 10
140.7647995865477
 20
141.0271437808165
 30
0.0
 10
140.7647995865477
 20
141.0271437808165
 30
0.0
 10
140.7647995865477
 20
141.0271437808165
 30
0.0
 10
140.7647995865477
 20
141.0271437808165
 30
0.0
 10
140.7647995865477
 20
141.0271437808165
 30
0.0
 10
140.7647995865477
 20
141.0271437808165
 30
0.0
 10
140.7647995865477
 20
141.0271437808165
 30
0.0
 10
140.7647995865477
 20
141.0271437808165
 30
0.0
 10
140.7647995865477
 20
141.0271437808165
 30
0.0
 10
140.7647995865477
 20
141.0271437808165
 30
0.0
 10
140.7647995865477
 20
141.0271437808165
 30
0.0
 10
140.7647995865477
 20
141.0271437808165
 30
0.0
  0
SPLINE
  5
CF
330
1F
100
AcDbEntity
  8
0
 62
     7
100
AcDbSpline
210
0.0
220
0.0
230
1.0
 70
    11
 71
     3
 72
    38
 73
    34
 74
     0
 42
0.0000000001
 43
0.0000000001
 40
0.0
 40
0.0
 40
0.0
 40
0.0
 40
1.0
 40
1.0
 40
1.0
 40
2.0
 40
2.0
 40
2.0
 40
3.0
 40
3.0
 40
3.0
 40
4.0
 40
4.0
 40
4.0
 40
5.0
 40
5.0
 40
5.0
 40
6.0
 40
6.0
 40
6.0
 40
7.0
 40
7.0
 40
7.0
 40
8.0
 40
8.0
 40
8.0
 40
9.0
 40
9.0
 40
9.0
 40
10.0
 40
10.0
 40
10.0
 40
11.0
 40
11.0
 40
11.0
 40
11.0
 10
141.0142246642241
 20
141.0271437808165
 30
0.0
 10
141.0142246642241
 20
146.4641970624316
 30
0.0
 10
136.6062220829122
 20
150.8716828790799
 30
0.0
 10
131.1695133110728
 20
150.8716828790799
 30
0.0
 10
131.1695133110728
 20
150.8716828790799
 30
0.0
 10
131.1695133110728
 20
150.8716828790799
 30
0.0
 10
131.1695133110728
 20
150.8716828790799
 30
0.0
 10
125.7321155196819
 20
150.8716828790799
 30
0.0
 10
121.3248019579215
 20
146.4641970624316
 30
0.0
 10
121.3248019579215
 20
141.0271437808165
 30
0.0
 10
121.3248019579215
 20
141.0271437808165
 30
0.0
 10
121.3248019579215
 20
141.0271437808165
 30
0.0
 10
121.3248019579215
 20
141.0271437808165
 30
0.0
 10
121.3248019579215
 20
135.5897459894256
 30
0.0
 10
125.7321155196819
 20
131.1824324276652
 30
0.0
 10
131.1695133110728
 20
131.1824324276652
 30
0.0
 10
131.1695133110728
 20
131.1824324276652
 30
0.0
 10
131.1695133110728
 20
131.1824324276652
 30
0.0
 10
131.1695133110728
 20
131.1824324276652
 30
0.0
 10
136.6062220829122
 20
131.1824324276652
 30
0.0
 10
141.0142246642241
 20
135.5897459894256
 30
0.0
 10
141.0142246642241
 20
141.0271437808165
 30
0.0
 10
141.0142246642241
 20
141.0271437808165
 30
0.0
 10
141.0142246642241
 20
141.0271437808165
 30
0.0
 10
141.0142246642241
 20
141.0271437808165
 30
0.0
 10
141.0142246642241
 20
141.0271437808165
 30
0.0
 10
141.0142246642241
 20
141.0271437808165
 30
0.0
 10
141.0142246642241
 20
141.0271437808165
 30
0.0
 10
141.0142246642241
 20
141.0271437808165
 30
0.0
 10
141.0142246642241
 20
141.0271437808165
 30
0.0
 10
141.0142246642241
 20
141.0271437808165
 30
0.0
 10
141.0142246642241
 20
141.0271437808165
 30
0.0
 10
141.0142246642241
 20
141.0271437808165
 30
0.0
 10
141.0142246642241
 20
141.0271437808165
 30
0.0
  0
SPLINE
  5
D0
330
1F
100
AcDbEntity
  8
0
 62
     7
100
AcDbSpline
210
0.0
220
0.0
230
1.0
 70
     8
 71
     3
 72
    20
 73
    16
 74
     0
 42
0.0000000001
 43
0.0000000001
 40
0.0
 40
0.0
 40
0.0
 40
0.0
 40
1.0
 40
1.0
 40
1.0
 40
2.0
 40
2.0
 40
2.0
 40
3.0
 40
3.0
 40
3.0
 40
4.0
 40
4.0
 40
4.0
 40
5.0
 40
5.0
 40
5.0
 40
5.0
 10
132.2037316580129
 20
130.4331236653085
 30
0.0
 10
138.0548856901351
 20
131.0046653833544
 30
0.0
 10
142.3350751446266
 20
136.210897115186
 30
0.0
 10
141.7635334265808
 20
142.0620511473082
 30
0.0
 10
141.7635334265808
 20
142.0620511473082
 30
0.0
 10
141.7635334265808
 20
142.0620511473082
 30
0.0
 10
141.7635334265808
 20
142.0620511473082
 30
0.0
 10
141.7635334265808
 20
142.0620511473082
 30
0.0
 10
141.7635334265808
 20
142.0620511473082
 30
0.0
 10
141.7635334265808
 20
142.0620511473082
 30
0.0
 10
141.7635334265808
 20
142.0620511473082
 30
0.0
 10
141.7635334265808
 20
142.0620511473082
 30
0.0
 10
141.7635334265808
 20
142.0620511473082
 30
0.0
 10
141.6505342201197
 20
143.2213265428623
 30
0.0
 10
141.347365617419
 20
144.3540746856801
 30
0.0
 10
140.867463499735
 20
145.4148202853565
 30
0.0
  0
SPLINE
  5
D1
330
1F
100
AcDbEntity
  8
0
 62
     7
100
AcDbSpline
210
0.0
220
0.0
230
1.0
 70
     8
 71
     3
 72
    20
 73
    16
 74
     0
 42
0.0000000001
 43
0.0000000001
 40
0.0
 40
0.0
 40
0.0
 40
0.0
 40
1.0
 40
1.0
 40
1.0
 40
2.0
 40
2.0
 40
2.0
 40
3.0
 40
3.0
 40
3.0
 40
4.0
 40
4.0
 40
4.0
 40
5.0
 40
5.0
 40
5.0
 40
5.0
 10
139.8184312324356
 20
147.2321093526813
 30
0.0
 10
136.3919370023669
 20
152.0087373940952
 30
0.0
 10
129.7415202903977
 20
153.1030726969117
 30
0.0
 10
124.9648922489838
 20
149.6764062119551
 30
0.0
 10
124.9648922489838
 20
149.6764062119551
 30
0.0
 10
124.9648922489838
 20
149.6764062119551
 30
0.0
 10
124.9648922489838
 20
149.6764062119551
 30
0.0
 10
124.9648922489838
 20
149.6764062119551
 30
0.0
 10
124.9648922489838
 20
149.6764062119551
 30
0.0
 10
124.9648922489838
 20
149.6764062119551
 30
0.0
 10
124.9648922489838
 20
149.6764062119551
 30
0.0
 10
124.9648922489838
 20
149.6764062119551
 30
0.0
 10
124.9648922489838
 20
149.6764062119551
 30
0.0
 10
124.0188684046475
 20
148.997205188973
 30
0.0
 10
123.1896333743062
 20
148.1674533939679
 30
0.0
 10
122.5116381355393
 20
147.2203960203042
 30
0.0
  0
SPLINE
  5
D2
330
1F
100
AcDbEntity
  8
0
 62
     7
100
AcDbSpline
210
0.0
220
0.0
230
1.0
 70
     8
 71
     3
 72
    20
 73
    16
 74
     0
 42
0.0000000001
 43
0.0000000001
 40
0.0
 40
0.0
 40
0.0
 40
0.0
 40
1.0
 40
1.0
 40
1.0
 40
2.0
 40
2.0
 40
2.0
 40
3.0
 40
3.0
 40
3.0
 40
4.0
 40
4.0
 40
4.0
 40
5.0
 40
5.0
 40
5.0
 40
5.0
 10
121.4853435134425
 20
145.4465151847297
 30
0.0
 10
119.0448362617025
 20
140.0990344448216
 30
0.0
 10
121.401627637924
 20
133.7848592740294
 30
0.0
 10
126.749452887608
 20
131.3440075125136
 30
0.0
 10
126.749452887608
 20
131.3440075125136
 30
0.0
 10
126.749452887608
 20
131.3440075125136
 30
0.0
 10
126.749452887608
 20
131.3440075125136
 30
0.0
 10
126.749452887608
 20
131.3440075125136
 30
0.0
 10
126.749452887608
 20
131.3440075125136
 30
0.0
 10
126.749452887608
 20
131.3440075125136
 30
0.0
 10
126.749452887608
 20
131.3440075125136
 30
0.0
 10
126.749452887608
 20
131.3440075125136
 30
0.0
 10
126.749452887608
 20
131.3440075125136
 30
0.0
 10
127.8222563294372
 20
130.854803630883
 30
0.0
 10
128.9680958437353
 20
130.5468118913213
 30
0.0
 10
130.1408071205454
 20
130.4327791555327
 30
0.0
  0
SPLINE
  5
D3
330
1F
100
AcDbEntity
  8
0
 62
     7
100
AcDbSpline
210
0.0
220
0.0
230
1.0
 70
    11
 71
     3
 72
    38
 73
    34
 74
     0
 42
0.0000000001
 43
0.0000000001
 40
0.0
 40
0.0
 40
0.0
 40
0.0
 40
1.0
 40
1.0
 40
1.0
 40
2.0
 40
2.0
 40
2.0
 40
3.0
 40
3.0
 40
3.0
 40
4.0
 40
4.0
 40
4.0
 40
5.0
 40
5.0
 40
5.0
 40
6.0
 40
6.0
 40
6.0
 40
7.0
 40
7.0
 40
7.0
 40
8.0
 40
8.0
 40
8.0
 40
9.0
 40
9.0
 40
9.0
 40
10.0
 40
10.0
 40
10.0
 40
11.0
 40
11.0
 40
11.0
 40
11.0
 10
142.5634851259795
 20
141.0271437808165
 30
0.0
 10
142.5634851259795
 20
147.3199593455093
 30
0.0
 10
137.4623288757656
 20
152.4211155957232
 30
0.0
 10
131.1695133110728
 20
152.4211155957232
 30
0.0
 10
131.1695133110728
 20
152.4211155957232
 30
0.0
 10
131.1695133110728
 20
152.4211155957232
 30
0.0
 10
131.1695133110728
 20
152.4211155957232
 30
0.0
 10
124.8763532366042
 20
152.4211155957232
 30
0.0
 10
119.7751969863903
 20
147.3199593455093
 30
0.0
 10
119.7751969863903
 20
141.0271437808165
 30
0.0
 10
119.7751969863903
 20
141.0271437808165
 30
0.0
 10
119.7751969863903
 20
141.0271437808165
 30
0.0
 10
119.7751969863903
 20
141.0271437808165
 30
0.0
 10
119.7751969863903
 20
134.7346727258995
 30
0.0
 10
124.8763532366042
 20
129.6331719659098
 30
0.0
 10
131.1695133110728
 20
129.6331719659098
 30
0.0
 10
131.1695133110728
 20
129.6331719659098
 30
0.0
 10
131.1695133110728
 20
129.6331719659098
 30
0.0
 10
131.1695133110728
 20
129.6331719659098
 30
0.0
 10
137.4623288757656
 20
129.6331719659098
 30
0.0
 10
142.5634851259795
 20
134.7346727258995
 30
0.0
 10
142.5634851259795
 20
141.0271437808165
 30
0.0
 10
142.5634851259795
 20
141.0271437808165
 30
0.0
 10
142.5634851259795
 20
141.0271437808165
 30
0.0
 10
142.5634851259795
 20
141.0271437808165
 30
0.0
 10
142.5634851259795
 20
141.0271437808165
 30
0.0
 10
142.5634851259795
 20
141.0271437808165
 30
0.0
 10
142.5634851259795
 20
141.0271437808165
 30
0.0
 10
142.5634851259795
 20
141.0271437808165
 30
0.0
 10
142.5634851259795
 20
141.0271437808165
 30
0.0
 10
142.5634851259795
 20
141.0271437808165
 30
0.0
 10
142.5634851259795
 20
141.0271437808165
 30
0.0
 10
142.5634851259795
 20
141.0271437808165
 30
0.0
 10
142.5634851259795
 20
141.0271437808165
 30
0.0
  0
SPLINE
  5
D4
330
1F
100
AcDbEntity
  8
0
 62
     7
100
AcDbSpline
210
0.0
220
0.0
230
1.0
 70
     8
 71
     3
 72
     8
 73
     4
 74
     0
 42
0.0000000001
 43
0.0000000001
 40
0.0
 40
0.0
 40
0.0
 40
0.0
 40
1.0
 40
1.0
 40
1.0
 40
1.0
 10
121.9914283740871
 20
139.5571205674943
 30
0.0
 10
122.0920252286196
 20
138.9283902266662
 30
0.0
 10
122.2567009014501
 20
138.3113732182153
 30
0.0
 10
122.4844218632514
 20
137.7164048354153
 30
0.0
  0
SPLINE
  5
D5
330
1F
100
AcDbEntity
  8
0
 62
     7
100
AcDbSpline
210
0.0
220
0.0
230
1.0
 70
     8
 71
     3
 72
     8
 73
     4
 74
     0
 42
0.0000000001
 43
0.0000000001
 40
0.0
 40
0.0
 40
0.0
 40
0.0
 40
1.0
 40
1.0
 40
1.0
 40
1.0
 10
124.5004930712106
 20
134.5524270545033
 30
0.0
 10
124.9424991135571
 20
134.0973296406765
 30
0.0
 10
125.4303249560844
 20
133.6883965368065
 30
0.0
 10
125.9553578543978
 20
133.3325179384091
 30
0.0
  0
SPLINE
  5
D6
330
1F
100
AcDbEntity
  8
0
 62
     7
100
AcDbSpline
210
0.0
220
0.0
230
1.0
 70
     8
 71
     3
 72
     8
 73
     4
 74
     0
 42
0.0000000001
 43
0.0000000001
 40
0.0
 40
0.0
 40
0.0
 40
0.0
 40
1.0
 40
1.0
 40
1.0
 40
1.0
 10
135.6974052943619
 20
132.910148953283
 30
0.0
 10
136.2520660333937
 20
133.2188297123963
 30
0.0
 10
136.7726203046217
 20
133.5843545845161
 30
0.0
 10
137.2525224223058
 20
133.9991443545746
 30
0.0
  0
SPLINE
  5
D7
330
1F
100
AcDbEntity
  8
0
 62
     7
100
AcDbSpline
210
0.0
220
0.0
230
1.0
 70
     8
 71
     3
 72
     8
 73
     4
 74
     0
 42
0.0000000001
 43
0.0000000001
 40
0.0
 40
0.0
 40
0.0
 40
0.0
 40
1.0
 40
1.0
 40
1.0
 40
1.0
 10
140.2983333501197
 20
139.2787566686509
 30
0.0
 10
140.417878242321
 20
139.9012858335146
 30
0.0
 10
140.4733443162241
 20
140.5341502916522
 30
0.0
 10
140.4636980425018
 20
141.1680482791171
 30
0.0
  0
SPLINE
  5
D8
330
1F
100
AcDbEntity
  8
0
 62
     7
100
AcDbSpline
210
0.0
220
0.0
230
1.0
 70
     8
 71
     3
 72
     8
 73
     4
 74
     0
 42
0.0000000001
 43
0.0000000001
 40
0.0
 40
0.0
 40
0.0
 40
0.0
 40
1.0
 40
1.0
 40
1.0
 40
1.0
 10
132.7673496512155
 20
150.183696856815
 30
0.0
 10
131.711771698176
 20
150.3680095868659
 30
0.0
 10
130.6324225706066
 20
150.3683540966417
 30
0.0
 10
129.5768446175671
 20
150.1847303861423
 30
0.0
  0
POLYLINE
  5
D9
330
1F
100
AcDbEntity
  8
0
 62
     7
100
AcDb2dPolyline
 66
     1
 10
0.0
 20
0.0
 30
0.0
  0
VERTEX
  5
DA
330
D9
100
AcDbEntity
  8
0
 62
     7
100
AcDbVertex
100
AcDb2dVertex
 10
146.1618897341705
 20
152.521195685592
 30
0.0
  0
VERTEX
  5
DB
330
D9
100
AcDbEntity
  8
0
 62
     7
100
AcDbVertex
100
AcDb2dVertex
 10
146.1618897341705
 20
129.5336086407047
 30
0.0
  0
SEQEND
  5
DC
330
D9
100
AcDbEntity
  8
0
  0
SPLINE
  5
DD
330
1F
100
AcDbEntity
  8
0
 62
     7
100
AcDbSpline
210
0.0
220
0.0
230
1.0
 70
     8
 71
     3
 72
     8
 73
     4
 74
     0
 42
0.0000000001
 43
0.0000000001
 40
0.0
 40
0.0
 40
0.0
 40
0.0
 40
1.0
 40
1.0
 40
1.0
 40
1.0
 10
142.6633929609604
 20
126.0351118674946
 30
0.0
 10
144.5957482934011
 20
126.0351118674946
 30
0.0
 10
146.1618897341705
 20
127.6015978180398
 30
0.0
 10
146.1618897341705
 20
129.5336086407047
 30
0.0
  0
SPLINE
  5
DE
330
1F
100
AcDbEntity
  8
0
 62
     7
100
AcDbSpline
210
0.0
220
0.0
230
1.0
 70
     8
 71
     3
 72
     8
 73
     4
 74
     0
 42
0.0000000001
 43
0.0000000001
 40
0.0
 40
0.0
 40
0.0
 40
0.0
 40
1.0
 40
1.0
 40
1.0
 40
1.0
 10
146.1618897341705
 20
152.521195685592
 30
0.0
 10
146.1618897341705
 20
154.4532065082569
 30
0.0
 10
144.5957482934011
 20
156.0195202039142
 30
0.0
 10
142.6633929609604
 20
156.0195202039142
 30
0.0
  0
POLYLINE
  5
DF
330
1F
100
AcDbEntity
  8
0
 62
     7
100
AcDb2dPolyline
 66
     1
 10
0.0
 20
0.0
 30
0.0
  0
VERTEX
  5
E0
330
DF
100
AcDbEntity
  8
0
 62
     7
100
AcDbVertex
100
AcDb2dVertex
 10
142.6633929609604
 20
126.0351118674946
 30
0.0
  0
VERTEX
  5
E1
330
DF
100
AcDbEntity
  8
0
 62
     7
100
AcDbVertex
100
AcDb2dVertex
 10
119.6752891514094
 20
126.0351118674946
 30
0.0
  0
SEQEND
  5
E2
330
DF
100
AcDbEntity
  8
0
  0
SPLINE
  5
E3
330
1F
100
AcDbEntity
  8
0
 62
     7
100
AcDbSpline
210
0.0
220
0.0
230
1.0
 70
     8
 71
     3
 72
     8
 73
     4
 74
     0
 42
0.0000000001
 43
0.0000000001
 40
0.0
 40
0.0
 40
0.0
 40
0.0
 40
1.0
 40
1.0
 40
1.0
 40
1.0
 10
116.1778259075267
 20
129.5336086407047
 30
0.0
 10
116.1778259075267
 20
127.6015978180398
 30
0.0
 10
117.7436228385203
 20
126.0351118674946
 30
0.0
 10
119.6752891514094
 20
126.0351118674946
 30
0.0
  0
POLYLINE
  5
E4
330
1F
100
AcDbEntity
  8
0
 62
     7
100
AcDb2dPolyline
 66
     1
 10
0.0
 20
0.0
 30
0.0
  0
VERTEX
  5
E5
330
E4
100
AcDbEntity
  8
0
 62
     7
100
AcDbVertex
100
AcDb2dVertex
 10
116.1778259075267
 20
129.5336086407047
 30
0.0
  0
VERTEX
  5
E6
330
E4
100
AcDbEntity
  8
0
 62
     7
100
AcDbVertex
100
AcDb2dVertex
 10
116.1778259075267
 20
152.521195685592
 30
0.0
  0
SEQEND
  5
E7
330
E4
100
AcDbEntity
  8
0
  0
SPLINE
  5
E8
330
1F
100
AcDbEntity
  8
0
 62
     7
100
AcDbSpline
210
0.0
220
0.0
230
1.0
 70
     8
 71
     3
 72
     8
 73
     4
 74
     0
 42
0.0000000001
 43
0.0000000001
 40
0.0
 40
0.0
 40
0.0
 40
0.0
 40
1.0
 40
1.0
 40
1.0
 40
1.0
 10
119.6752891514094
 20
156.0195202039142
 30
0.0
 10
117.7436228385203
 20
156.0195202039142
 30
0.0
 10
116.1778259075267
 20
154.4532065082569
 30
0.0
 10
116.1778259075267
 20
152.521195685592
 30
0.0
  0
POLYLINE
  5
E9
330
1F
100
AcDbEntity
  8
0
 62
     7
100
AcDb2dPolyline
 66
     1
 10
0.0
 20
0.0
 30
0.0
  0
VERTEX
  5
EA
330
E9
100
AcDbEntity
  8
0
 62
     7
100
AcDbVertex
100
AcDb2dVertex
 10
119.6752891514094
 20
156.0195202039142
 30
0.0
  0
VERTEX
  5
EB
330
E9
100
AcDbEntity
  8
0
 62
     7
100
AcDbVertex
100
AcDb2dVertex
 10
142.6633929609604
 20
156.0195202039142
 30
0.0
  0
SEQEND
  5
EC
330
E9
100
AcDbEntity
  8
0
  0
POLYLINE
  5
ED
330
1F
100
AcDbEntity
  8
0
 62
     7
100
AcDb2dPolyline
 66
     1
 10
0.0
 20
0.0
 30
0.0
  0
VERTEX
  5
EE
330
ED
100
AcDbEntity
  8
0
 62
     7
100
AcDbVertex
100
AcDb2dVertex
 10
122.4789097068387
 20
137.7139932669847
 30
0.0
  0
VERTEX
  5
EF
330
ED
100
AcDbEntity
  8
0
 62
     7
100
AcDbVertex
100
AcDb2dVertex
 10
123.4035739450756
 20
137.9641073642128
 30
0.0
  0
SEQEND
  5
F0
330
ED
100
AcDbEntity
  8
0
  0
POLYLINE
  5
F1
330
1F
100
AcDbEntity
  8
0
 62
     7
100
AcDb2dPolyline
 66
     1
 10
0.0
 20
0.0
 30
0.0
  0
VERTEX
  5
F2
330
F1
100
AcDbEntity
  8
0
 62
     7
100
AcDbVertex
100
AcDb2dVertex
 10
121.9893613154323
 20
139.5529864501847
 30
0.0
  0
VERTEX
  5
F3
330
F1
100
AcDbEntity
  8
0
 62
     7
100
AcDbVertex
100
AcDb2dVertex
 10
122.9081688874807
 20
139.7979329007758
 30
0.0
  0
SEQEND
  5
F4
330
F1
100
AcDbEntity
  8
0
  0
POLYLINE
  5
F5
330
1F
100
AcDbEntity
  8
0
 62
     7
100
AcDb2dPolyline
 66
     1
 10
0.0
 20
0.0
 30
0.0
  0
VERTEX
  5
F6
330
F5
100
AcDbEntity
  8
0
 62
     7
100
AcDbVertex
100
AcDb2dVertex
 10
125.9526017761914
 20
133.3314844090817
 30
0.0
  0
VERTEX
  5
F7
330
F5
100
AcDbEntity
  8
0
 62
     7
100
AcDbVertex
100
AcDb2dVertex
 10
126.5620395695748
 20
134.061156114218
 30
0.0
  0
SEQEND
  5
F8
330
F5
100
AcDbEntity
  8
0
  0
POLYLINE
  5
F9
330
1F
100
AcDbEntity
  8
0
 62
     7
100
AcDb2dPolyline
 66
     1
 10
0.0
 20
0.0
 30
0.0
  0
VERTEX
  5
FA
330
F9
100
AcDbEntity
  8
0
 62
     7
100
AcDbVertex
100
AcDb2dVertex
 10
124.4977369930042
 20
134.5507045056243
 30
0.0
  0
VERTEX
  5
FB
330
F9
100
AcDbEntity
  8
0
 62
     7
100
AcDbVertex
100
AcDb2dVertex
 10
125.1075192961634
 20
135.2855438573976
 30
0.0
  0
SEQEND
  5
FC
330
F9
100
AcDbEntity
  8
0
  0
POLYLINE
  5
FD
330
1F
100
AcDbEntity
  8
0
 62
     7
100
AcDb2dPolyline
 66
     1
 10
0.0
 20
0.0
 30
0.0
  0
VERTEX
  5
FE
330
FD
100
AcDbEntity
  8
0
 62
     7
100
AcDbVertex
100
AcDb2dVertex
 10
137.2511443832026
 20
133.9960437665925
 30
0.0
  0
VERTEX
  5
FF
330
FD
100
AcDbEntity
  8
0
 62
     7
100
AcDbVertex
100
AcDb2dVertex
 10
136.7064744276688
 20
134.7756693892192
 30
0.0
  0
SEQEND
  5
100
330
FD
100
AcDbEntity
  8
0
  0
POLYLINE
  5
101
330
1F
100
AcDbEntity
  8
0
 62
     7
100
AcDb2dPolyline
 66
     1
 10
0.0
 20
0.0
 30
0.0
  0
VERTEX
  5
102
330
101
100
AcDbEntity
  8
0
 62
     7
100
AcDbVertex
100
AcDb2dVertex
 10
135.6967162748103
 20
132.906703855525
 30
0.0
  0
VERTEX
  5
103
330
101
100
AcDbEntity
  8
0
 62
     7
100
AcDbVertex
100
AcDb2dVertex
 10
135.1475676921912
 20
133.6859849683759
 30
0.0
  0
SEQEND
  5
104
330
101
100
AcDbEntity
  8
0
  0
POLYLINE
  5
105
330
1F
100
AcDbEntity
  8
0
 62
     7
100
AcDb2dPolyline
 66
     1
 10
0.0
 20
0.0
 30
0.0
  0
VERTEX
  5
106
330
105
100
AcDbEntity
  8
0
 62
     7
100
AcDbVertex
100
AcDb2dVertex
 10
140.4692101989146
 20
141.1673592595655
 30
0.0
  0
VERTEX
  5
107
330
105
100
AcDbEntity
  8
0
 62
     7
100
AcDbVertex
100
AcDb2dVertex
 10
139.5145736101834
 20
141.2469410177744
 30
0.0
  0
SEQEND
  5
108
330
105
100
AcDbEntity
  8
0
  0
POLYLINE
  5
109
330
1F
100
AcDbEntity
  8
0
 62
     7
100
AcDb2dPolyline
 66
     1
 10
0.0
 20
0.0
 30
0.0
  0
VERTEX
  5
10A
330
109
100
AcDbEntity
  8
0
 62
     7
100
AcDbVertex
100
AcDb2dVertex
 10
140.2997113892229
 20
139.2732445122382
 30
0.0
  0
VERTEX
  5
10B
330
109
100
AcDbEntity
  8
0
 62
     7
100
AcDbVertex
100
AcDb2dVertex
 10
139.3502424471286
 20
139.3583384268599
 30
0.0
  0
SEQEND
  5
10C
330
109
100
AcDbEntity
  8
0
  0
SPLINE
  5
10D
330
1F
100
AcDbEntity
  8
0
 62
     7
100
AcDbSpline
210
0.0
220
0.0
230
1.0
 70
    11
 71
     3
 72
    38
 73
    34
 74
     0
 42
0.0000000001
 43
0.0000000001
 40
0.0
 40
0.0
 40
0.0
 40
0.0
 40
1.0
 40
1.0
 40
1.0
 40
2.0
 40
2.0
 40
2.0
 40
3.0
 40
3.0
 40
3.0
 40
4.0
 40
4.0
 40
4.0
 40
5.0
 40
5.0
 40
5.0
 40
6.0
 40
6.0
 40
6.0
 40
7.0
 40
7.0
 40
7.0
 40
8.0
 40
8.0
 40
8.0
 40
9.0
 40
9.0
 40
9.0
 40
10.0
 40
10.0
 40
10.0
 40
11.0
 40
11.0
 40
11.0
 40
11.0
 10
139.5145736101834
 20
141.0271437808165
 30
0.0
 10
139.5145736101834
 20
145.6363400711934
 30
0.0
 10
135.778365091674
 20
149.3725485897029
 30
0.0
 10
131.1695133110728
 20
149.3725485897029
 30
0.0
 10
131.1695133110728
 20
149.3725485897029
 30
0.0
 10
131.1695133110728
 20
149.3725485897029
 30
0.0
 10
131.1695133110728
 20
149.3725485897029
 30
0.0
 10
126.5603170206959
 20
149.3725485897029
 30
0.0
 10
122.8237639924106
 20
145.6363400711934
 30
0.0
 10
122.8237639924106
 20
141.0271437808165
 30
0.0
 10
122.8237639924106
 20
141.0271437808165
 30
0.0
 10
122.8237639924106
 20
141.0271437808165
 30
0.0
 10
122.8237639924106
 20
141.0271437808165
 30
0.0
 10
122.8237639924106
 20
136.4179474904396
 30
0.0
 10
126.5603170206959
 20
132.6817389719301
 30
0.0
 10
131.1695133110728
 20
132.6817389719301
 30
0.0
 10
131.1695133110728
 20
132.6817389719301
 30
0.0
 10
131.1695133110728
 20
132.6817389719301
 30
0.0
 10
131.1695133110728
 20
132.6817389719301
 30
0.0
 10
135.778365091674
 20
132.6817389719301
 30
0.0
 10
139.5145736101834
 20
136.4179474904396
 30
0.0
 10
139.5145736101834
 20
141.0271437808165
 30
0.0
 10
139.5145736101834
 20
141.0271437808165
 30
0.0
 10
139.5145736101834
 20
141.0271437808165
 30
0.0
 10
139.5145736101834
 20
141.0271437808165
 30
0.0
 10
139.5145736101834
 20
141.0271437808165
 30
0.0
 10
139.5145736101834
 20
141.0271437808165
 30
0.0
 10
139.5145736101834
 20
141.0271437808165
 30
0.0
 10
139.5145736101834
 20
141.0271437808165
 30
0.0
 10
139.5145736101834
 20
141.0271437808165
 30
0.0
 10
139.5145736101834
 20
141.0271437808165
 30
0.0
 10
139.5145736101834
 20
141.0271437808165
 30
0.0
 10
139.5145736101834
 20
141.0271437808165
 30
0.0
 10
139.5145736101834
 20
141.0271437808165
 30
0.0
  0
SPLINE
  5
10E
330
1F
100
AcDbEntity
  8
0
 62
     7
100
AcDbSpline
210
0.0
220
0.0
230
1.0
 70
    11
 71
     3
 72
    38
 73
    34
 74
     0
 42
0.0000000001
 43
0.0000000001
 40
0.0
 40
0.0
 40
0.0
 40
0.0
 40
1.0
 40
1.0
 40
1.0
 40
2.0
 40
2.0
 40
2.0
 40
3.0
 40
3.0
 40
3.0
 40
4.0
 40
4.0
 40
4.0
 40
5.0
 40
5.0
 40
5.0
 40
6.0
 40
6.0
 40
6.0
 40
7.0
 40
7.0
 40
7.0
 40
8.0
 40
8.0
 40
8.0
 40
9.0
 40
9.0
 40
9.0
 40
10.0
 40
10.0
 40
10.0
 40
11.0
 40
11.0
 40
11.0
 40
11.0
 10
144.3625151751871
 20
152.521195685592
 30
0.0
 10
144.3625151751871
 20
153.4592958050849
 30
0.0
 10
143.6018375902292
 20
154.2199733900429
 30
0.0
 10
142.6633929609604
 20
154.2199733900429
 30
0.0
 10
142.6633929609604
 20
154.2199733900429
 30
0.0
 10
142.6633929609604
 20
154.2199733900429
 30
0.0
 10
142.6633929609604
 20
154.2199733900429
 30
0.0
 10
141.7252928414674
 20
154.2199733900429
 30
0.0
 10
140.9646152565095
 20
153.4592958050849
 30
0.0
 10
140.9646152565095
 20
152.521195685592
 30
0.0
 10
140.9646152565095
 20
152.521195685592
 30
0.0
 10
140.9646152565095
 20
152.521195685592
 30
0.0
 10
140.9646152565095
 20
152.521195685592
 30
0.0
 10
140.9646152565095
 20
151.5829233112111
 30
0.0
 10
141.7252928414674
 20
150.8222457262532
 30
0.0
 10
142.6633929609604
 20
150.8222457262532
 30
0.0
 10
142.6633929609604
 20
150.8222457262532
 30
0.0
 10
142.6633929609604
 20
150.8222457262532
 30
0.0
 10
142.6633929609604
 20
150.8222457262532
 30
0.0
 10
143.6018375902292
 20
150.8222457262532
 30
0.0
 10
144.3625151751871
 20
151.5829233112111
 30
0.0
 10
144.3625151751871
 20
152.521195685592
 30
0.0
 10
144.3625151751871
 20
152.521195685592
 30
0.0
 10
144.3625151751871
 20
152.521195685592
 30
0.0
 10
144.3625151751871
 20
152.521195685592
 30
0.0
 10
144.3625151751871
 20
152.521195685592
 30
0.0
 10
144.3625151751871
 20
152.521195685592
 30
0.0
 10
144.3625151751871
 20
152.521195685592
 30
0.0
 10
144.3625151751871
 20
152.521195685592
 30
0.0
 10
144.3625151751871
 20
152.521195685592
 30
0.0
 10
144.3625151751871
 20
152.521195685592
 30
0.0
 10
144.3625151751871
 20
152.521195685592
 30
0.0
 10
144.3625151751871
 20
152.521195685592
 30
0.0
 10
144.3625151751871
 20
152.521195685592
 30
0.0
  0
SPLINE
  5
10F
330
1F
100
AcDbEntity
  8
0
 62
     7
100
AcDbSpline
210
0.0
220
0.0
230
1.0
 70
    11
 71
     3
 72
    38
 73
    34
 74
     0
 42
0.0000000001
 43
0.0000000001
 40
0.0
 40
0.0
 40
0.0
 40
0.0
 40
1.0
 40
1.0
 40
1.0
 40
2.0
 40
2.0
 40
2.0
 40
3.0
 40
3.0
 40
3.0
 40
4.0
 40
4.0
 40
4.0
 40
5.0
 40
5.0
 40
5.0
 40
6.0
 40
6.0
 40
6.0
 40
7.0
 40
7.0
 40
7.0
 40
8.0
 40
8.0
 40
8.0
 40
9.0
 40
9.0
 40
9.0
 40
10.0
 40
10.0
 40
10.0
 40
11.0
 40
11.0
 40
11.0
 40
11.0
 10
144.3625151751871
 20
129.5336086407047
 30
0.0
 10
144.3625151751871
 20
130.4717087601977
 30
0.0
 10
143.6018375902292
 20
131.2323863451556
 30
0.0
 10
142.6633929609604
 20
131.2323863451556
 30
0.0
 10
142.6633929609604
 20
131.2323863451556
 30
0.0
 10
142.6633929609604
 20
131.2323863451556
 30
0.0
 10
142.6633929609604
 20
131.2323863451556
 30
0.0
 10
141.7252928414674
 20
131.2323863451556
 30
0.0
 10
140.9646152565095
 20
130.4717087601977
 30
0.0
 10
140.9646152565095
 20
129.5336086407047
 30
0.0
 10
140.9646152565095
 20
129.5336086407047
 30
0.0
 10
140.9646152565095
 20
129.5336086407047
 30
0.0
 10
140.9646152565095
 20
129.5336086407047
 30
0.0
 10
140.9646152565095
 20
128.5951640114359
 30
0.0
 10
141.7252928414674
 20
127.834486426478
 30
0.0
 10
142.6633929609604
 20
127.834486426478
 30
0.0
 10
142.6633929609604
 20
127.834486426478
 30
0.0
 10
142.6633929609604
 20
127.834486426478
 30
0.0
 10
142.6633929609604
 20
127.834486426478
 30
0.0
 10
143.6018375902292
 20
127.834486426478
 30
0.0
 10
144.3625151751871
 20
128.5951640114359
 30
0.0
 10
144.3625151751871
 20
129.5336086407047
 30
0.0
 10
144.3625151751871
 20
129.5336086407047
 30
0.0
 10
144.3625151751871
 20
129.5336086407047
 30
0.0
 10
144.3625151751871
 20
129.5336086407047
 30
0.0
 10
144.3625151751871
 20
129.5336086407047
 30
0.0
 10
144.3625151751871
 20
129.5336086407047
 30
0.0
 10
144.3625151751871
 20
129.5336086407047
 30
0.0
 10
144.3625151751871
 20
129.5336086407047
 30
0.0
 10
144.3625151751871
 20
129.5336086407047
 30
0.0
 10
144.3625151751871
 20
129.5336086407047
 30
0.0
 10
144.3625151751871
 20
129.5336086407047
 30
0.0
 10
144.3625151751871
 20
129.5336086407047
 30
0.0
 10
144.3625151751871
 20
129.5336086407047
 30
0.0
  0
SPLINE
  5
110
330
1F
100
AcDbEntity
  8
0
 62
     7
100
AcDbSpline
210
0.0
220
0.0
230
1.0
 70
    11
 71
     3
 72
    38
 73
    34
 74
     0
 42
0.0000000001
 43
0.0000000001
 40
0.0
 40
0.0
 40
0.0
 40
0.0
 40
1.0
 40
1.0
 40
1.0
 40
2.0
 40
2.0
 40
2.0
 40
3.0
 40
3.0
 40
3.0
 40
4.0
 40
4.0
 40
4.0
 40
5.0
 40
5.0
 40
5.0
 40
6.0
 40
6.0
 40
6.0
 40
7.0
 40
7.0
 40
7.0
 40
8.0
 40
8.0
 40
8.0
 40
9.0
 40
9.0
 40
9.0
 40
10.0
 40
10.0
 40
10.0
 40
11.0
 40
11.0
 40
11.0
 40
11.0
 10
121.3747558754119
 20
129.5336086407047
 30
0.0
 10
121.3747558754119
 20
130.4720532699735
 30
0.0
 10
120.614078290454
 20
131.2327308549314
 30
0.0
 10
119.6756336611852
 20
131.2327308549314
 30
0.0
 10
119.6756336611852
 20
131.2327308549314
 30
0.0
 10
119.6756336611852
 20
131.2327308549314
 30
0.0
 10
119.6756336611852
 20
131.2327308549314
 30
0.0
 10
118.7371890319165
 20
131.2327308549314
 30
0.0
 10
117.9761669371827
 20
130.4720532699735
 30
0.0
 10
117.9761669371827
 20
129.5336086407047
 30
0.0
 10
117.9761669371827
 20
129.5336086407047
 30
0.0
 10
117.9761669371827
 20
129.5336086407047
 30
0.0
 10
117.9761669371827
 20
129.5336086407047
 30
0.0
 10
117.9761669371827
 20
128.5951640114359
 30
0.0
 10
118.7371890319165
 20
127.8341419167022
 30
0.0
 10
119.6756336611852
 20
127.8341419167022
 30
0.0
 10
119.6756336611852
 20
127.8341419167022
 30
0.0
 10
119.6756336611852
 20
127.8341419167022
 30
0.0
 10
119.6756336611852
 20
127.8341419167022
 30
0.0
 10
120.614078290454
 20
127.8341419167022
 30
0.0
 10
121.3747558754119
 20
128.5951640114359
 30
0.0
 10
121.3747558754119
 20
129.5336086407047
 30
0.0
 10
121.3747558754119
 20
129.5336086407047
 30
0.0
 10
121.3747558754119
 20
129.5336086407047
 30
0.0
 10
121.3747558754119
 20
129.5336086407047
 30
0.0
 10
121.3747558754119
 20
129.5336086407047
 30
0.0
 10
121.3747558754119
 20
129.5336086407047
 30
0.0
 10
121.3747558754119
 20
129.5336086407047
 30
0.0
 10
121.3747558754119
 20
129.5336086407047
 30
0.0
 10
121.3747558754119
 20
129.5336086407047
 30
0.0
 10
121.3747558754119
 20
129.5336086407047
 30
0.0
 10
121.3747558754119
 20
129.5336086407047
 30
0.0
 10
121.3747558754119
 20
129.5336086407047
 30
0.0
 10
121.3747558754119
 20
129.5336086407047
 30
0.0
  0
SPLINE
  5
111
330
1F
100
AcDbEntity
  8
0
 62
     7
100
AcDbSpline
210
0.0
220
0.0
230
1.0
 70
    11
 71
     3
 72
    38
 73
    34
 74
     0
 42
0.0000000001
 43
0.0000000001
 40
0.0
 40
0.0
 40
0.0
 40
0.0
 40
1.0
 40
1.0
 40
1.0
 40
2.0
 40
2.0
 40
2.0
 40
3.0
 40
3.0
 40
3.0
 40
4.0
 40
4.0
 40
4.0
 40
5.0
 40
5.0
 40
5.0
 40
6.0
 40
6.0
 40
6.0
 40
7.0
 40
7.0
 40
7.0
 40
8.0
 40
8.0
 40
8.0
 40
9.0
 40
9.0
 40
9.0
 40
10.0
 40
10.0
 40
10.0
 40
11.0
 40
11.0
 40
11.0
 40
11.0
 10
121.3747558754119
 20
152.521195685592
 30
0.0
 10
121.3747558754119
 20
153.4596403148607
 30
0.0
 10
120.614078290454
 20
154.2203178998187
 30
0.0
 10
119.6756336611852
 20
154.2203178998187
 30
0.0
 10
119.6756336611852
 20
154.2203178998187
 30
0.0
 10
119.6756336611852
 20
154.2203178998187
 30
0.0
 10
119.6756336611852
 20
154.2203178998187
 30
0.0
 10
118.7371890319165
 20
154.2203178998187
 30
0.0
 10
117.9761669371827
 20
153.4596403148607
 30
0.0
 10
117.9761669371827
 20
152.521195685592
 30
0.0
 10
117.9761669371827
 20
152.521195685592
 30
0.0
 10
117.9761669371827
 20
152.521195685592
 30
0.0
 10
117.9761669371827
 20
152.521195685592
 30
0.0
 10
117.9761669371827
 20
151.5827510563232
 30
0.0
 10
118.7371890319165
 20
150.8219012164774
 30
0.0
 10
119.6756336611852
 20
150.8219012164774
 30
0.0
 10
119.6756336611852
 20
150.8219012164774
 30
0.0
 10
119.6756336611852
 20
150.8219012164774
 30
0.0
 10
119.6756336611852
 20
150.8219012164774
 30
0.0
 10
120.614078290454
 20
150.8219012164774
 30
0.0
 10
121.3747558754119
 20
151.5827510563232
 30
0.0
 10
121.3747558754119
 20
152.521195685592
 30
0.0
 10
121.3747558754119
 20
152.521195685592
 30
0.0
 10
121.3747558754119
 20
152.521195685592
 30
0.0
 10
121.3747558754119
 20
152.521195685592
 30
0.0
 10
121.3747558754119
 20
152.521195685592
 30
0.0
 10
121.3747558754119
 20
152.521195685592
 30
0.0
 10
121.3747558754119
 20
152.521195685592
 30
0.0
 10
121.3747558754119
 20
152.521195685592
 30
0.0
 10
121.3747558754119
 20
152.521195685592
 30
0.0
 10
121.3747558754119
 20
152.521195685592
 30
0.0
 10
121.3747558754119
 20
152.521195685592
 30
0.0
 10
121.3747558754119
 20
152.521195685592
 30
0.0
 10
121.3747558754119
 20
152.521195685592
 30
0.0
  0
POLYLINE
  5
112
330
1F
100
AcDbEntity
  8
0
 62
     7
100
AcDb2dPolyline
 66
     1
 10
0.0
 20
0.0
 30
0.0
  0
VERTEX
  5
113
330
112
100
AcDbEntity
  8
0
 62
     7
100
AcDbVertex
100
AcDb2dVertex
 10
130.1201365339977
 20
153.0210793702722
 30
0.0
  0
VERTEX
  5
114
330
112
100
AcDbEntity
  8
0
 62
     7
100
AcDbVertex
100
AcDb2dVertex
 10
132.218890088148
 20
153.0210793702722
 30
0.0
  0
SEQEND
  5
115
330
112
100
AcDbEntity
  8
0
  0
SPLINE
  5
116
330
1F
100
AcDbEntity
  8
0
 62
     7
100
AcDbSpline
210
0.0
220
0.0
230
1.0
 70
     8
 71
     3
 72
     8
 73
     4
 74
     0
 42
0.0000000001
 43
0.0000000001
 40
0.0
 40
0.0
 40
0.0
 40
0.0
 40
1.0
 40
1.0
 40
1.0
 40
1.0
 10
132.4190502678855
 20
152.8209191905347
 30
0.0
 10
132.4190502678855
 20
152.9316790834531
 30
0.0
 10
132.3294777261785
 20
153.0210793702722
 30
0.0
 10
132.218890088148
 20
153.0210793702722
 30
0.0
  0
SPLINE
  5
117
330
1F
100
AcDbEntity
  8
0
 62
     7
100
AcDbSpline
210
0.0
220
0.0
230
1.0
 70
     8
 71
     3
 72
     8
 73
     4
 74
     0
 42
0.0000000001
 43
0.0000000001
 40
0.0
 40
0.0
 40
0.0
 40
0.0
 40
1.0
 40
1.0
 40
1.0
 40
1.0
 10
130.1201365339977
 20
153.0210793702722
 30
0.0
 10
130.0098934057429
 20
153.0210793702722
 30
0.0
 10
129.9203208640359
 20
152.9316790834531
 30
0.0
 10
129.9203208640359
 20
152.8209191905347
 30
0.0
  0
POLYLINE
  5
118
330
1F
100
AcDbEntity
  8
0
 62
     7
100
AcDb2dPolyline
 66
     1
 10
0.0
 20
0.0
 30
0.0
  0
VERTEX
  5
119
330
118
100
AcDbEntity
  8
0
 62
     7
100
AcDbVertex
100
AcDb2dVertex
 10
132.4190502678855
 20
152.8209191905347
 30
0.0
  0
VERTEX
  5
11A
330
118
100
AcDbEntity
  8
0
 62
     7
100
AcDbVertex
100
AcDb2dVertex
 10
132.4190502678855
 20
152.3515246210124
 30
0.0
  0
SEQEND
  5
11B
330
118
100
AcDbEntity
  8
0
  0
POLYLINE
  5
11C
330
1F
100
AcDbEntity
  8
0
 62
     7
100
AcDb2dPolyline
 66
     1
 10
0.0
 20
0.0
 30
0.0
  0
VERTEX
  5
11D
330
11C
100
AcDbEntity
  8
0
 62
     7
100
AcDbVertex
100
AcDb2dVertex
 10
129.9203208640359
 20
152.8209191905347
 30
0.0
  0
VERTEX
  5
11E
330
11C
100
AcDbEntity
  8
0
 62
     7
100
AcDbVertex
100
AcDb2dVertex
 10
129.9203208640359
 20
152.3515246210124
 30
0.0
  0
SEQEND
  5
11F
330
11C
100
AcDbEntity
  8
0
  0
POLYLINE
  5
120
330
1F
100
AcDbEntity
  8
0
 62
     7
100
AcDb2dPolyline
 66
     1
 10
0.0
 20
0.0
 30
0.0
  0
VERTEX
  5
121
330
120
100
AcDbEntity
  8
0
 62
     7
100
AcDbVertex
100
AcDb2dVertex
 10
129.5706434416028
 20
150.1874864643487
 30
0.0
  0
VERTEX
  5
122
330
120
100
AcDbEntity
  8
0
 62
     7
100
AcDbVertex
100
AcDb2dVertex
 10
129.5706434416028
 20
149.2226868372315
 30
0.0
  0
SEQEND
  5
123
330
120
100
AcDbEntity
  8
0
  0
POLYLINE
  5
124
330
1F
100
AcDbEntity
  8
0
 62
     7
100
AcDb2dPolyline
 66
     1
 10
0.0
 20
0.0
 30
0.0
  0
VERTEX
  5
125
330
124
100
AcDbEntity
  8
0
 62
     7
100
AcDbVertex
100
AcDb2dVertex
 10
132.7687276903186
 20
150.1874864643487
 30
0.0
  0
VERTEX
  5
126
330
124
100
AcDbEntity
  8
0
 62
     7
100
AcDbVertex
100
AcDb2dVertex
 10
132.7687276903186
 20
149.2226868372315
 30
0.0
  0
SEQEND
  5
127
330
124
100
AcDbEntity
  8
0
  0
POLYLINE
  5
128
330
1F
100
AcDbEntity
  8
0
 62
     7
100
AcDb2dPolyline
 66
     1
 10
0.0
 20
0.0
 30
0.0
  0
VERTEX
  5
129
330
128
100
AcDbEntity
  8
0
 62
     7
100
AcDbVertex
100
AcDb2dVertex
 10
126.9764848298576
 20
130.4327791555327
 30
0.0
  0
VERTEX
  5
12A
330
128
100
AcDbEntity
  8
0
 62
     7
100
AcDbVertex
100
AcDb2dVertex
 10
135.3670204193733
 20
130.4327791555327
 30
0.0
  0
SEQEND
  5
12B
330
128
100
AcDbEntity
  8
0
  0
POLYLINE
  5
12C
330
1F
100
AcDbEntity
  8
0
 62
     7
100
AcDb2dPolyline
 66
     1
 10
0.0
 20
0.0
 30
0.0
  0
VERTEX
  5
12D
330
12C
100
AcDbEntity
  8
0
 62
     7
100
AcDbVertex
100
AcDb2dVertex
 10
142.4387725871413
 20
142.6914705076878
 30
0.0
  0
VERTEX
  5
12E
330
12C
100
AcDbEntity
  8
0
 62
     7
100
AcDbVertex
100
AcDb2dVertex
 10
138.2457441059261
 20
149.9575261890048
 30
0.0
  0
SEQEND
  5
12F
330
12C
100
AcDbEntity
  8
0
  0
POLYLINE
  5
130
330
1F
100
AcDbEntity
  8
0
 62
     7
100
AcDb2dPolyline
 66
     1
 10
0.0
 20
0.0
 30
0.0
  0
VERTEX
  5
131
330
130
100
AcDbEntity
  8
0
 62
     7
100
AcDbVertex
100
AcDb2dVertex
 10
124.0929380064437
 20
149.9575261890048
 30
0.0
  0
VERTEX
  5
132
330
130
100
AcDbEntity
  8
0
 62
     7
100
AcDbVertex
100
AcDb2dVertex
 10
119.9002540350043
 20
142.7014612911859
 30
0.0
  0
SEQEND
  5
133
330
130
100
AcDbEntity
  8
0
  0
POLYLINE
  5
134
330
1F
100
AcDbEntity
  8
0
  6
AI-LINETYPE-4
 62
     7
100
AcDb2dPolyline
 66
     1
 10
0.0
 20
0.0
 30
0.0
  0
VERTEX
  5
135
330
134
100
AcDbEntity
  8
0
  6
AI-LINETYPE-4
 62
     7
100
AcDbVertex
100
AcDb2dVertex
 10
145.3622825445476
 20
152.521195685592
 30
0.0
  0
VERTEX
  5
136
330
134
100
AcDbEntity
  8
0
  6
AI-LINETYPE-4
 62
     7
100
AcDbVertex
100
AcDb2dVertex
 10
139.9645033773732
 20
152.521195685592
 30
0.0
  0
SEQEND
  5
137
330
134
100
AcDbEntity
  8
0
  6
AI-LINETYPE-4
  0
POLYLINE
  5
139
330
1F
100
AcDbEntity
  8
0
  6
AI-LINETYPE-5
 62
     7
100
AcDb2dPolyline
 66
     1
 10
0.0
 20
0.0
 30
0.0
  0
VERTEX
  5
13A
330
139
100
AcDbEntity
  8
0
  6
AI-LINETYPE-5
 62
     7
100
AcDbVertex
100
AcDb2dVertex
 10
142.6633929609604
 20
155.2200852691792
 30
0.0
  0
VERTEX
  5
13B
330
139
100
AcDbEntity
  8
0
  6
AI-LINETYPE-5
 62
     7
100
AcDbVertex
100
AcDb2dVertex
 10
142.6633929609604
 20
149.8226506117806
 30
0.0
  0
SEQEND
  5
13C
330
139
100
AcDbEntity
  8
0
  6
AI-LINETYPE-5
  0
POLYLINE
  5
13E
330
1F
100
AcDbEntity
  8
0
  6
AI-LINETYPE-6
 62
     7
100
AcDb2dPolyline
 66
     1
 10
0.0
 20
0.0
 30
0.0
  0
VERTEX
  5
13F
330
13E
100
AcDbEntity
  8
0
  6
AI-LINETYPE-6
 62
     7
100
AcDbVertex
100
AcDb2dVertex
 10
116.9770885873738
 20
152.521195685592
 30
0.0
  0
VERTEX
  5
140
330
13E
100
AcDbEntity
  8
0
  6
AI-LINETYPE-6
 62
     7
100
AcDbVertex
100
AcDb2dVertex
 10
122.3741787349966
 20
152.521195685592
 30
0.0
  0
SEQEND
  5
141
330
13E
100
AcDbEntity
  8
0
  6
AI-LINETYPE-6
  0
POLYLINE
  5
143
330
1F
100
AcDbEntity
  8
0
  6
AI-LINETYPE-7
 62
     7
100
AcDb2dPolyline
 66
     1
 10
0.0
 20
0.0
 30
0.0
  0
VERTEX
  5
144
330
143
100
AcDbEntity
  8
0
  6
AI-LINETYPE-7
 62
     7
100
AcDbVertex
100
AcDb2dVertex
 10
119.6752891514094
 20
155.2200852691792
 30
0.0
  0
VERTEX
  5
145
330
143
100
AcDbEntity
  8
0
  6
AI-LINETYPE-7
 62
     7
100
AcDbVertex
100
AcDb2dVertex
 10
119.6752891514094
 20
149.8226506117806
 30
0.0
  0
SEQEND
  5
146
330
143
100
AcDbEntity
  8
0
  6
AI-LINETYPE-7
  0
POLYLINE
  5
148
330
1F
100
AcDbEntity
  8
0
  6
AI-LINETYPE-8
 62
     7
100
AcDb2dPolyline
 66
     1
 10
0.0
 20
0.0
 30
0.0
  0
VERTEX
  5
149
330
148
100
AcDbEntity
  8
0
  6
AI-LINETYPE-8
 62
     7
100
AcDbVertex
100
AcDb2dVertex
 10
145.3622825445476
 20
129.5336086407047
 30
0.0
  0
VERTEX
  5
14A
330
148
100
AcDbEntity
  8
0
  6
AI-LINETYPE-8
 62
     7
100
AcDbVertex
100
AcDb2dVertex
 10
139.9645033773732
 20
129.5336086407047
 30
0.0
  0
SEQEND
  5
14B
330
148
100
AcDbEntity
  8
0
  6
AI-LINETYPE-8
  0
POLYLINE
  5
14D
330
1F
100
AcDbEntity
  8
0
  6
AI-LINETYPE-9
 62
     7
100
AcDb2dPolyline
 66
     1
 10
0.0
 20
0.0
 30
0.0
  0
VERTEX
  5
14E
330
14D
100
AcDbEntity
  8
0
  6
AI-LINETYPE-9
 62
     7
100
AcDbVertex
100
AcDb2dVertex
 10
142.6633929609604
 20
126.8347190571175
 30
0.0
  0
VERTEX
  5
14F
330
14D
100
AcDbEntity
  8
0
  6
AI-LINETYPE-9
 62
     7
100
AcDbVertex
100
AcDb2dVertex
 10
142.6633929609604
 20
132.2321537145161
 30
0.0
  0
SEQEND
  5
150
330
14D
100
AcDbEntity
  8
0
  6
AI-LINETYPE-9
  0
POLYLINE
  5
152
330
1F
100
AcDbEntity
  8
0
  6
AI-LINETYPE-10
 62
     7
100
AcDb2dPolyline
 66
     1
 10
0.0
 20
0.0
 30
0.0
  0
VERTEX
  5
153
330
152
100
AcDbEntity
  8
0
  6
AI-LINETYPE-10
 62
     7
100
AcDbVertex
100
AcDb2dVertex
 10
116.9770885873738
 20
129.5336086407047
 30
0.0
  0
VERTEX
  5
154
330
152
100
AcDbEntity
  8
0
  6
AI-LINETYPE-10
 62
     7
100
AcDbVertex
100
AcDb2dVertex
 10
122.3741787349966
 20
129.5336086407047
 30
0.0
  0
SEQEND
  5
155
330
152
100
AcDbEntity
  8
0
  6
AI-LINETYPE-10
  0
POLYLINE
  5
157
330
1F
100
AcDbEntity
  8
0
  6
AI-LINETYPE-11
 62
     7
100
AcDb2dPolyline
 66
     1
 10
0.0
 20
0.0
 30
0.0
  0
VERTEX
  5
158
330
157
100
AcDbEntity
  8
0
  6
AI-LINETYPE-11
 62
     7
100
AcDbVertex
100
AcDb2dVertex
 10
119.6752891514094
 20
126.8347190571175
 30
0.0
  0
VERTEX
  5
159
330
157
100
AcDbEntity
  8
0
  6
AI-LINETYPE-11
 62
     7
100
AcDbVertex
100
AcDb2dVertex
 10
119.6752891514094
 20
132.2321537145161
 30
0.0
  0
SEQEND
  5
15A
330
157
100
AcDbEntity
  8
0
  6
AI-LINETYPE-11
  0
SPLINE
  5
15C
330
1F
100
AcDbEntity
  8
0
 62
     7
100
AcDbSpline
210
0.0
220
0.0
230
1.0
 70
    11
 71
     3
 72
    38
 73
    34
 74
     0
 42
0.0000000001
 43
0.0000000001
 40
0.0
 40
0.0
 40
0.0
 40
0.0
 40
1.0
 40
1.0
 40
1.0
 40
2.0
 40
2.0
 40
2.0
 40
3.0
 40
3.0
 40
3.0
 40
4.0
 40
4.0
 40
4.0
 40
5.0
 40
5.0
 40
5.0
 40
6.0
 40
6.0
 40
6.0
 40
7.0
 40
7.0
 40
7.0
 40
8.0
 40
8.0
 40
8.0
 40
9.0
 40
9.0
 40
9.0
 40
10.0
 40
10.0
 40
10.0
 40
11.0
 40
11.0
 40
11.0
 40
11.0
 10
138.1658178379414
 20
141.0271437808165
 30
0.0
 10
138.1658178379414
 20
144.8911654261463
 30
0.0
 10
135.0335349564026
 20
148.0234483076851
 30
0.0
 10
131.1695133110728
 20
148.0234483076851
 30
0.0
 10
131.1695133110728
 20
148.0234483076851
 30
0.0
 10
131.1695133110728
 20
148.0234483076851
 30
0.0
 10
131.1695133110728
 20
148.0234483076851
 30
0.0
 10
127.305491665743
 20
148.0234483076851
 30
0.0
 10
124.1725197646526
 20
144.8911654261463
 30
0.0
 10
124.1725197646526
 20
141.0271437808165
 30
0.0
 10
124.1725197646526
 20
141.0271437808165
 30
0.0
 10
124.1725197646526
 20
141.0271437808165
 30
0.0
 10
124.1725197646526
 20
141.0271437808165
 30
0.0
 10
124.1725197646526
 20
137.1631221354867
 30
0.0
 10
127.305491665743
 20
134.0308392539479
 30
0.0
 10
131.1695133110728
 20
134.0308392539479
 30
0.0
 10
131.1695133110728
 20
134.0308392539479
 30
0.0
 10
131.1695133110728
 20
134.0308392539479
 30
0.0
 10
131.1695133110728
 20
134.0308392539479
 30
0.0
 10
135.0335349564026
 20
134.0308392539479
 30
0.0
 10
138.1658178379414
 20
137.1631221354867
 30
0.0
 10
138.1658178379414
 20
141.0271437808165
 30
0.0
 10
138.1658178379414
 20
141.0271437808165
 30
0.0
 10
138.1658178379414
 20
141.0271437808165
 30
0.0
 10
138.1658178379414
 20
141.0271437808165
 30
0.0
 10
138.1658178379414
 20
141.0271437808165
 30
0.0
 10
138.1658178379414
 20
141.0271437808165
 30
0.0
 10
138.1658178379414
 20
141.0271437808165
 30
0.0
 10
138.1658178379414
 20
141.0271437808165
 30
0.0
 10
138.1658178379414
 20
141.0271437808165
 30
0.0
 10
138.1658178379414
 20
141.0271437808165
 30
0.0
 10
138.1658178379414
 20
141.0271437808165
 30
0.0
 10
138.1658178379414
 20
141.0271437808165
 30
0.0
 10
138.1658178379414
 20
141.0271437808165
 30
0.0
  0
MTEXT
  5
15D
330
1F
100
AcDbEntity
  8
0
 62
     7
100
AcDbMText
 10
63.53311481322628
 20
167.5003084823215
 30
0.0
 40
3.15097128533629
 41
0.0
 71
     7
 72
     1
  1
\fMS Gothic|b0|i0|c0|p34;\W1;FA-20*-RF
  0
ENDSEC
  0
SECTION
  2
OBJECTS
  0
DICTIONARY
  5
C
330
0
100
AcDbDictionary
  3
ACAD_GROUP
350
D
  3
ACAD_LAYOUT
350
1A
  3
ACAD_MLINESTYLE
350
17
  3
ACAD_PLOTSETTINGS
350
19
  3
ACAD_TABLESTYLE
350
15E
  3
ACAD_VISUALSTYLE
350
2A
  3
ACDBHEADERROUNDTRIPXREC
350
15F
  0
DICTIONARY
  5
17F
330
29
100
AcDbDictionary
280
     1
  3
ACAD_XREC_ROUNDTRIP
360
180
  0
DICTIONARY
  5
D
102
{ACAD_REACTORS
330
C
102
}
330
C
100
AcDbDictionary
  0
DICTIONARY
  5
1A
102
{ACAD_REACTORS
330
C
102
}
330
C
100
AcDbDictionary
  0
DICTIONARY
  5
17
102
{ACAD_REACTORS
330
C
102
}
330
C
100
AcDbDictionary
  3
STANDARD
350
18
  0
DICTIONARY
  5
19
102
{ACAD_REACTORS
330
C
102
}
330
C
100
AcDbDictionary
  0
DICTIONARY
  5
15E
102
{ACAD_REACTORS
330
C
102
}
330
C
100
AcDbDictionary
  0
DICTIONARY
  5
2A
102
{ACAD_REACTORS
330
C
102
}
330
C
100
AcDbDictionary
  3
2DWIREFRAME
350
2F
  3
3D_HIDDEN
350
31
  3
3DWIREFRAME
350
30
  3
BASIC
350
32
  3
BRIGHTEN
350
36
  3
COLORCHANGE
350
3A
  3
CONCEPTUAL
350
34
  3
DIM
350
35
  3
FACEPATTERN
350
39
  3
FLAT
350
2B
  3
FLATWITHEDGES
350
2C
  3
GOURAUD
350
2D
  3
GOURAUDWITHEDGES
350
2E
  3
LINEPATTERN
350
38
  3
REALISTIC
350
33
  3
THICKEN
350
37
  0
DICTIONARY
  5
15F
102
{ACAD_REACTORS
330
C
102
}
330
C
100
AcDbDictionary
  3
CEPSNTYPE
350
168
  3
DIMSTYLEDATA
350
17E
  3
FINGERPRINTGUID
350
169
  3
HYPERLINKBASE
350
162
  3
INSUNITS
350
167
  3
LAYOUTDICT
350
164
  3
LWETCUNION
350
166
  3
PLOTSETDICT
350
165
  3
PSVPSCALE
350
16B
  3
PUCSBASE
350
16E
  3
PUCSORGBACK
350
174
  3
PUCSORGBOTTOM
350
170
  3
PUCSORGFRONT
350
173
  3
PUCSORGLEFT
350
171
  3
PUCSORGRIGHT
350
172
  3
PUCSORGTOP
350
16F
  3
PUCSORTHOREF
350
16C
  3
PUCSORTHOVIEW
350
16D
  3
STYLESHEET
350
163
  3
TSTACKALIGN
350
160
  3
TSTACKSIZE
350
161
  3
UCSBASE
350
177
  3
UCSORGBACK
350
17D
  3
UCSORGBOTTOM
350
179
  3
UCSORGFRONT
350
17C
  3
UCSORGLEFT
350
17A
  3
UCSORGRIGHT
350
17B
  3
UCSORGTOP
350
178
  3
UCSORTHOREF
350
175
  3
UCSORTHOVIEW
350
176
  3
VERSIONGUID
350
16A
  0
XRECORD
  5
180
102
{ACAD_REACTORS
330
17F
102
}
330
17F
100
AcDbXrecord
102
UCS
 74
     0
 71
     1
 10
0.0
 20
0.0
 30
0.0
 10
1.0
 20
0.0
 30
0.0
 10
0.0
 20
1.0
 30
0.0
146
0.0
 79
     0
102
VIEW
281
     0
  0
MLINESTYLE
  5
18
102
{ACAD_REACTORS
330
17
102
}
330
17
100
AcDbMlineStyle
  2
Standard
 70
     0
  3

 62
   256
 51
90.0
 52
90.0
 71
     2
 49
0.5
 62
   256
  6
BYLAYER
 49
-0.5
 62
   256
  6
BYLAYER
  0
ACAD_PROXY_OBJECT_WRAPPER
  5
2F
102
{ACAD_REACTORS
330
2A
102
}
330
2A
100
AcDbVisualStyle
  2
2dWireframe
 70
     4
 71
     0
 72
     2
 73
     0
 90
        0
 40
-0.6
 41
-30.0
 62
     5
 63
     7
421
 16777215
 74
     1
 91
        4
 64
     7
 65
   257
 75
     1
175
     1
 42
1.0
 92
        0
 66
   257
 43
1.0
 76
     1
 77
     6
 78
     2
 67
     7
 79
     5
170
     0
171
     0
290
     0
174
     0
 93
        1
 44
0.0
173
     0
291
     0
 45
0.0
1001
ACAD
1000
AcDbSavedByObjectVersion
1070
     0
1000
AcadProxyRoundTripData
1071
      501
1071
       25
1070
     1
  0
ACAD_PROXY_OBJECT_WRAPPER
  5
31
102
{ACAD_REACTORS
330
2A
102
}
330
2A
100
AcDbVisualStyle
  2
3D Hidden
 70
     6
 71
     1
 72
     2
 73
     2
 90
        0
 40
-0.6
 41
-30.0
 62
     5
 63
     7
421
 16777215
 74
     2
 91
        2
 64
     7
 65
   257
 75
     2
175
     1
 42
40.0
 92
        0
 66
   257
 43
1.0
 76
     1
 77
     6
 78
     2
 67
     7
 79
     3
170
     0
171
     0
290
     0
174
     0
 93
        1
 44
0.0
173
     0
291
     0
 45
0.0
1001
ACAD
1000
AcDbSavedByObjectVersion
1070
     0
1000
AcadProxyRoundTripData
1071
      501
1071
       25
1070
     1
  0
ACAD_PROXY_OBJECT_WRAPPER
  5
30
102
{ACAD_REACTORS
330
2A
102
}
330
2A
100
AcDbVisualStyle
  2
3dWireframe
 70
     5
 71
     0
 72
     2
 73
     0
 90
        0
 40
-0.6
 41
-30.0
 62
     5
 63
     7
421
 16777215
 74
     1
 91
        4
 64
     7
 65
   257
 75
     1
175
     1
 42
1.0
 92
        0
 66
   257
 43
1.0
 76
     1
 77
     6
 78
     2
 67
     7
 79
     5
170
     0
171
     0
290
     0
174
     0
 93
        1
 44
0.0
173
     0
291
     0
 45
0.0
1001
ACAD
1000
AcDbSavedByObjectVersion
1070
     0
1000
AcadProxyRoundTripData
1071
      501
1071
       25
1070
     1
  0
ACAD_PROXY_OBJECT_WRAPPER
  5
32
102
{ACAD_REACTORS
330
2A
102
}
330
2A
100
AcDbVisualStyle
  2
Basic
 70
     7
 71
     1
 72
     0
 73
     1
 90
        0
 40
-0.6
 41
-30.0
 62
     5
 63
     7
421
 16777215
 74
     0
 91
        4
 64
     7
 65
   257
 75
     1
175
     1
 42
1.0
 92
        8
 66
     7
 43
1.0
 76
     1
 77
     6
 78
     2
 67
     7
 79
     5
170
     0
171
     0
290
     0
174
     0
 93
        1
 44
0.0
173
     0
291
     1
 45
0.0
1001
ACAD
1000
AcDbSavedByObjectVersion
1070
     0
1000
AcadProxyRoundTripData
1071
      501
1071
       25
1070
     1
  0
ACAD_PROXY_OBJECT_WRAPPER
  5
36
102
{ACAD_REACTORS
330
2A
102
}
330
2A
100
AcDbVisualStyle
  2
Brighten
 70
    12
 71
     2
 72
     2
 73
     0
 90
        0
 40
-0.6
 41
-30.0
 62
     5
 63
     7
421
 16777215
 74
     1
 91
        4
 64
     7
 65
   257
 75
     1
175
     1
 42
1.0
 92
        8
 66
     7
 43
1.0
 76
     1
 77
     6
 78
     2
 67
     7
 79
     5
170
     0
171
     0
290
     0
174
     0
 93
        1
 44
50.0
173
     0
291
     1
 45
0.0
1001
ACAD
1000
AcDbSavedByObjectVersion
1070
     0
1000
AcadProxyRoundTripData
1071
      501
1071
       25
1070
     1
  0
ACAD_PROXY_OBJECT_WRAPPER
  5
3A
102
{ACAD_REACTORS
330
2A
102
}
330
2A
100
AcDbVisualStyle
  2
ColorChange
 70
    16
 71
     2
 72
     2
 73
     3
 90
        0
 40
-0.6
 41
-30.0
 62
     5
 63
     8
421
  8421504
 74
     1
 91
        4
 64
     7
 65
   257
 75
     1
175
     1
 42
1.0
 92
        8
 66
     8
424
  8421504
 43
1.0
 76
     1
 77
     6
 78
     2
 67
     7
 79
     5
170
     0
171
     0
290
     0
174
     0
 93
        1
 44
0.0
173
     0
291
     1
 45
0.0
1001
ACAD
1000
AcDbSavedByObjectVersion
1070
     0
1000
AcadProxyRoundTripData
1071
      501
1071
       25
1070
     1
  0
ACAD_PROXY_OBJECT_WRAPPER
  5
34
102
{ACAD_REACTORS
330
2A
102
}
330
2A
100
AcDbVisualStyle
  2
Conceptual
 70
     9
 71
     3
 72
     2
 73
     0
 90
        0
 40
-0.6
 41
-30.0
 62
     5
 63
     7
421
 16777215
 74
     2
 91
        2
 64
     7
 65
   257
 75
     1
175
     1
 42
40.0
 92
        8
 66
     7
 43
1.0
 76
     1
 77
     6
 78
     2
 67
     7
 79
     3
170
     0
171
     0
290
     0
174
     0
 93
        1
 44
0.0
173
     0
291
     0
 45
0.0
1001
ACAD
1000
AcDbSavedByObjectVersion
1070
     0
1000
AcadProxyRoundTripData
1071
      501
1071
       25
1070
     1
  0
ACAD_PROXY_OBJECT_WRAPPER
  5
35
102
{ACAD_REACTORS
330
2A
102
}
330
2A
100
AcDbVisualStyle
  2
Dim
 70
    11
 71
     2
 72
     2
 73
     0
 90
        0
 40
-0.6
 41
-30.0
 62
     5
 63
     7
421
 16777215
 74
     1
 91
        4
 64
     7
 65
   257
 75
     1
175
     1
 42
1.0
 92
        8
 66
     7
 43
1.0
 76
     1
 77
     6
 78
     2
 67
     7
 79
     5
170
     0
171
     0
290
     0
174
     0
 93
        1
 44
-50.0
173
     0
291
     1
 45
0.0
1001
ACAD
1000
AcDbSavedByObjectVersion
1070
     0
1000
AcadProxyRoundTripData
1071
      501
1071
       25
1070
     1
  0
ACAD_PROXY_OBJECT_WRAPPER
  5
39
102
{ACAD_REACTORS
330
2A
102
}
330
2A
100
AcDbVisualStyle
  2
Facepattern
 70
    15
 71
     2
 72
     2
 73
     0
 90
        0
 40
-0.6
 41
-30.0
 62
     5
 63
     7
421
 16777215
 74
     1
 91
        4
 64
     7
 65
   257
 75
     1
175
     1
 42
1.0
 92
        8
 66
     7
 43
1.0
 76
     1
 77
     6
 78
     2
 67
     7
 79
     5
170
     0
171
     0
290
     0
174
     0
 93
        1
 44
0.0
173
     0
291
     1
 45
0.0
1001
ACAD
1000
AcDbSavedByObjectVersion
1070
     0
1000
AcadProxyRoundTripData
1071
      501
1071
       25
1070
     1
  0
ACAD_PROXY_OBJECT_WRAPPER
  5
2B
102
{ACAD_REACTORS
330
2A
102
}
330
2A
100
AcDbVisualStyle
  2
Flat
 70
     0
 71
     2
 72
     1
 73
     1
 90
        2
 40
-0.6
 41
30.0
 62
     5
 63
     7
421
 16777215
 74
     0
 91
        4
 64
     7
 65
   257
 75
     1
175
     1
 42
1.0
 92
        8
 66
     7
 43
1.0
 76
     1
 77
     6
 78
     2
 67
     7
 79
     5
170
     0
171
     0
290
     0
174
     0
 93
       13
 44
0.0
173
     0
291
     1
 45
0.0
1001
ACAD
1000
AcDbSavedByObjectVersion
1070
     0
1000
AcadProxyRoundTripData
1071
      501
1071
       25
1070
     1
  0
ACAD_PROXY_OBJECT_WRAPPER
  5
2C
102
{ACAD_REACTORS
330
2A
102
}
330
2A
100
AcDbVisualStyle
  2
FlatWithEdges
 70
     1
 71
     2
 72
     1
 73
     1
 90
        2
 40
-0.6
 41
30.0
 62
     5
 63
     7
421
 16777215
 74
     1
 91
        4
 64
     7
 65
   257
 75
     1
175
     1
 42
1.0
 92
        0
 66
   257
 43
1.0
 76
     1
 77
     6
 78
     2
 67
     7
 79
     5
170
     0
171
     0
290
     0
174
     0
 93
       13
 44
0.0
173
     0
291
     1
 45
0.0
1001
ACAD
1000
AcDbSavedByObjectVersion
1070
     0
1000
AcadProxyRoundTripData
1071
      501
1071
       25
1070
     1
  0
ACAD_PROXY_OBJECT_WRAPPER
  5
2D
102
{ACAD_REACTORS
330
2A
102
}
330
2A
100
AcDbVisualStyle
  2
Gouraud
 70
     2
 71
     2
 72
     2
 73
     1
 90
        2
 40
-0.6
 41
30.0
 62
     5
 63
     7
421
 16777215
 74
     0
 91
        4
 64
     7
 65
   257
 75
     1
175
     1
 42
1.0
 92
        0
 66
     7
 43
1.0
 76
     1
 77
     6
 78
     2
 67
     7
 79
     5
170
     0
171
     0
290
     0
174
     0
 93
       13
 44
0.0
173
     0
291
     1
 45
0.0
1001
ACAD
1000
AcDbSavedByObjectVersion
1070
     0
1000
AcadProxyRoundTripData
1071
      501
1071
       25
1070
     1
  0
ACAD_PROXY_OBJECT_WRAPPER
  5
2E
102
{ACAD_REACTORS
330
2A
102
}
330
2A
100
AcDbVisualStyle
  2
GouraudWithEdges
 70
     3
 71
     2
 72
     2
 73
     1
 90
        2
 40
-0.6
 41
30.0
 62
     5
 63
     7
421
 16777215
 74
     1
 91
        4
 64
     7
 65
   257
 75
     1
175
     1
 42
1.0
 92
        0
 66
   257
 43
1.0
 76
     1
 77
     6
 78
     2
 67
     7
 79
     5
170
     0
171
     0
290
     0
174
     0
 93
       13
 44
0.0
173
     0
291
     1
 45
0.0
1001
ACAD
1000
AcDbSavedByObjectVersion
1070
     0
1000
AcadProxyRoundTripData
1071
      501
1071
       25
1070
     1
  0
ACAD_PROXY_OBJECT_WRAPPER
  5
38
102
{ACAD_REACTORS
330
2A
102
}
330
2A
100
AcDbVisualStyle
  2
Linepattern
 70
    14
 71
     2
 72
     2
 73
     0
 90
        0
 40
-0.6
 41
-30.0
 62
     5
 63
     7
421
 16777215
 74
     1
 91
        4
 64
     7
 65
   257
 75
     7
175
     7
 42
1.0
 92
        8
 66
     7
 43
1.0
 76
     1
 77
     6
 78
     2
 67
     7
 79
     5
170
     0
171
     0
290
     0
174
     0
 93
        1
 44
0.0
173
     0
291
     1
 45
0.0
1001
ACAD
1000
AcDbSavedByObjectVersion
1070
     0
1000
AcadProxyRoundTripData
1071
      501
1071
       25
1070
     1
  0
ACAD_PROXY_OBJECT_WRAPPER
  5
33
102
{ACAD_REACTORS
330
2A
102
}
330
2A
100
AcDbVisualStyle
  2
Realistic
 70
     8
 71
     2
 72
     2
 73
     0
 90
        0
 40
-0.6
 41
-30.0
 62
     5
 63
     7
421
 16777215
 74
     1
 91
        0
 64
     7
 65
   257
 75
     1
175
     1
 42
1.0
 92
        8
 66
     8
424
  7895160
 43
1.0
 76
     1
 77
     6
 78
     2
 67
     7
 79
     5
170
     0
171
     0
290
     0
174
     0
 93
       13
 44
0.0
173
     0
291
     0
 45
0.0
1001
ACAD
1000
AcDbSavedByObjectVersion
1070
     0
1000
AcadProxyRoundTripData
1071
      501
1071
       25
1070
     1
  0
ACAD_PROXY_OBJECT_WRAPPER
  5
37
102
{ACAD_REACTORS
330
2A
102
}
330
2A
100
AcDbVisualStyle
  2
Thicken
 70
    13
 71
     2
 72
     2
 73
     0
 90
        0
 40
-0.6
 41
-30.0
 62
     5
 63
     7
421
 16777215
 74
     1
 91
        4
 64
     7
 65
   257
 75
     1
175
     1
 42
1.0
 92
       12
 66
     7
 43
1.0
 76
     1
 77
     6
 78
     2
 67
     7
 79
     5
170
     0
171
     0
290
     0
174
     0
 93
        1
 44
0.0
173
     0
291
     1
 45
0.0
1001
ACAD
1000
AcDbSavedByObjectVersion
1070
     0
1000
AcadProxyRoundTripData
1071
      501
1071
       25
1070
     1
  0
XRECORD
  5
168
102
{ACAD_REACTORS
330
15F
102
}
330
15F
100
AcDbXrecord
 90
        0
  0
XRECORD
  5
17E
102
{ACAD_REACTORS
330
15F
102
}
330
15F
100
AcDbXrecord
1000
DSTYLE
1002
{
1070
   340
340
11
1002
}
  0
XRECORD
  5
169
102
{ACAD_REACTORS
330
15F
102
}
330
15F
100
AcDbXrecord
  1
{CD0B8E90-1EF2-4FDA-88D4-E30237326D6D}
  0
XRECORD
  5
162
102
{ACAD_REACTORS
330
15F
102
}
330
15F
100
AcDbXrecord
  1

  0
XRECORD
  5
167
102
{ACAD_REACTORS
330
15F
102
}
330
15F
100
AcDbXrecord
 90
        1
  0
XRECORD
  5
164
102
{ACAD_REACTORS
330
15F
102
}
330
15F
100
AcDbXrecord
340
1A
  0
XRECORD
  5
166
102
{ACAD_REACTORS
330
15F
102
}
330
15F
100
AcDbXrecord
 90
    10269
  0
XRECORD
  5
165
102
{ACAD_REACTORS
330
15F
102
}
330
15F
100
AcDbXrecord
340
19
  0
XRECORD
  5
16B
102
{ACAD_REACTORS
330
15F
102
}
330
15F
100
AcDbXrecord
 40
0.0
  0
XRECORD
  5
16E
102
{ACAD_REACTORS
330
15F
102
}
330
15F
100
AcDbXrecord
340
0
  0
XRECORD
  5
174
102
{ACAD_REACTORS
330
15F
102
}
330
15F
100
AcDbXrecord
 10
0.0
 20
0.0
 30
0.0
  0
XRECORD
  5
170
102
{ACAD_REACTORS
330
15F
102
}
330
15F
100
AcDbXrecord
 10
0.0
 20
0.0
 30
0.0
  0
XRECORD
  5
173
102
{ACAD_REACTORS
330
15F
102
}
330
15F
100
AcDbXrecord
 10
0.0
 20
0.0
 30
0.0
  0
XRECORD
  5
171
102
{ACAD_REACTORS
330
15F
102
}
330
15F
100
AcDbXrecord
 10
0.0
 20
0.0
 30
0.0
  0
XRECORD
  5
172
102
{ACAD_REACTORS
330
15F
102
}
330
15F
100
AcDbXrecord
 10
0.0
 20
0.0
 30
0.0
  0
XRECORD
  5
16F
102
{ACAD_REACTORS
330
15F
102
}
330
15F
100
AcDbXrecord
 10
0.0
 20
0.0
 30
0.0
  0
XRECORD
  5
16C
102
{ACAD_REACTORS
330
15F
102
}
330
15F
100
AcDbXrecord
340
0
  0
XRECORD
  5
16D
102
{ACAD_REACTORS
330
15F
102
}
330
15F
100
AcDbXrecord
 70
     0
  0
XRECORD
  5
163
102
{ACAD_REACTORS
330
15F
102
}
330
15F
100
AcDbXrecord
  1

  0
XRECORD
  5
160
102
{ACAD_REACTORS
330
15F
102
}
330
15F
100
AcDbXrecord
 90
        1
  0
XRECORD
  5
161
102
{ACAD_REACTORS
330
15F
102
}
330
15F
100
AcDbXrecord
 90
       70
  0
XRECORD
  5
177
102
{ACAD_REACTORS
330
15F
102
}
330
15F
100
AcDbXrecord
340
0
  0
XRECORD
  5
17D
102
{ACAD_REACTORS
330
15F
102
}
330
15F
100
AcDbXrecord
 10
0.0
 20
0.0
 30
0.0
  0
XRECORD
  5
179
102
{ACAD_REACTORS
330
15F
102
}
330
15F
100
AcDbXrecord
 10
0.0
 20
0.0
 30
0.0
  0
XRECORD
  5
17C
102
{ACAD_REACTORS
330
15F
102
}
330
15F
100
AcDbXrecord
 10
0.0
 20
0.0
 30
0.0
  0
XRECORD
  5
17A
102
{ACAD_REACTORS
330
15F
102
}
330
15F
100
AcDbXrecord
 10
0.0
 20
0.0
 30
0.0
  0
XRECORD
  5
17B
102
{ACAD_REACTORS
330
15F
102
}
330
15F
100
AcDbXrecord
 10
0.0
 20
0.0
 30
0.0
  0
XRECORD
  5
178
102
{ACAD_REACTORS
330
15F
102
}
330
15F
100
AcDbXrecord
 10
0.0
 20
0.0
 30
0.0
  0
XRECORD
  5
175
102
{ACAD_REACTORS
330
15F
102
}
330
15F
100
AcDbXrecord
340
0
  0
XRECORD
  5
176
102
{ACAD_REACTORS
330
15F
102
}
330
15F
100
AcDbXrecord
 70
     0
  0
XRECORD
  5
16A
102
{ACAD_REACTORS
330
15F
102
}
330
15F
100
AcDbXrecord
  1
{FAEB1C32-E019-11D5-929B-00C0DF256EC4}
  0
ENDSEC
  0
EOF
