  0
SECTION
  2
HEADER
  9
$ACADVER
  1
AC1014
  9
$ACADMAINTVER
 70
     9
  9
$DWGCODEPAGE
  3
ASCII
  9
$INSBASE
 10
0.0
 20
0.0
 30
0.0
  9
$EXTMIN
 10
1.000000000000000E+20
 20
1.000000000000000E+20
 30
1.000000000000000E+20
  9
$EXTMAX
 10
-1.000000000000000E+20
 20
-1.000000000000000E+20
 30
-1.000000000000000E+20
  9
$LIMMIN
 10
0.0
 20
0.0
  9
$LIMMAX
 10
12.0
 20
9.0
  9
$ORTHOMODE
 70
     0
  9
$REGENMODE
 70
     1
  9
$FILLMODE
 70
     1
  9
$QTEXTMODE
 70
     0
  9
$MIRRTEXT
 70
     1
  9
$DRAGMODE
 70
     2
  9
$LTSCALE
 40
1.0
  9
$OSMODE
 70
    37
  9
$ATTMODE
 70
     1
  9
$TEXTSIZE
 40
0.2
  9
$TRACEWID
 40
0.05
  9
$TEXTSTYLE
  7
STANDARD
  9
$CLAYER
  8
0
  9
$CELTYPE
  6
BYLAYER
  9
$CECOLOR
 62
   256
  9
$CELTSCALE
 40
1.0
  9
$DELOBJ
 70
     1
  9
$DISPSILH
 70
     0
  9
$DIMSCALE
 40
1.0
  9
$DIMASZ
 40
0.18
  9
$DIMEXO
 40
0.0625
  9
$DIMDLI
 40
0.38
  9
$DIMRND
 40
0.0
  9
$DIMDLE
 40
0.0
  9
$DIMEXE
 40
0.18
  9
$DIMTP
 40
0.0
  9
$DIMTM
 40
0.0
  9
$DIMTXT
 40
0.18
  9
$DIMCEN
 40
0.09
  9
$DIMTSZ
 40
0.0
  9
$DIMTOL
 70
     0
  9
$DIMLIM
 70
     0
  9
$DIMTIH
 70
     1
  9
$DIMTOH
 70
     1
  9
$DIMSE1
 70
     0
  9
$DIMSE2
 70
     0
  9
$DIMTAD
 70
     0
  9
$DIMZIN
 70
     0
  9
$DIMBLK
  1

  9
$DIMASO
 70
     1
  9
$DIMSHO
 70
     1
  9
$DIMPOST
  1

  9
$DIMAPOST
  1

  9
$DIMALT
 70
     0
  9
$DIMALTD
 70
     2
  9
$DIMALTF
 40
25.4
  9
$DIMLFAC
 40
1.0
  9
$DIMTOFL
 70
     0
  9
$DIMTVP
 40
0.0
  9
$DIMTIX
 70
     0
  9
$DIMSOXD
 70
     0
  9
$DIMSAH
 70
     0
  9
$DIMBLK1
  1

  9
$DIMBLK2
  1

  9
$DIMSTYLE
  2
STANDARD
  9
$DIMCLRD
 70
     0
  9
$DIMCLRE
 70
     0
  9
$DIMCLRT
 70
     0
  9
$DIMTFAC
 40
1.0
  9
$DIMGAP
 40
0.09
  9
$DIMJUST
 70
     0
  9
$DIMSD1
 70
     0
  9
$DIMSD2
 70
     0
  9
$DIMTOLJ
 70
     1
  9
$DIMTZIN
 70
     0
  9
$DIMALTZ
 70
     0
  9
$DIMALTTZ
 70
     0
  9
$DIMFIT
 70
     3
  9
$DIMUPT
 70
     0
  9
$DIMUNIT
 70
     2
  9
$DIMDEC
 70
     4
  9
$DIMTDEC
 70
     4
  9
$DIMALTU
 70
     2
  9
$DIMALTTD
 70
     2
  9
$DIMTXSTY
  7
STANDARD
  9
$DIMAUNIT
 70
     0
  9
$LUNITS
 70
     2
  9
$LUPREC
 70
     4
  9
$SKETCHINC
 40
0.1
  9
$FILLETRAD
 40
0.5
  9
$AUNITS
 70
     0
  9
$AUPREC
 70
     0
  9
$MENU
  1
.
  9
$ELEVATION
 40
0.0
  9
$PELEVATION
 40
0.0
  9
$THICKNESS
 40
0.0
  9
$LIMCHECK
 70
     0
  9
$CHAMFERA
 40
0.5
  9
$CHAMFERB
 40
0.5
  9
$CHAMFERC
 40
1.0
  9
$CHAMFERD
 40
0.0
  9
$SKPOLY
 70
     0
  9
$TDCREATE
 40
2456674.771594942
  9
$TDUPDATE
 40
2456674.771594954
  9
$TDINDWG
 40
0.0000000116
  9
$TDUSRTIMER
 40
0.0000000116
  9
$USRTIMER
 70
     1
  9
$ANGBASE
 50
0.0
  9
$ANGDIR
 70
     0
  9
$PDMODE
 70
     0
  9
$PDSIZE
 40
0.0
  9
$PLINEWID
 40
0.0
  9
$COORDS
 70
     1
  9
$SPLFRAME
 70
     0
  9
$SPLINETYPE
 70
     6
  9
$SPLINESEGS
 70
     8
  9
$ATTDIA
 70
     0
  9
$ATTREQ
 70
     1
  9
$HANDLING
 70
     1
  9
$HANDSEED
  5
1D9
  9
$SURFTAB1
 70
     6
  9
$SURFTAB2
 70
     6
  9
$SURFTYPE
 70
     6
  9
$SURFU
 70
     6
  9
$SURFV
 70
     6
  9
$UCSNAME
  2

  9
$UCSORG
 10
0.0
 20
0.0
 30
0.0
  9
$UCSXDIR
 10
1.0
 20
0.0
 30
0.0
  9
$UCSYDIR
 10
0.0
 20
1.0
 30
0.0
  9
$PUCSNAME
  2

  9
$PUCSORG
 10
0.0
 20
0.0
 30
0.0
  9
$PUCSXDIR
 10
1.0
 20
0.0
 30
0.0
  9
$PUCSYDIR
 10
0.0
 20
1.0
 30
0.0
  9
$USERI1
 70
     0
  9
$USERI2
 70
     0
  9
$USERI3
 70
     0
  9
$USERI4
 70
     0
  9
$USERI5
 70
     0
  9
$USERR1
 40
0.0
  9
$USERR2
 40
0.0
  9
$USERR3
 40
0.0
  9
$USERR4
 40
0.0
  9
$USERR5
 40
0.0
  9
$WORLDVIEW
 70
     1
  9
$SHADEDGE
 70
     3
  9
$SHADEDIF
 70
    70
  9
$TILEMODE
 70
     1
  9
$MAXACTVP
 70
    64
  9
$PINSBASE
 10
0.0
 20
0.0
 30
0.0
  9
$PLIMCHECK
 70
     0
  9
$PEXTMIN
 10
1.000000000000000E+20
 20
1.000000000000000E+20
 30
1.000000000000000E+20
  9
$PEXTMAX
 10
-1.000000000000000E+20
 20
-1.000000000000000E+20
 30
-1.000000000000000E+20
  9
$PLIMMIN
 10
0.0
 20
0.0
  9
$PLIMMAX
 10
12.0
 20
9.0
  9
$UNITMODE
 70
     0
  9
$VISRETAIN
 70
     1
  9
$PLINEGEN
 70
     0
  9
$PSLTSCALE
 70
     1
  9
$TREEDEPTH
 70
  3020
  9
$PICKSTYLE
 70
     1
  9
$CMLSTYLE
  2
STANDARD
  9
$CMLJUST
 70
     0
  9
$CMLSCALE
 40
1.0
  9
$PROXYGRAPHICS
 70
     1
  9
$MEASUREMENT
 70
     0
  0
ENDSEC
  0
SECTION
  2
CLASSES
  0
CLASS
  1
ACDBDICTIONARYWDFLT
  2
AcDbDictionaryWithDefault
  3
ObjectDBX Classes
 90
        0
280
     0
281
     0
  0
CLASS
  1
VISUALSTYLE
  2
AcDbVisualStyle
  3
ObjectDBX Classes
 90
     4095
280
     1
281
     0
  0
CLASS
  1
ACAD_PROXY_OBJECT_WRAPPER
  2
AcDbProxyObjectWrapper
  3
AutoCAD 2000
 90
        0
280
     0
281
     0
  0
CLASS
  1
XRECORD
  2
AcDbXrecord
  3
AutoCAD 2000
 90
        0
280
     0
281
     0
  0
CLASS
  1
LWPOLYLINE
  2
AcDbPolyline
  3
AutoCAD 2000
 90
        0
280
     0
281
     1
  0
CLASS
  1
HATCH
  2
AcDbHatch
  3
AutoCAD 2000
 90
        0
280
     0
281
     1
  0
CLASS
  1
ACDBPLACEHOLDER
  2
AcDbPlaceHolder
  3
ObjectDBX Classes
 90
        0
280
     0
281
     0
  0
CLASS
  1
LAYOUT
  2
AcDbLayout
  3
ObjectDBX Classes
 90
        0
280
     0
281
     0
  0
ENDSEC
  0
SECTION
  2
TABLES
  0
TABLE
  2
VPORT
  5
8
330
0
100
AcDbSymbolTable
 70
     1
  0
VPORT
  5
29
102
{ACAD_XDICTIONARY
360
1D7
102
}
330
8
100
AcDbSymbolTableRecord
100
AcDbViewportTableRecord
  2
*ACTIVE
 70
     0
 10
0.0
 20
0.0
 11
1.0
 21
1.0
 12
0.0
 22
0.0
 13
0.0
 23
0.0
 14
0.5
 24
0.5
 15
0.5
 25
0.5
 16
0.0
 26
0.0
 36
1.0
 17
105.0008091239277
 27
148.5001637099431
 37
0.0
 40
297.0003274198861
 41
0.7070753762199199
 42
50.0
 43
0.0
 44
0.0
 50
0.0
 51
0.0
 71
     0
 72
   100
 73
     1
 74
     3
 75
     0
 76
     0
 77
     0
 78
     0
  0
ENDTAB
  0
TABLE
  2
LTYPE
  5
5
330
0
100
AcDbSymbolTable
 70
     1
  0
LTYPE
  5
14
330
5
100
AcDbSymbolTableRecord
100
AcDbLinetypeTableRecord
  2
BYBLOCK
 70
     0
  3

 72
    65
 73
     0
 40
0.0
  0
LTYPE
  5
15
330
5
100
AcDbSymbolTableRecord
100
AcDbLinetypeTableRecord
  2
BYLAYER
 70
     0
  3

 72
    65
 73
     0
 40
0.0
  0
LTYPE
  5
16
330
5
100
AcDbSymbolTableRecord
100
AcDbLinetypeTableRecord
  2
CONTINUOUS
 70
     0
  3
Solid line
 72
    65
 73
     0
 40
0.0
  0
ENDTAB
  0
TABLE
  2
LAYER
  5
2
330
0
100
AcDbSymbolTable
 70
     1
  0
LAYER
  5
10
330
2
100
AcDbSymbolTableRecord
100
AcDbLayerTableRecord
  2
0
 70
     0
 62
     7
  6
CONTINUOUS
  0
ENDTAB
  0
TABLE
  2
STYLE
  5
3
330
0
100
AcDbSymbolTable
 70
     1
  0
STYLE
  5
11
330
3
100
AcDbSymbolTableRecord
100
AcDbTextStyleTableRecord
  2
STANDARD
 70
     0
 40
0.0
 41
1.0
 50
0.0
 71
     0
 42
0.2
  3
txt
  4

  0
ENDTAB
  0
TABLE
  2
VIEW
  5
6
330
0
100
AcDbSymbolTable
 70
     0
  0
ENDTAB
  0
TABLE
  2
UCS
  5
7
330
0
100
AcDbSymbolTable
 70
     0
  0
ENDTAB
  0
TABLE
  2
APPID
  5
9
330
0
100
AcDbSymbolTable
 70
     1
  0
APPID
  5
12
330
9
100
AcDbSymbolTableRecord
100
AcDbRegAppTableRecord
  2
ACAD
 70
     0
  0
ENDTAB
  0
TABLE
  2
DIMSTYLE
  5
A
330
0
100
AcDbSymbolTable
 70
     1
  0
DIMSTYLE
105
27
330
A
100
AcDbSymbolTableRecord
100
AcDbDimStyleTableRecord
  2
STANDARD
 70
     0
  3

  4

  5

  6

  7

 40
1.0
 41
0.18
 42
0.0625
 43
0.38
 44
0.18
 45
0.0
 46
0.0
 47
0.0
 48
0.0
140
0.18
141
0.09
142
0.0
143
25.4
144
1.0
145
0.0
146
1.0
147
0.09
 71
     0
 72
     0
 73
     1
 74
     1
 75
     0
 76
     0
 77
     0
 78
     0
170
     0
171
     2
172
     0
173
     0
174
     0
175
     0
176
     0
177
     0
178
     0
270
     2
271
     4
272
     4
273
     2
274
     2
340
11
275
     0
280
     0
281
     0
282
     0
283
     1
284
     0
285
     0
286
     0
287
     3
288
     0
  0
ENDTAB
  0
TABLE
  2
BLOCK_RECORD
  5
1
330
0
100
AcDbSymbolTable
 70
     1
  0
BLOCK_RECORD
  5
1F
330
1
100
AcDbSymbolTableRecord
100
AcDbBlockTableRecord
  2
*MODEL_SPACE
  0
BLOCK_RECORD
  5
1B
330
1
100
AcDbSymbolTableRecord
100
AcDbBlockTableRecord
  2
*PAPER_SPACE
  0
ENDTAB
  0
ENDSEC
  0
SECTION
  2
BLOCKS
  0
BLOCK
  5
20
330
1F
100
AcDbEntity
  8
0
100
AcDbBlockBegin
  2
*MODEL_SPACE
 70
     0
 71
     0
 10
0.0
 20
0.0
 30
0.0
  3
*MODEL_SPACE
  1

  0
ENDBLK
  5
21
330
1F
100
AcDbEntity
  8
0
100
AcDbBlockEnd
  0
BLOCK
  5
1C
330
1B
100
AcDbEntity
 67
     1
  8
0
100
AcDbBlockBegin
  2
*PAPER_SPACE
 70
     0
 71
     0
 10
0.0
 20
0.0
 30
0.0
  3
*PAPER_SPACE
  1

  0
ENDBLK
  5
1D
330
1B
100
AcDbEntity
 67
     1
  8
0
100
AcDbBlockEnd
  0
ENDSEC
  0
SECTION
  2
ENTITIES
  0
POLYLINE
  5
3B
330
1F
100
AcDbEntity
  8
0
 62
     7
100
AcDb2dPolyline
 66
     1
 10
0.0
 20
0.0
 30
0.0
  0
VERTEX
  5
3C
330
3B
100
AcDbEntity
  8
0
 62
     7
100
AcDbVertex
100
AcDb2dVertex
 10
82.63153099915058
 20
148.2835531884112
 30
0.0
  0
VERTEX
  5
3D
330
3B
100
AcDbEntity
  8
0
 62
     7
100
AcDbVertex
100
AcDb2dVertex
 10
82.63153099915058
 20
126.991126495329
 30
0.0
  0
SEQEND
  5
3E
330
3B
100
AcDbEntity
  8
0
  0
POLYLINE
  5
3F
330
1F
100
AcDbEntity
  8
0
 62
     7
100
AcDb2dPolyline
 66
     1
 10
0.0
 20
0.0
 30
0.0
  0
VERTEX
  5
40
330
3F
100
AcDbEntity
  8
0
 62
     7
100
AcDbVertex
100
AcDb2dVertex
 10
82.63153099915058
 20
126.991126495329
 30
0.0
  0
VERTEX
  5
41
330
3F
100
AcDbEntity
  8
0
 62
     7
100
AcDbVertex
100
AcDb2dVertex
 10
89.44507308995932
 20
126.991126495329
 30
0.0
  0
SEQEND
  5
42
330
3F
100
AcDbEntity
  8
0
  0
POLYLINE
  5
43
330
1F
100
AcDbEntity
  8
0
 62
     7
100
AcDb2dPolyline
 66
     1
 10
0.0
 20
0.0
 30
0.0
  0
VERTEX
  5
44
330
43
100
AcDbEntity
  8
0
 62
     7
100
AcDbVertex
100
AcDb2dVertex
 10
89.44507308995932
 20
149.0352735191984
 30
0.0
  0
VERTEX
  5
45
330
43
100
AcDbEntity
  8
0
 62
     7
100
AcDbVertex
100
AcDb2dVertex
 10
89.44507308995932
 20
126.1894522470513
 30
0.0
  0
SEQEND
  5
46
330
43
100
AcDbEntity
  8
0
  0
POLYLINE
  5
47
330
1F
100
AcDbEntity
  8
0
 62
     7
100
AcDb2dPolyline
 66
     1
 10
0.0
 20
0.0
 30
0.0
  0
VERTEX
  5
48
330
47
100
AcDbEntity
  8
0
 62
     7
100
AcDbVertex
100
AcDb2dVertex
 10
89.44507308995932
 20
126.1894522470513
 30
0.0
  0
VERTEX
  5
49
330
47
100
AcDbEntity
  8
0
 62
     7
100
AcDbVertex
100
AcDb2dVertex
 10
97.36121871820369
 20
126.1894522470513
 30
0.0
  0
SEQEND
  5
4A
330
47
100
AcDbEntity
  8
0
  0
SPLINE
  5
4B
330
1F
100
AcDbEntity
  8
0
 62
     7
100
AcDbSpline
210
0.0
220
0.0
230
1.0
 70
     8
 71
     3
 72
     8
 73
     4
 74
     0
 42
0.0000000001
 43
0.0000000001
 40
0.0
 40
0.0
 40
0.0
 40
0.0
 40
1.0
 40
1.0
 40
1.0
 40
1.0
 10
97.66180349758584
 20
125.8883507030054
 30
0.0
 10
97.66180349758584
 20
126.054748924715
 30
0.0
 10
97.52727243013744
 20
126.1894522470513
 30
0.0
 10
97.36121871820369
 20
126.1894522470513
 30
0.0
  0
POLYLINE
  5
4C
330
1F
100
AcDbEntity
  8
0
 62
     7
100
AcDb2dPolyline
 66
     1
 10
0.0
 20
0.0
 30
0.0
  0
VERTEX
  5
4D
330
4C
100
AcDbEntity
  8
0
 62
     7
100
AcDbVertex
100
AcDb2dVertex
 10
97.66180349758584
 20
150.1375325468583
 30
0.0
  0
VERTEX
  5
4E
330
4C
100
AcDbEntity
  8
0
 62
     7
100
AcDbVertex
100
AcDb2dVertex
 10
97.66180349758584
 20
125.0870209645036
 30
0.0
  0
SEQEND
  5
4F
330
4C
100
AcDbEntity
  8
0
  0
POLYLINE
  5
50
330
1F
100
AcDbEntity
  8
0
 62
     7
100
AcDb2dPolyline
 66
     1
 10
0.0
 20
0.0
 30
0.0
  0
VERTEX
  5
51
330
50
100
AcDbEntity
  8
0
 62
     7
100
AcDbVertex
100
AcDb2dVertex
 10
97.66180349758584
 20
125.0870209645036
 30
0.0
  0
VERTEX
  5
52
330
50
100
AcDbEntity
  8
0
 62
     7
100
AcDbVertex
100
AcDb2dVertex
 10
98.16272071159347
 20
124.5861037504959
 30
0.0
  0
SEQEND
  5
53
330
50
100
AcDbEntity
  8
0
  0
POLYLINE
  5
54
330
1F
100
AcDbEntity
  8
0
 62
     7
100
AcDb2dPolyline
 66
     1
 10
0.0
 20
0.0
 30
0.0
  0
VERTEX
  5
55
330
54
100
AcDbEntity
  8
0
 62
     7
100
AcDbVertex
100
AcDb2dVertex
 10
98.16272071159347
 20
124.5861037504959
 30
0.0
  0
VERTEX
  5
56
330
54
100
AcDbEntity
  8
0
 62
     7
100
AcDbVertex
100
AcDb2dVertex
 10
100.1669063322877
 20
124.5861037504959
 30
0.0
  0
SEQEND
  5
57
330
54
100
AcDbEntity
  8
0
  0
POLYLINE
  5
58
330
1F
100
AcDbEntity
  8
0
 62
     7
100
AcDb2dPolyline
 66
     1
 10
0.0
 20
0.0
 30
0.0
  0
VERTEX
  5
59
330
58
100
AcDbEntity
  8
0
 62
     7
100
AcDbVertex
100
AcDb2dVertex
 10
100.1669063322877
 20
124.5861037504959
 30
0.0
  0
VERTEX
  5
5A
330
58
100
AcDbEntity
  8
0
 62
     7
100
AcDbVertex
100
AcDb2dVertex
 10
100.6678235462953
 20
125.0870209645036
 30
0.0
  0
SEQEND
  5
5B
330
58
100
AcDbEntity
  8
0
  0
POLYLINE
  5
5C
330
1F
100
AcDbEntity
  8
0
 62
     7
100
AcDb2dPolyline
 66
     1
 10
0.0
 20
0.0
 30
0.0
  0
VERTEX
  5
5D
330
5C
100
AcDbEntity
  8
0
 62
     7
100
AcDbVertex
100
AcDb2dVertex
 10
100.6678235462953
 20
125.0870209645036
 30
0.0
  0
VERTEX
  5
5E
330
5C
100
AcDbEntity
  8
0
 62
     7
100
AcDbVertex
100
AcDb2dVertex
 10
100.6678235462953
 20
150.1375325468583
 30
0.0
  0
SEQEND
  5
5F
330
5C
100
AcDbEntity
  8
0
  0
POLYLINE
  5
60
330
1F
100
AcDbEntity
  8
0
 62
     7
100
AcDb2dPolyline
 66
     1
 10
0.0
 20
0.0
 30
0.0
  0
VERTEX
  5
61
330
60
100
AcDbEntity
  8
0
 62
     7
100
AcDbVertex
100
AcDb2dVertex
 10
100.6678235462953
 20
150.1375325468583
 30
0.0
  0
VERTEX
  5
62
330
60
100
AcDbEntity
  8
0
 62
     7
100
AcDbVertex
100
AcDb2dVertex
 10
100.1669063322877
 20
150.638277505978
 30
0.0
  0
SEQEND
  5
63
330
60
100
AcDbEntity
  8
0
  0
POLYLINE
  5
64
330
1F
100
AcDbEntity
  8
0
 62
     7
100
AcDb2dPolyline
 66
     1
 10
0.0
 20
0.0
 30
0.0
  0
VERTEX
  5
65
330
64
100
AcDbEntity
  8
0
 62
     7
100
AcDbVertex
100
AcDb2dVertex
 10
98.16272071159347
 20
150.638277505978
 30
0.0
  0
VERTEX
  5
66
330
64
100
AcDbEntity
  8
0
 62
     7
100
AcDbVertex
100
AcDb2dVertex
 10
100.1669063322877
 20
150.638277505978
 30
0.0
  0
SEQEND
  5
67
330
64
100
AcDbEntity
  8
0
  0
POLYLINE
  5
68
330
1F
100
AcDbEntity
  8
0
 62
     7
100
AcDb2dPolyline
 66
     1
 10
0.0
 20
0.0
 30
0.0
  0
VERTEX
  5
69
330
68
100
AcDbEntity
  8
0
 62
     7
100
AcDbVertex
100
AcDb2dVertex
 10
98.16272071159347
 20
150.638277505978
 30
0.0
  0
VERTEX
  5
6A
330
68
100
AcDbEntity
  8
0
 62
     7
100
AcDbVertex
100
AcDb2dVertex
 10
97.66180349758584
 20
150.1375325468583
 30
0.0
  0
SEQEND
  5
6B
330
68
100
AcDbEntity
  8
0
  0
SPLINE
  5
6C
330
1F
100
AcDbEntity
  8
0
 62
     7
100
AcDbSpline
210
0.0
220
0.0
230
1.0
 70
     8
 71
     3
 72
     8
 73
     4
 74
     0
 42
0.0000000001
 43
0.0000000001
 40
0.0
 40
0.0
 40
0.0
 40
0.0
 40
1.0
 40
1.0
 40
1.0
 40
1.0
 10
97.36121871820369
 20
149.0352735191984
 30
0.0
 10
97.52727243013744
 20
149.0352735191984
 30
0.0
 10
97.66180349758584
 20
149.1698045866468
 30
0.0
 10
97.66180349758584
 20
149.3358582985806
 30
0.0
  0
POLYLINE
  5
6D
330
1F
100
AcDbEntity
  8
0
 62
     7
100
AcDb2dPolyline
 66
     1
 10
0.0
 20
0.0
 30
0.0
  0
VERTEX
  5
6E
330
6D
100
AcDbEntity
  8
0
 62
     7
100
AcDbVertex
100
AcDb2dVertex
 10
97.36121871820369
 20
149.0352735191984
 30
0.0
  0
VERTEX
  5
6F
330
6D
100
AcDbEntity
  8
0
 62
     7
100
AcDbVertex
100
AcDb2dVertex
 10
89.44507308995932
 20
149.0352735191984
 30
0.0
  0
SEQEND
  5
70
330
6D
100
AcDbEntity
  8
0
  0
POLYLINE
  5
71
330
1F
100
AcDbEntity
  8
0
 62
     7
100
AcDb2dPolyline
 66
     1
 10
0.0
 20
0.0
 30
0.0
  0
VERTEX
  5
72
330
71
100
AcDbEntity
  8
0
 62
     7
100
AcDbVertex
100
AcDb2dVertex
 10
89.44507308995932
 20
148.4339317055462
 30
0.0
  0
VERTEX
  5
73
330
71
100
AcDbEntity
  8
0
 62
     7
100
AcDbVertex
100
AcDb2dVertex
 10
87.64173666855427
 20
148.4339317055462
 30
0.0
  0
SEQEND
  5
74
330
71
100
AcDbEntity
  8
0
  0
SPLINE
  5
75
330
1F
100
AcDbEntity
  8
0
 62
     7
100
AcDbSpline
210
0.0
220
0.0
230
1.0
 70
     8
 71
     3
 72
     8
 73
     4
 74
     0
 42
0.0000000001
 43
0.0000000001
 40
0.0
 40
0.0
 40
0.0
 40
0.0
 40
1.0
 40
1.0
 40
1.0
 40
1.0
 10
87.64173666855427
 20
148.8345965747972
 30
0.0
 10
87.64173666855427
 20
148.9436339188367
 30
0.0
 10
87.55423118550205
 20
149.0328619507679
 30
0.0
 10
87.44536609635046
 20
149.0352735191984
 30
0.0
  0
POLYLINE
  5
76
330
1F
100
AcDbEntity
  8
0
 62
     7
100
AcDb2dPolyline
 66
     1
 10
0.0
 20
0.0
 30
0.0
  0
VERTEX
  5
77
330
76
100
AcDbEntity
  8
0
 62
     7
100
AcDbVertex
100
AcDb2dVertex
 10
87.64173666855427
 20
148.8347688296851
 30
0.0
  0
VERTEX
  5
78
330
76
100
AcDbEntity
  8
0
 62
     7
100
AcDbVertex
100
AcDb2dVertex
 10
87.64173666855427
 20
126.991126495329
 30
0.0
  0
SEQEND
  5
79
330
76
100
AcDbEntity
  8
0
  0
SPLINE
  5
7A
330
1F
100
AcDbEntity
  8
0
 62
     7
100
AcDbSpline
210
0.0
220
0.0
230
1.0
 70
     8
 71
     3
 72
     8
 73
     4
 74
     0
 42
0.0000000001
 43
0.0000000001
 40
0.0
 40
0.0
 40
0.0
 40
0.0
 40
1.0
 40
1.0
 40
1.0
 40
1.0
 10
87.44105972415301
 20
149.0325174409921
 30
0.0
 10
85.80653309288807
 20
149.0649013599169
 30
0.0
 10
84.17924116691488
 20
148.8118589295946
 30
0.0
 10
82.63204776381429
 20
148.283897698187
 30
0.0
  0
POLYLINE
  5
7B
330
1F
100
AcDbEntity
  8
0
 62
     7
100
AcDb2dPolyline
 66
     1
 10
0.0
 20
0.0
 30
0.0
  0
VERTEX
  5
7C
330
7B
100
AcDbEntity
  8
0
 62
     7
100
AcDbVertex
100
AcDb2dVertex
 10
95.65779013177954
 20
149.0352735191984
 30
0.0
  0
VERTEX
  5
7D
330
7B
100
AcDbEntity
  8
0
 62
     7
100
AcDbVertex
100
AcDb2dVertex
 10
95.65779013177954
 20
149.6366153328507
 30
0.0
  0
SEQEND
  5
7E
330
7B
100
AcDbEntity
  8
0
  0
POLYLINE
  5
7F
330
1F
100
AcDbEntity
  8
0
 62
     7
100
AcDb2dPolyline
 66
     1
 10
0.0
 20
0.0
 30
0.0
  0
VERTEX
  5
80
330
7F
100
AcDbEntity
  8
0
 62
     7
100
AcDbVertex
100
AcDb2dVertex
 10
95.65779013177954
 20
149.6366153328507
 30
0.0
  0
VERTEX
  5
81
330
7F
100
AcDbEntity
  8
0
 62
     7
100
AcDbVertex
100
AcDb2dVertex
 10
97.66180349758584
 20
149.6366153328507
 30
0.0
  0
SEQEND
  5
82
330
7F
100
AcDbEntity
  8
0
  0
POLYLINE
  5
83
330
1F
100
AcDbEntity
  8
0
 62
     7
100
AcDb2dPolyline
 66
     1
 10
0.0
 20
0.0
 30
0.0
  0
VERTEX
  5
84
330
83
100
AcDbEntity
  8
0
 62
     7
100
AcDbVertex
100
AcDb2dVertex
 10
100.9685805805654
 20
127.6973715357111
 30
0.0
  0
VERTEX
  5
85
330
83
100
AcDbEntity
  8
0
 62
     7
100
AcDbVertex
100
AcDb2dVertex
 10
101.469497794573
 20
127.6973715357111
 30
0.0
  0
SEQEND
  5
86
330
83
100
AcDbEntity
  8
0
  0
SPLINE
  5
87
330
1F
100
AcDbEntity
  8
0
 62
     7
100
AcDbSpline
210
0.0
220
0.0
230
1.0
 70
     8
 71
     3
 72
     8
 73
     4
 74
     0
 42
0.0000000001
 43
0.0000000001
 40
0.0
 40
0.0
 40
0.0
 40
0.0
 40
1.0
 40
1.0
 40
1.0
 40
1.0
 10
100.9685805805654
 20
127.6973715357111
 30
0.0
 10
100.8025268686316
 20
127.6973715357111
 30
0.0
 10
100.6678235462953
 20
127.562323703599
 30
0.0
 10
100.6678235462953
 20
127.3969590112169
 30
0.0
  0
POLYLINE
  5
88
330
1F
100
AcDbEntity
  8
0
 62
     7
100
AcDb2dPolyline
 66
     1
 10
0.0
 20
0.0
 30
0.0
  0
VERTEX
  5
89
330
88
100
AcDbEntity
  8
0
 62
     7
100
AcDbVertex
100
AcDb2dVertex
 10
98.16272071159347
 20
124.5861037504959
 30
0.0
  0
VERTEX
  5
8A
330
88
100
AcDbEntity
  8
0
 62
     7
100
AcDbVertex
100
AcDb2dVertex
 10
98.16272071159347
 20
134.0201594508982
 30
0.0
  0
SEQEND
  5
8B
330
88
100
AcDbEntity
  8
0
  0
POLYLINE
  5
8C
330
1F
100
AcDbEntity
  8
0
 62
     7
100
AcDb2dPolyline
 66
     1
 10
0.0
 20
0.0
 30
0.0
  0
VERTEX
  5
8D
330
8C
100
AcDbEntity
  8
0
 62
     7
100
AcDbVertex
100
AcDb2dVertex
 10
100.1669063322877
 20
124.5861037504959
 30
0.0
  0
VERTEX
  5
8E
330
8C
100
AcDbEntity
  8
0
 62
     7
100
AcDbVertex
100
AcDb2dVertex
 10
100.1669063322877
 20
134.0201594508982
 30
0.0
  0
SEQEND
  5
8F
330
8C
100
AcDbEntity
  8
0
  0
POLYLINE
  5
90
330
1F
100
AcDbEntity
  8
0
 62
     7
100
AcDb2dPolyline
 66
     1
 10
0.0
 20
0.0
 30
0.0
  0
VERTEX
  5
91
330
90
100
AcDbEntity
  8
0
 62
     7
100
AcDbVertex
100
AcDb2dVertex
 10
98.16272071159347
 20
134.0201594508982
 30
0.0
  0
VERTEX
  5
92
330
90
100
AcDbEntity
  8
0
 62
     7
100
AcDbVertex
100
AcDb2dVertex
 10
100.1669063322877
 20
134.0201594508982
 30
0.0
  0
SEQEND
  5
93
330
90
100
AcDbEntity
  8
0
  0
POLYLINE
  5
94
330
1F
100
AcDbEntity
  8
0
 62
     7
100
AcDb2dPolyline
 66
     1
 10
0.0
 20
0.0
 30
0.0
  0
VERTEX
  5
95
330
94
100
AcDbEntity
  8
0
 62
     7
100
AcDbVertex
100
AcDb2dVertex
 10
101.469497794573
 20
149.385812216071
 30
0.0
  0
VERTEX
  5
96
330
94
100
AcDbEntity
  8
0
 62
     7
100
AcDbVertex
100
AcDb2dVertex
 10
101.469497794573
 20
125.8387412952908
 30
0.0
  0
SEQEND
  5
97
330
94
100
AcDbEntity
  8
0
  0
POLYLINE
  5
98
330
1F
100
AcDbEntity
  8
0
 62
     7
100
AcDb2dPolyline
 66
     1
 10
0.0
 20
0.0
 30
0.0
  0
VERTEX
  5
99
330
98
100
AcDbEntity
  8
0
 62
     7
100
AcDbVertex
100
AcDb2dVertex
 10
101.469497794573
 20
125.8387412952908
 30
0.0
  0
VERTEX
  5
9A
330
98
100
AcDbEntity
  8
0
 62
     7
100
AcDbVertex
100
AcDb2dVertex
 10
107.4817101468798
 20
125.8387412952908
 30
0.0
  0
SEQEND
  5
9B
330
98
100
AcDbEntity
  8
0
  0
POLYLINE
  5
9C
330
1F
100
AcDbEntity
  8
0
 62
     7
100
AcDb2dPolyline
 66
     1
 10
0.0
 20
0.0
 30
0.0
  0
VERTEX
  5
9D
330
9C
100
AcDbEntity
  8
0
 62
     7
100
AcDbVertex
100
AcDb2dVertex
 10
107.4817101468798
 20
125.8387412952908
 30
0.0
  0
VERTEX
  5
9E
330
9C
100
AcDbEntity
  8
0
 62
     7
100
AcDbVertex
100
AcDb2dVertex
 10
112.8023191242759
 20
126.0485477487507
 30
0.0
  0
SEQEND
  5
9F
330
9C
100
AcDbEntity
  8
0
  0
POLYLINE
  5
A0
330
1F
100
AcDbEntity
  8
0
 62
     7
100
AcDb2dPolyline
 66
     1
 10
0.0
 20
0.0
 30
0.0
  0
VERTEX
  5
A1
330
A0
100
AcDbEntity
  8
0
 62
     7
100
AcDbVertex
100
AcDb2dVertex
 10
124.9166608803723
 20
126.5298279055379
 30
0.0
  0
VERTEX
  5
A2
330
A0
100
AcDbEntity
  8
0
 62
     7
100
AcDbVertex
100
AcDb2dVertex
 10
126.0190921629201
 20
126.5746141763914
 30
0.0
  0
SEQEND
  5
A3
330
A0
100
AcDbEntity
  8
0
  0
POLYLINE
  5
A4
330
1F
100
AcDbEntity
  8
0
 62
     7
100
AcDb2dPolyline
 66
     1
 10
0.0
 20
0.0
 30
0.0
  0
VERTEX
  5
A5
330
A4
100
AcDbEntity
  8
0
 62
     7
100
AcDbVertex
100
AcDb2dVertex
 10
126.0190921629201
 20
126.5746141763914
 30
0.0
  0
VERTEX
  5
A6
330
A4
100
AcDbEntity
  8
0
 62
     7
100
AcDbVertex
100
AcDb2dVertex
 10
126.5196648671519
 20
127.0910343303099
 30
0.0
  0
SEQEND
  5
A7
330
A4
100
AcDbEntity
  8
0
  0
POLYLINE
  5
A8
330
1F
100
AcDbEntity
  8
0
 62
     7
100
AcDb2dPolyline
 66
     1
 10
0.0
 20
0.0
 30
0.0
  0
VERTEX
  5
A9
330
A8
100
AcDbEntity
  8
0
 62
     7
100
AcDbVertex
100
AcDb2dVertex
 10
126.5196648671519
 20
148.1333469261641
 30
0.0
  0
VERTEX
  5
AA
330
A8
100
AcDbEntity
  8
0
 62
     7
100
AcDbVertex
100
AcDb2dVertex
 10
126.5196648671519
 20
127.0910343303099
 30
0.0
  0
SEQEND
  5
AB
330
A8
100
AcDbEntity
  8
0
  0
POLYLINE
  5
AC
330
1F
100
AcDbEntity
  8
0
 62
     7
100
AcDb2dPolyline
 66
     1
 10
0.0
 20
0.0
 30
0.0
  0
VERTEX
  5
AD
330
AC
100
AcDbEntity
  8
0
 62
     7
100
AcDbVertex
100
AcDb2dVertex
 10
107.4817101468798
 20
125.8387412952908
 30
0.0
  0
VERTEX
  5
AE
330
AC
100
AcDbEntity
  8
0
 62
     7
100
AcDbVertex
100
AcDb2dVertex
 10
107.4817101468798
 20
149.385812216071
 30
0.0
  0
SEQEND
  5
AF
330
AC
100
AcDbEntity
  8
0
  0
POLYLINE
  5
B0
330
1F
100
AcDbEntity
  8
0
 62
     7
100
AcDb2dPolyline
 66
     1
 10
0.0
 20
0.0
 30
0.0
  0
VERTEX
  5
B1
330
B0
100
AcDbEntity
  8
0
 62
     7
100
AcDbVertex
100
AcDb2dVertex
 10
113.9946674583064
 20
128.0928687583251
 30
0.0
  0
VERTEX
  5
B2
330
B0
100
AcDbEntity
  8
0
 62
     7
100
AcDbVertex
100
AcDb2dVertex
 10
124.014734287338
 20
128.0928687583251
 30
0.0
  0
SEQEND
  5
B3
330
B0
100
AcDbEntity
  8
0
  0
POLYLINE
  5
B4
330
1F
100
AcDbEntity
  8
0
 62
     7
100
AcDb2dPolyline
 66
     1
 10
0.0
 20
0.0
 30
0.0
  0
VERTEX
  5
B5
330
B4
100
AcDbEntity
  8
0
 62
     7
100
AcDbVertex
100
AcDb2dVertex
 10
113.9946674583064
 20
128.0928687583251
 30
0.0
  0
VERTEX
  5
B6
330
B4
100
AcDbEntity
  8
0
 62
     7
100
AcDbVertex
100
AcDb2dVertex
 10
112.8074867709128
 20
126.0437246118895
 30
0.0
  0
SEQEND
  5
B7
330
B4
100
AcDbEntity
  8
0
  0
POLYLINE
  5
B8
330
1F
100
AcDbEntity
  8
0
 62
     7
100
AcDb2dPolyline
 66
     1
 10
0.0
 20
0.0
 30
0.0
  0
VERTEX
  5
B9
330
B8
100
AcDbEntity
  8
0
 62
     7
100
AcDbVertex
100
AcDb2dVertex
 10
124.014734287338
 20
128.0928687583251
 30
0.0
  0
VERTEX
  5
BA
330
B8
100
AcDbEntity
  8
0
 62
     7
100
AcDbVertex
100
AcDb2dVertex
 10
124.9166608803723
 20
126.5298279055379
 30
0.0
  0
SEQEND
  5
BB
330
B8
100
AcDbEntity
  8
0
  0
POLYLINE
  5
BC
330
1F
100
AcDbEntity
  8
0
 62
     7
100
AcDb2dPolyline
 66
     1
 10
0.0
 20
0.0
 30
0.0
  0
VERTEX
  5
BD
330
BC
100
AcDbEntity
  8
0
 62
     7
100
AcDbVertex
100
AcDb2dVertex
 10
127.5221883147188
 20
133.7941610379759
 30
0.0
  0
VERTEX
  5
BE
330
BC
100
AcDbEntity
  8
0
 62
     7
100
AcDbVertex
100
AcDb2dVertex
 10
127.5221883147188
 20
127.7125299658462
 30
0.0
  0
SEQEND
  5
BF
330
BC
100
AcDbEntity
  8
0
  0
POLYLINE
  5
C0
330
1F
100
AcDbEntity
  8
0
 62
     7
100
AcDb2dPolyline
 66
     1
 10
0.0
 20
0.0
 30
0.0
  0
VERTEX
  5
C1
330
C0
100
AcDbEntity
  8
0
 62
     7
100
AcDbVertex
100
AcDb2dVertex
 10
126.5196648671519
 20
127.7125299658462
 30
0.0
  0
VERTEX
  5
C2
330
C0
100
AcDbEntity
  8
0
 62
     7
100
AcDbVertex
100
AcDb2dVertex
 10
131.028953322548
 20
127.7125299658462
 30
0.0
  0
SEQEND
  5
C3
330
C0
100
AcDbEntity
  8
0
  0
POLYLINE
  5
C4
330
1F
100
AcDbEntity
  8
0
 62
     7
100
AcDb2dPolyline
 66
     1
 10
0.0
 20
0.0
 30
0.0
  0
VERTEX
  5
C5
330
C4
100
AcDbEntity
  8
0
 62
     7
100
AcDbVertex
100
AcDb2dVertex
 10
126.5196648671519
 20
147.5121958004036
 30
0.0
  0
VERTEX
  5
C6
330
C4
100
AcDbEntity
  8
0
 62
     7
100
AcDbVertex
100
AcDb2dVertex
 10
131.028953322548
 20
147.5121958004036
 30
0.0
  0
SEQEND
  5
C7
330
C4
100
AcDbEntity
  8
0
  0
POLYLINE
  5
C8
330
1F
100
AcDbEntity
  8
0
 62
     7
100
AcDb2dPolyline
 66
     1
 10
0.0
 20
0.0
 30
0.0
  0
VERTEX
  5
C9
330
C8
100
AcDbEntity
  8
0
 62
     7
100
AcDbVertex
100
AcDb2dVertex
 10
126.5196648671519
 20
148.1333469261641
 30
0.0
  0
VERTEX
  5
CA
330
C8
100
AcDbEntity
  8
0
 62
     7
100
AcDbVertex
100
AcDb2dVertex
 10
126.0190921629201
 20
148.6592410989169
 30
0.0
  0
SEQEND
  5
CB
330
C8
100
AcDbEntity
  8
0
  0
POLYLINE
  5
CC
330
1F
100
AcDbEntity
  8
0
 62
     7
100
AcDb2dPolyline
 66
     1
 10
0.0
 20
0.0
 30
0.0
  0
VERTEX
  5
CD
330
CC
100
AcDbEntity
  8
0
 62
     7
100
AcDbVertex
100
AcDb2dVertex
 10
124.9166608803723
 20
148.699720997573
 30
0.0
  0
VERTEX
  5
CE
330
CC
100
AcDbEntity
  8
0
 62
     7
100
AcDbVertex
100
AcDb2dVertex
 10
126.0190921629201
 20
148.6592410989169
 30
0.0
  0
SEQEND
  5
CF
330
CC
100
AcDbEntity
  8
0
  0
POLYLINE
  5
D0
330
1F
100
AcDbEntity
  8
0
 62
     7
100
AcDb2dPolyline
 66
     1
 10
0.0
 20
0.0
 30
0.0
  0
VERTEX
  5
D1
330
D0
100
AcDbEntity
  8
0
 62
     7
100
AcDbVertex
100
AcDb2dVertex
 10
112.827468337909
 20
149.1553351760634
 30
0.0
  0
VERTEX
  5
D2
330
D0
100
AcDbEntity
  8
0
 62
     7
100
AcDbVertex
100
AcDb2dVertex
 10
107.4817101468798
 20
149.385812216071
 30
0.0
  0
SEQEND
  5
D3
330
D0
100
AcDbEntity
  8
0
  0
POLYLINE
  5
D4
330
1F
100
AcDbEntity
  8
0
 62
     7
100
AcDb2dPolyline
 66
     1
 10
0.0
 20
0.0
 30
0.0
  0
VERTEX
  5
D5
330
D4
100
AcDbEntity
  8
0
 62
     7
100
AcDbVertex
100
AcDb2dVertex
 10
107.4817101468798
 20
149.385812216071
 30
0.0
  0
VERTEX
  5
D6
330
D4
100
AcDbEntity
  8
0
 62
     7
100
AcDbVertex
100
AcDb2dVertex
 10
101.469497794573
 20
149.385812216071
 30
0.0
  0
SEQEND
  5
D7
330
D4
100
AcDbEntity
  8
0
  0
POLYLINE
  5
D8
330
1F
100
AcDbEntity
  8
0
 62
     7
100
AcDb2dPolyline
 66
     1
 10
0.0
 20
0.0
 30
0.0
  0
VERTEX
  5
D9
330
D8
100
AcDbEntity
  8
0
 62
     7
100
AcDbVertex
100
AcDb2dVertex
 10
113.9946674583064
 20
147.131167988373
 30
0.0
  0
VERTEX
  5
DA
330
D8
100
AcDbEntity
  8
0
 62
     7
100
AcDbVertex
100
AcDb2dVertex
 10
124.014734287338
 20
147.131167988373
 30
0.0
  0
SEQEND
  5
DB
330
D8
100
AcDbEntity
  8
0
  0
POLYLINE
  5
DC
330
1F
100
AcDbEntity
  8
0
 62
     7
100
AcDb2dPolyline
 66
     1
 10
0.0
 20
0.0
 30
0.0
  0
VERTEX
  5
DD
330
DC
100
AcDbEntity
  8
0
 62
     7
100
AcDbVertex
100
AcDb2dVertex
 10
124.9166608803723
 20
148.699720997573
 30
0.0
  0
VERTEX
  5
DE
330
DC
100
AcDbEntity
  8
0
 62
     7
100
AcDbVertex
100
AcDb2dVertex
 10
124.014734287338
 20
147.131167988373
 30
0.0
  0
SEQEND
  5
DF
330
DC
100
AcDbEntity
  8
0
  0
POLYLINE
  5
E0
330
1F
100
AcDbEntity
  8
0
 62
     7
100
AcDb2dPolyline
 66
     1
 10
0.0
 20
0.0
 30
0.0
  0
VERTEX
  5
E1
330
E0
100
AcDbEntity
  8
0
 62
     7
100
AcDbVertex
100
AcDb2dVertex
 10
112.827468337909
 20
149.1553351760634
 30
0.0
  0
VERTEX
  5
E2
330
E0
100
AcDbEntity
  8
0
 62
     7
100
AcDbVertex
100
AcDb2dVertex
 10
113.9946674583064
 20
147.131167988373
 30
0.0
  0
SEQEND
  5
E3
330
E0
100
AcDbEntity
  8
0
  0
POLYLINE
  5
E4
330
1F
100
AcDbEntity
  8
0
 62
     7
100
AcDb2dPolyline
 66
     1
 10
0.0
 20
0.0
 30
0.0
  0
VERTEX
  5
E5
330
E4
100
AcDbEntity
  8
0
 62
     7
100
AcDbVertex
100
AcDb2dVertex
 10
126.0190921629201
 20
126.5746141763914
 30
0.0
  0
VERTEX
  5
E6
330
E4
100
AcDbEntity
  8
0
 62
     7
100
AcDbVertex
100
AcDb2dVertex
 10
126.0190921629201
 20
148.6592410989169
 30
0.0
  0
SEQEND
  5
E7
330
E4
100
AcDbEntity
  8
0
  0
POLYLINE
  5
E8
330
1F
100
AcDbEntity
  8
0
 62
     7
100
AcDb2dPolyline
 66
     1
 10
0.0
 20
0.0
 30
0.0
  0
VERTEX
  5
E9
330
E8
100
AcDbEntity
  8
0
 62
     7
100
AcDbVertex
100
AcDb2dVertex
 10
126.5196648671519
 20
133.7941610379759
 30
0.0
  0
VERTEX
  5
EA
330
E8
100
AcDbEntity
  8
0
 62
     7
100
AcDbVertex
100
AcDb2dVertex
 10
131.028953322548
 20
133.7941610379759
 30
0.0
  0
SEQEND
  5
EB
330
E8
100
AcDbEntity
  8
0
  0
POLYLINE
  5
EC
330
1F
100
AcDbEntity
  8
0
 62
     7
100
AcDb2dPolyline
 66
     1
 10
0.0
 20
0.0
 30
0.0
  0
VERTEX
  5
ED
330
EC
100
AcDbEntity
  8
0
 62
     7
100
AcDbVertex
100
AcDb2dVertex
 10
131.028953322548
 20
148.6344363950596
 30
0.0
  0
VERTEX
  5
EE
330
EC
100
AcDbEntity
  8
0
 62
     7
100
AcDbVertex
100
AcDb2dVertex
 10
131.028953322548
 20
126.5897726065265
 30
0.0
  0
SEQEND
  5
EF
330
EC
100
AcDbEntity
  8
0
  0
POLYLINE
  5
F0
330
1F
100
AcDbEntity
  8
0
 62
     7
100
AcDb2dPolyline
 66
     1
 10
0.0
 20
0.0
 30
0.0
  0
VERTEX
  5
F1
330
F0
100
AcDbEntity
  8
0
 62
     7
100
AcDbVertex
100
AcDb2dVertex
 10
133.2837698051339
 20
150.8890806227576
 30
0.0
  0
VERTEX
  5
F2
330
F0
100
AcDbEntity
  8
0
 62
     7
100
AcDbVertex
100
AcDb2dVertex
 10
131.028953322548
 20
148.6344363950596
 30
0.0
  0
SEQEND
  5
F3
330
F0
100
AcDbEntity
  8
0
  0
SPLINE
  5
F4
330
1F
100
AcDbEntity
  8
0
 62
     7
100
AcDbSpline
210
0.0
220
0.0
230
1.0
 70
     8
 71
     3
 72
     8
 73
     4
 74
     0
 42
0.0000000001
 43
0.0000000001
 40
0.0
 40
0.0
 40
0.0
 40
0.0
 40
1.0
 40
1.0
 40
1.0
 40
1.0
 10
144.5561296691845
 20
146.6302507743654
 30
0.0
 10
144.5561296691845
 20
148.2904433839271
 30
0.0
 10
143.2101299751489
 20
149.6366153328507
 30
0.0
 10
141.5499373655872
 20
149.6366153328507
 30
0.0
  0
SPLINE
  5
F5
330
1F
100
AcDbEntity
  8
0
 62
     7
100
AcDbSpline
210
0.0
220
0.0
230
1.0
 70
     8
 71
     3
 72
     8
 73
     4
 74
     0
 42
0.0000000001
 43
0.0000000001
 40
0.0
 40
0.0
 40
0.0
 40
0.0
 40
1.0
 40
1.0
 40
1.0
 40
1.0
 10
141.5499373655872
 20
125.588282688287
 30
0.0
 10
143.2101299751489
 20
125.588282688287
 30
0.0
 10
144.5561296691845
 20
126.933593362771
 30
0.0
 10
144.5561296691845
 20
128.5941304821086
 30
0.0
  0
POLYLINE
  5
F6
330
1F
100
AcDbEntity
  8
0
 62
     7
100
AcDb2dPolyline
 66
     1
 10
0.0
 20
0.0
 30
0.0
  0
VERTEX
  5
F7
330
F6
100
AcDbEntity
  8
0
 62
     7
100
AcDbVertex
100
AcDb2dVertex
 10
141.5499373655872
 20
125.588282688287
 30
0.0
  0
VERTEX
  5
F8
330
F6
100
AcDbEntity
  8
0
 62
     7
100
AcDbVertex
100
AcDb2dVertex
 10
132.031132260339
 20
125.588282688287
 30
0.0
  0
SEQEND
  5
F9
330
F6
100
AcDbEntity
  8
0
  0
POLYLINE
  5
FA
330
1F
100
AcDbEntity
  8
0
 62
     7
100
AcDb2dPolyline
 66
     1
 10
0.0
 20
0.0
 30
0.0
  0
VERTEX
  5
FB
330
FA
100
AcDbEntity
  8
0
 62
     7
100
AcDbVertex
100
AcDb2dVertex
 10
133.2837698051339
 20
124.3356451434921
 30
0.0
  0
VERTEX
  5
FC
330
FA
100
AcDbEntity
  8
0
 62
     7
100
AcDbVertex
100
AcDb2dVertex
 10
131.028953322548
 20
126.5897726065265
 30
0.0
  0
SEQEND
  5
FD
330
FA
100
AcDbEntity
  8
0
  0
POLYLINE
  5
FE
330
1F
100
AcDbEntity
  8
0
 62
     7
100
AcDb2dPolyline
 66
     1
 10
0.0
 20
0.0
 30
0.0
  0
VERTEX
  5
FF
330
FE
100
AcDbEntity
  8
0
 62
     7
100
AcDbVertex
100
AcDb2dVertex
 10
133.2837698051339
 20
150.8890806227576
 30
0.0
  0
VERTEX
  5
100
330
FE
100
AcDbEntity
  8
0
 62
     7
100
AcDbVertex
100
AcDb2dVertex
 10
139.4460161648
 20
150.8890806227576
 30
0.0
  0
SEQEND
  5
101
330
FE
100
AcDbEntity
  8
0
  0
SPLINE
  5
102
330
1F
100
AcDbEntity
  8
0
 62
     7
100
AcDbSpline
210
0.0
220
0.0
230
1.0
 70
     8
 71
     3
 72
     8
 73
     4
 74
     0
 42
0.0000000001
 43
0.0000000001
 40
0.0
 40
0.0
 40
0.0
 40
0.0
 40
1.0
 40
1.0
 40
1.0
 40
1.0
 10
141.0100905469146
 20
149.6366153328507
 30
0.0
 10
140.8461038936356
 20
150.3686986064175
 30
0.0
 10
140.1956694369324
 20
150.8890806227576
 30
0.0
 10
139.4460161648
 20
150.8890806227576
 30
0.0
  0
SPLINE
  5
103
330
1F
100
AcDbEntity
  8
0
 62
     7
100
AcDbSpline
210
0.0
220
0.0
230
1.0
 70
     8
 71
     3
 72
     8
 73
     4
 74
     0
 42
0.0000000001
 43
0.0000000001
 40
0.0
 40
0.0
 40
0.0
 40
0.0
 40
1.0
 40
1.0
 40
1.0
 40
1.0
 10
139.4460161648
 20
124.3356451434921
 30
0.0
 10
140.1956694369324
 20
124.3356451434921
 30
0.0
 10
140.8461038936356
 20
124.8555103951685
 30
0.0
 10
141.0100905469146
 20
125.588282688287
 30
0.0
  0
POLYLINE
  5
104
330
1F
100
AcDbEntity
  8
0
 62
     7
100
AcDb2dPolyline
 66
     1
 10
0.0
 20
0.0
 30
0.0
  0
VERTEX
  5
105
330
104
100
AcDbEntity
  8
0
 62
     7
100
AcDbVertex
100
AcDb2dVertex
 10
139.4460161648
 20
124.3356451434921
 30
0.0
  0
VERTEX
  5
106
330
104
100
AcDbEntity
  8
0
 62
     7
100
AcDbVertex
100
AcDb2dVertex
 10
133.2837698051339
 20
124.3356451434921
 30
0.0
  0
SEQEND
  5
107
330
104
100
AcDbEntity
  8
0
  0
POLYLINE
  5
108
330
1F
100
AcDbEntity
  8
0
 62
     7
100
AcDb2dPolyline
 66
     1
 10
0.0
 20
0.0
 30
0.0
  0
VERTEX
  5
109
330
108
100
AcDbEntity
  8
0
 62
     7
100
AcDbVertex
100
AcDb2dVertex
 10
132.031132260339
 20
125.588282688287
 30
0.0
  0
VERTEX
  5
10A
330
108
100
AcDbEntity
  8
0
 62
     7
100
AcDbVertex
100
AcDb2dVertex
 10
132.031132260339
 20
130.1726742748066
 30
0.0
  0
SEQEND
  5
10B
330
108
100
AcDbEntity
  8
0
  0
POLYLINE
  5
10C
330
1F
100
AcDbEntity
  8
0
 62
     7
100
AcDb2dPolyline
 66
     1
 10
0.0
 20
0.0
 30
0.0
  0
VERTEX
  5
10D
330
10C
100
AcDbEntity
  8
0
 62
     7
100
AcDbVertex
100
AcDb2dVertex
 10
139.6213716406802
 20
133.0279712966052
 30
0.0
  0
VERTEX
  5
10E
330
10C
100
AcDbEntity
  8
0
 62
     7
100
AcDbVertex
100
AcDb2dVertex
 10
132.031132260339
 20
133.0279712966052
 30
0.0
  0
SEQEND
  5
10F
330
10C
100
AcDbEntity
  8
0
  0
POLYLINE
  5
110
330
1F
100
AcDbEntity
  8
0
 62
     7
100
AcDb2dPolyline
 66
     1
 10
0.0
 20
0.0
 30
0.0
  0
VERTEX
  5
111
330
110
100
AcDbEntity
  8
0
 62
     7
100
AcDbVertex
100
AcDb2dVertex
 10
139.6213716406802
 20
130.1726742748066
 30
0.0
  0
VERTEX
  5
112
330
110
100
AcDbEntity
  8
0
 62
     7
100
AcDbVertex
100
AcDb2dVertex
 10
132.031132260339
 20
130.1726742748066
 30
0.0
  0
SEQEND
  5
113
330
110
100
AcDbEntity
  8
0
  0
SPLINE
  5
114
330
1F
100
AcDbEntity
  8
0
 62
     7
100
AcDbSpline
210
0.0
220
0.0
230
1.0
 70
     8
 71
     3
 72
    20
 73
    16
 74
     0
 42
0.0000000001
 43
0.0000000001
 40
0.0
 40
0.0
 40
0.0
 40
0.0
 40
1.0
 40
1.0
 40
1.0
 40
2.0
 40
2.0
 40
2.0
 40
3.0
 40
3.0
 40
3.0
 40
4.0
 40
4.0
 40
4.0
 40
5.0
 40
5.0
 40
5.0
 40
5.0
 10
139.6213716406802
 20
130.1726742748066
 30
0.0
 10
140.4099545174776
 20
130.1726742748066
 30
0.0
 10
141.0490201515796
 20
130.8117399089085
 30
0.0
 10
141.0490201515796
 20
131.5999782759301
 30
0.0
 10
141.0490201515796
 20
131.5999782759301
 30
0.0
 10
141.0490201515796
 20
131.5999782759301
 30
0.0
 10
141.0490201515796
 20
131.5999782759301
 30
0.0
 10
141.0490201515796
 20
131.5999782759301
 30
0.0
 10
141.0490201515796
 20
131.5999782759301
 30
0.0
 10
141.0490201515796
 20
131.5999782759301
 30
0.0
 10
141.0490201515796
 20
131.5999782759301
 30
0.0
 10
141.0490201515796
 20
131.5999782759301
 30
0.0
 10
141.0490201515796
 20
131.5999782759301
 30
0.0
 10
141.0490201515796
 20
132.3885611527276
 30
0.0
 10
140.4099545174776
 20
133.0279712966052
 30
0.0
 10
139.6213716406802
 20
133.0279712966052
 30
0.0
  0
SPLINE
  5
115
330
1F
100
AcDbEntity
  8
0
 62
     7
100
AcDbSpline
210
0.0
220
0.0
230
1.0
 70
     8
 71
     3
 72
    20
 73
    16
 74
     0
 42
0.0000000001
 43
0.0000000001
 40
0.0
 40
0.0
 40
0.0
 40
0.0
 40
1.0
 40
1.0
 40
1.0
 40
2.0
 40
2.0
 40
2.0
 40
3.0
 40
3.0
 40
3.0
 40
4.0
 40
4.0
 40
4.0
 40
5.0
 40
5.0
 40
5.0
 40
5.0
 10
132.0304432407874
 20
130.1740523139098
 30
0.0
 10
132.8179925882575
 20
130.2725821097875
 30
0.0
 10
133.3764429348231
 20
130.9919185216499
 30
0.0
 10
133.2775686291696
 20
131.7798123788957
 30
0.0
 10
133.2775686291696
 20
131.7798123788957
 30
0.0
 10
133.2775686291696
 20
131.7798123788957
 30
0.0
 10
133.2775686291696
 20
131.7798123788957
 30
0.0
 10
133.2775686291696
 20
131.7798123788957
 30
0.0
 10
133.2775686291696
 20
131.7798123788957
 30
0.0
 10
133.2775686291696
 20
131.7798123788957
 30
0.0
 10
133.2775686291696
 20
131.7798123788957
 30
0.0
 10
133.2775686291696
 20
131.7798123788957
 30
0.0
 10
133.2775686291696
 20
131.7798123788957
 30
0.0
 10
133.1948862829785
 20
132.4312803649263
 30
0.0
 10
132.681911226818
 20
132.9442554210868
 30
0.0
 10
132.0304432407874
 20
133.0265932575021
 30
0.0
  0
POLYLINE
  5
116
330
1F
100
AcDbEntity
  8
0
 62
     7
100
AcDb2dPolyline
 66
     1
 10
0.0
 20
0.0
 30
0.0
  0
VERTEX
  5
117
330
116
100
AcDbEntity
  8
0
 62
     7
100
AcDbVertex
100
AcDb2dVertex
 10
132.031132260339
 20
149.6366153328507
 30
0.0
  0
VERTEX
  5
118
330
116
100
AcDbEntity
  8
0
 62
     7
100
AcDbVertex
100
AcDb2dVertex
 10
141.5499373655872
 20
149.6366153328507
 30
0.0
  0
SEQEND
  5
119
330
116
100
AcDbEntity
  8
0
  0
POLYLINE
  5
11A
330
1F
100
AcDbEntity
  8
0
 62
     7
100
AcDb2dPolyline
 66
     1
 10
0.0
 20
0.0
 30
0.0
  0
VERTEX
  5
11B
330
11A
100
AcDbEntity
  8
0
 62
     7
100
AcDbVertex
100
AcDb2dVertex
 10
144.5561296691845
 20
146.6302507743654
 30
0.0
  0
VERTEX
  5
11C
330
11A
100
AcDbEntity
  8
0
 62
     7
100
AcDbVertex
100
AcDb2dVertex
 10
144.5561296691845
 20
128.5941304821086
 30
0.0
  0
SEQEND
  5
11D
330
11A
100
AcDbEntity
  8
0
  0
POLYLINE
  5
11E
330
1F
100
AcDbEntity
  8
0
 62
     7
100
AcDb2dPolyline
 66
     1
 10
0.0
 20
0.0
 30
0.0
  0
VERTEX
  5
11F
330
11E
100
AcDbEntity
  8
0
 62
     7
100
AcDbVertex
100
AcDb2dVertex
 10
100.9685805805654
 20
147.5270097207628
 30
0.0
  0
VERTEX
  5
120
330
11E
100
AcDbEntity
  8
0
 62
     7
100
AcDbVertex
100
AcDb2dVertex
 10
101.469497794573
 20
147.5270097207628
 30
0.0
  0
SEQEND
  5
121
330
11E
100
AcDbEntity
  8
0
  0
SPLINE
  5
122
330
1F
100
AcDbEntity
  8
0
 62
     7
100
AcDbSpline
210
0.0
220
0.0
230
1.0
 70
     8
 71
     3
 72
     8
 73
     4
 74
     0
 42
0.0000000001
 43
0.0000000001
 40
0.0
 40
0.0
 40
0.0
 40
0.0
 40
1.0
 40
1.0
 40
1.0
 40
1.0
 10
100.6678235462953
 20
147.8277667550329
 30
0.0
 10
100.6678235462953
 20
147.6617130430991
 30
0.0
 10
100.8025268686316
 20
147.5270097207628
 30
0.0
 10
100.9685805805654
 20
147.5270097207628
 30
0.0
  0
POLYLINE
  5
123
330
1F
100
AcDbEntity
  8
0
 62
     7
100
AcDb2dPolyline
 66
     1
 10
0.0
 20
0.0
 30
0.0
  0
VERTEX
  5
124
330
123
100
AcDbEntity
  8
0
 62
     7
100
AcDbVertex
100
AcDb2dVertex
 10
126.5196648671519
 20
141.430220218498
 30
0.0
  0
VERTEX
  5
125
330
123
100
AcDbEntity
  8
0
 62
     7
100
AcDbVertex
100
AcDb2dVertex
 10
131.028953322548
 20
141.430220218498
 30
0.0
  0
SEQEND
  5
126
330
123
100
AcDbEntity
  8
0
  0
POLYLINE
  5
127
330
1F
100
AcDbEntity
  8
0
 62
     7
100
AcDb2dPolyline
 66
     1
 10
0.0
 20
0.0
 30
0.0
  0
VERTEX
  5
128
330
127
100
AcDbEntity
  8
0
 62
     7
100
AcDbVertex
100
AcDb2dVertex
 10
127.5221883147188
 20
141.430220218498
 30
0.0
  0
VERTEX
  5
129
330
127
100
AcDbEntity
  8
0
 62
     7
100
AcDbVertex
100
AcDb2dVertex
 10
127.5221883147188
 20
147.5121958004036
 30
0.0
  0
SEQEND
  5
12A
330
127
100
AcDbEntity
  8
0
  0
POLYLINE
  5
12B
330
1F
100
AcDbEntity
  8
0
 62
     7
100
AcDb2dPolyline
 66
     1
 10
0.0
 20
0.0
 30
0.0
  0
VERTEX
  5
12C
330
12B
100
AcDbEntity
  8
0
 62
     7
100
AcDbVertex
100
AcDb2dVertex
 10
132.031132260339
 20
142.1960654500929
 30
0.0
  0
VERTEX
  5
12D
330
12B
100
AcDbEntity
  8
0
 62
     7
100
AcDbVertex
100
AcDb2dVertex
 10
132.031132260339
 20
133.0279712966052
 30
0.0
  0
SEQEND
  5
12E
330
12B
100
AcDbEntity
  8
0
  0
POLYLINE
  5
12F
330
1F
100
AcDbEntity
  8
0
 62
     7
100
AcDb2dPolyline
 66
     1
 10
0.0
 20
0.0
 30
0.0
  0
VERTEX
  5
130
330
12F
100
AcDbEntity
  8
0
 62
     7
100
AcDbVertex
100
AcDb2dVertex
 10
139.6213716406802
 20
142.1960654500929
 30
0.0
  0
VERTEX
  5
131
330
12F
100
AcDbEntity
  8
0
 62
     7
100
AcDbVertex
100
AcDb2dVertex
 10
132.031132260339
 20
142.1960654500929
 30
0.0
  0
SEQEND
  5
132
330
12F
100
AcDbEntity
  8
0
  0
POLYLINE
  5
133
330
1F
100
AcDbEntity
  8
0
 62
     7
100
AcDb2dPolyline
 66
     1
 10
0.0
 20
0.0
 30
0.0
  0
VERTEX
  5
134
330
133
100
AcDbEntity
  8
0
 62
     7
100
AcDbVertex
100
AcDb2dVertex
 10
139.6213716406802
 20
145.0520514914431
 30
0.0
  0
VERTEX
  5
135
330
133
100
AcDbEntity
  8
0
 62
     7
100
AcDbVertex
100
AcDb2dVertex
 10
132.031132260339
 20
145.0520514914431
 30
0.0
  0
SEQEND
  5
136
330
133
100
AcDbEntity
  8
0
  0
SPLINE
  5
137
330
1F
100
AcDbEntity
  8
0
 62
     7
100
AcDbSpline
210
0.0
220
0.0
230
1.0
 70
     8
 71
     3
 72
    20
 73
    16
 74
     0
 42
0.0000000001
 43
0.0000000001
 40
0.0
 40
0.0
 40
0.0
 40
0.0
 40
1.0
 40
1.0
 40
1.0
 40
2.0
 40
2.0
 40
2.0
 40
3.0
 40
3.0
 40
3.0
 40
4.0
 40
4.0
 40
4.0
 40
5.0
 40
5.0
 40
5.0
 40
5.0
 10
139.6213716406802
 20
142.1960654500929
 30
0.0
 10
140.4099545174776
 20
142.1960654500929
 30
0.0
 10
141.0490201515796
 20
142.8358201037464
 30
0.0
 10
141.0490201515796
 20
143.624058470768
 30
0.0
 10
141.0490201515796
 20
143.624058470768
 30
0.0
 10
141.0490201515796
 20
143.624058470768
 30
0.0
 10
141.0490201515796
 20
143.624058470768
 30
0.0
 10
141.0490201515796
 20
143.624058470768
 30
0.0
 10
141.0490201515796
 20
143.624058470768
 30
0.0
 10
141.0490201515796
 20
143.624058470768
 30
0.0
 10
141.0490201515796
 20
143.624058470768
 30
0.0
 10
141.0490201515796
 20
143.624058470768
 30
0.0
 10
141.0490201515796
 20
143.624058470768
 30
0.0
 10
141.0490201515796
 20
144.4129858573413
 30
0.0
 10
140.4099545174776
 20
145.0520514914431
 30
0.0
 10
139.6213716406802
 20
145.0520514914431
 30
0.0
  0
SPLINE
  5
138
330
1F
100
AcDbEntity
  8
0
 62
     7
100
AcDbSpline
210
0.0
220
0.0
230
1.0
 70
     8
 71
     3
 72
    20
 73
    16
 74
     0
 42
0.0000000001
 43
0.0000000001
 40
0.0
 40
0.0
 40
0.0
 40
0.0
 40
1.0
 40
1.0
 40
1.0
 40
2.0
 40
2.0
 40
2.0
 40
3.0
 40
3.0
 40
3.0
 40
4.0
 40
4.0
 40
4.0
 40
5.0
 40
5.0
 40
5.0
 40
5.0
 10
132.0304432407874
 20
142.1974434891961
 30
0.0
 10
132.8179925882575
 20
142.2970068144012
 30
0.0
 10
133.3764429348231
 20
143.015654206712
 30
0.0
 10
133.2775686291696
 20
143.8038925737336
 30
0.0
 10
133.2775686291696
 20
143.8038925737336
 30
0.0
 10
133.2775686291696
 20
143.8038925737336
 30
0.0
 10
133.2775686291696
 20
143.8038925737336
 30
0.0
 10
133.2775686291696
 20
143.8038925737336
 30
0.0
 10
133.2775686291696
 20
143.8038925737336
 30
0.0
 10
133.2775686291696
 20
143.8038925737336
 30
0.0
 10
133.2775686291696
 20
143.8038925737336
 30
0.0
 10
133.2775686291696
 20
143.8038925737336
 30
0.0
 10
133.2775686291696
 20
143.8038925737336
 30
0.0
 10
133.1948862829785
 20
144.45570506954
 30
0.0
 10
132.681911226818
 20
144.9686801257005
 30
0.0
 10
132.0304432407874
 20
145.05067345234
 30
0.0
  0
POLYLINE
  5
139
330
1F
100
AcDbEntity
  8
0
 62
     7
100
AcDb2dPolyline
 66
     1
 10
0.0
 20
0.0
 30
0.0
  0
VERTEX
  5
13A
330
139
100
AcDbEntity
  8
0
 62
     7
100
AcDbVertex
100
AcDb2dVertex
 10
132.031132260339
 20
149.6366153328507
 30
0.0
  0
VERTEX
  5
13B
330
139
100
AcDbEntity
  8
0
 62
     7
100
AcDbVertex
100
AcDb2dVertex
 10
132.031132260339
 20
145.05067345234
 30
0.0
  0
SEQEND
  5
13C
330
139
100
AcDbEntity
  8
0
  0
POLYLINE
  5
13D
330
1F
100
AcDbEntity
  8
0
 62
     7
100
AcDb2dPolyline
 66
     1
 10
0.0
 20
0.0
 30
0.0
  0
VERTEX
  5
13E
330
13D
100
AcDbEntity
  8
0
 62
     7
100
AcDbVertex
100
AcDb2dVertex
 10
98.16272071159347
 20
141.2042218055757
 30
0.0
  0
VERTEX
  5
13F
330
13D
100
AcDbEntity
  8
0
 62
     7
100
AcDbVertex
100
AcDb2dVertex
 10
100.1669063322877
 20
141.2042218055757
 30
0.0
  0
SEQEND
  5
140
330
13D
100
AcDbEntity
  8
0
  0
POLYLINE
  5
141
330
1F
100
AcDbEntity
  8
0
 62
     7
100
AcDb2dPolyline
 66
     1
 10
0.0
 20
0.0
 30
0.0
  0
VERTEX
  5
142
330
141
100
AcDbEntity
  8
0
 62
     7
100
AcDbVertex
100
AcDb2dVertex
 10
100.1669063322877
 20
150.638277505978
 30
0.0
  0
VERTEX
  5
143
330
141
100
AcDbEntity
  8
0
 62
     7
100
AcDbVertex
100
AcDb2dVertex
 10
100.1669063322877
 20
141.2042218055757
 30
0.0
  0
SEQEND
  5
144
330
141
100
AcDbEntity
  8
0
  0
POLYLINE
  5
145
330
1F
100
AcDbEntity
  8
0
 62
     7
100
AcDb2dPolyline
 66
     1
 10
0.0
 20
0.0
 30
0.0
  0
VERTEX
  5
146
330
145
100
AcDbEntity
  8
0
 62
     7
100
AcDbVertex
100
AcDb2dVertex
 10
98.16272071159347
 20
150.638277505978
 30
0.0
  0
VERTEX
  5
147
330
145
100
AcDbEntity
  8
0
 62
     7
100
AcDbVertex
100
AcDb2dVertex
 10
98.16272071159347
 20
141.2042218055757
 30
0.0
  0
SEQEND
  5
148
330
145
100
AcDbEntity
  8
0
  0
SPLINE
  5
149
330
1F
100
AcDbEntity
  8
0
 62
     7
100
AcDbSpline
210
0.0
220
0.0
230
1.0
 70
     8
 71
     3
 72
     8
 73
     4
 74
     0
 42
0.0000000001
 43
0.0000000001
 40
0.0
 40
0.0
 40
0.0
 40
0.0
 40
1.0
 40
1.0
 40
1.0
 40
1.0
 10
100.1669063322877
 20
134.0201594508982
 30
0.0
 10
100.8349107875565
 20
136.3683380827249
 30
0.0
 10
100.8349107875565
 20
138.856043173749
 30
0.0
 10
100.1669063322877
 20
141.2042218055757
 30
0.0
  0
SPLINE
  5
14A
330
1F
100
AcDbEntity
  8
0
 62
     7
100
AcDbSpline
210
0.0
220
0.0
230
1.0
 70
     8
 71
     3
 72
     8
 73
     4
 74
     0
 42
0.0000000001
 43
0.0000000001
 40
0.0
 40
0.0
 40
0.0
 40
0.0
 40
1.0
 40
1.0
 40
1.0
 40
1.0
 10
98.16272071159347
 20
141.2042218055757
 30
0.0
 10
97.49488851121259
 20
138.856043173749
 30
0.0
 10
97.49488851121259
 20
136.3683380827249
 30
0.0
 10
98.16272071159347
 20
134.0201594508982
 30
0.0
  0
SPLINE
  5
14B
330
1F
100
AcDbEntity
  8
0
 62
     7
100
AcDbSpline
210
0.0
220
0.0
230
1.0
 70
     8
 71
     3
 72
     8
 73
     4
 74
     0
 42
0.0000000001
 43
0.0000000001
 40
0.0
 40
0.0
 40
0.0
 40
0.0
 40
1.0
 40
1.0
 40
1.0
 40
1.0
 10
87.64173666855427
 20
146.5651384267399
 30
0.0
 10
85.82186377791101
 20
146.3680788349845
 30
0.0
 10
84.18096371579385
 20
145.3807138175527
 30
0.0
 10
83.15415232903338
 20
143.8655598236011
 30
0.0
  0
SPLINE
  5
14C
330
1F
100
AcDbEntity
  8
0
 62
     7
100
AcDbSpline
210
0.0
220
0.0
230
1.0
 70
     8
 71
     3
 72
     8
 73
     4
 74
     0
 42
0.0000000001
 43
0.0000000001
 40
0.0
 40
0.0
 40
0.0
 40
0.0
 40
1.0
 40
1.0
 40
1.0
 40
1.0
 10
83.02720047665248
 20
141.8329521464037
 30
0.0
 10
83.89881020941679
 20
140.1197050313694
 30
0.0
 10
85.72798486400656
 20
139.1120139371656
 30
0.0
 10
87.64173666855427
 20
139.290470001028
 30
0.0
  0
SPLINE
  5
14D
330
1F
100
AcDbEntity
  8
0
 62
     7
100
AcDbSpline
210
0.0
220
0.0
230
1.0
 70
     8
 71
     3
 72
     8
 73
     4
 74
     0
 42
0.0000000001
 43
0.0000000001
 40
0.0
 40
0.0
 40
0.0
 40
0.0
 40
1.0
 40
1.0
 40
1.0
 40
1.0
 10
83.15415232903338
 20
143.8655598236011
 30
0.0
 10
82.74487471538753
 20
143.2616341866305
 30
0.0
 10
82.69629883700027
 20
142.4830420933311
 30
0.0
 10
83.02720047665248
 20
141.8329521464037
 30
0.0
  0
POLYLINE
  5
14E
330
1F
100
AcDbEntity
  8
0
 62
     7
100
AcDb2dPolyline
 66
     1
 10
0.0
 20
0.0
 30
0.0
  0
VERTEX
  5
14F
330
14E
100
AcDbEntity
  8
0
 62
     7
100
AcDbVertex
100
AcDb2dVertex
 10
101.469497794573
 20
127.9929609233442
 30
0.0
  0
VERTEX
  5
150
330
14E
100
AcDbEntity
  8
0
 62
     7
100
AcDbVertex
100
AcDb2dVertex
 10
100.9585897970673
 20
127.6973715357111
 30
0.0
  0
SEQEND
  5
151
330
14E
100
AcDbEntity
  8
0
  0
POLYLINE
  5
152
330
1F
100
AcDbEntity
  8
0
 62
     7
100
AcDb2dPolyline
 66
     1
 10
0.0
 20
0.0
 30
0.0
  0
VERTEX
  5
153
330
152
100
AcDbEntity
  8
0
 62
     7
100
AcDbVertex
100
AcDb2dVertex
 10
131.028953322548
 20
147.2269417060444
 30
0.0
  0
VERTEX
  5
154
330
152
100
AcDbEntity
  8
0
 62
     7
100
AcDbVertex
100
AcDb2dVertex
 10
127.5221883147188
 20
147.2269417060444
 30
0.0
  0
SEQEND
  5
155
330
152
100
AcDbEntity
  8
0
  0
POLYLINE
  5
156
330
1F
100
AcDbEntity
  8
0
 62
     7
100
AcDb2dPolyline
 66
     1
 10
0.0
 20
0.0
 30
0.0
  0
VERTEX
  5
157
330
156
100
AcDbEntity
  8
0
 62
     7
100
AcDbVertex
100
AcDb2dVertex
 10
127.5221883147188
 20
127.9977840602054
 30
0.0
  0
VERTEX
  5
158
330
156
100
AcDbEntity
  8
0
 62
     7
100
AcDbVertex
100
AcDb2dVertex
 10
131.028953322548
 20
127.9977840602054
 30
0.0
  0
SEQEND
  5
159
330
156
100
AcDbEntity
  8
0
  0
POLYLINE
  5
15A
330
1F
100
AcDbEntity
  8
0
 62
     7
100
AcDb2dPolyline
 66
     1
 10
0.0
 20
0.0
 30
0.0
  0
VERTEX
  5
15B
330
15A
100
AcDbEntity
  8
0
 62
     7
100
AcDbVertex
100
AcDb2dVertex
 10
127.5221883147188
 20
147.2269417060444
 30
0.0
  0
VERTEX
  5
15C
330
15A
100
AcDbEntity
  8
0
 62
     7
100
AcDbVertex
100
AcDb2dVertex
 10
127.0257497277965
 20
147.5121958004036
 30
0.0
  0
SEQEND
  5
15D
330
15A
100
AcDbEntity
  8
0
  0
POLYLINE
  5
15E
330
1F
100
AcDbEntity
  8
0
 62
     7
100
AcDb2dPolyline
 66
     1
 10
0.0
 20
0.0
 30
0.0
  0
VERTEX
  5
15F
330
15E
100
AcDbEntity
  8
0
 62
     7
100
AcDbVertex
100
AcDb2dVertex
 10
127.5221883147188
 20
127.9977840602054
 30
0.0
  0
VERTEX
  5
160
330
15E
100
AcDbEntity
  8
0
 62
     7
100
AcDbVertex
100
AcDb2dVertex
 10
127.0257497277965
 20
127.7125299658462
 30
0.0
  0
SEQEND
  5
161
330
15E
100
AcDbEntity
  8
0
  0
POLYLINE
  5
162
330
1F
100
AcDbEntity
  8
0
 62
     7
100
AcDb2dPolyline
 66
     1
 10
0.0
 20
0.0
 30
0.0
  0
VERTEX
  5
163
330
162
100
AcDbEntity
  8
0
 62
     7
100
AcDbVertex
100
AcDb2dVertex
 10
101.469497794573
 20
147.2317648429055
 30
0.0
  0
VERTEX
  5
164
330
162
100
AcDbEntity
  8
0
 62
     7
100
AcDbVertex
100
AcDb2dVertex
 10
100.9585897970673
 20
147.5270097207628
 30
0.0
  0
SEQEND
  5
165
330
162
100
AcDbEntity
  8
0
  0
POLYLINE
  5
166
330
1F
100
AcDbEntity
  8
0
 62
     7
100
AcDb2dPolyline
 66
     1
 10
0.0
 20
0.0
 30
0.0
  0
VERTEX
  5
167
330
166
100
AcDbEntity
  8
0
 62
     7
100
AcDbVertex
100
AcDb2dVertex
 10
100.1669063322877
 20
141.2042218055757
 30
0.0
  0
VERTEX
  5
168
330
166
100
AcDbEntity
  8
0
 62
     7
100
AcDbVertex
100
AcDb2dVertex
 10
98.16272071159347
 20
134.0201594508982
 30
0.0
  0
SEQEND
  5
169
330
166
100
AcDbEntity
  8
0
  0
POLYLINE
  5
16A
330
1F
100
AcDbEntity
  8
0
 62
     7
100
AcDb2dPolyline
 66
     1
 10
0.0
 20
0.0
 30
0.0
  0
VERTEX
  5
16B
330
16A
100
AcDbEntity
  8
0
 62
     7
100
AcDbVertex
100
AcDb2dVertex
 10
100.1669063322877
 20
134.0201594508982
 30
0.0
  0
VERTEX
  5
16C
330
16A
100
AcDbEntity
  8
0
 62
     7
100
AcDbVertex
100
AcDb2dVertex
 10
98.16272071159347
 20
141.2042218055757
 30
0.0
  0
SEQEND
  5
16D
330
16A
100
AcDbEntity
  8
0
  0
POLYLINE
  5
16E
330
1F
100
AcDbEntity
  8
0
 62
     7
100
AcDb2dPolyline
 66
     1
 10
0.0
 20
0.0
 30
0.0
  0
VERTEX
  5
16F
330
16E
100
AcDbEntity
  8
0
 62
     7
100
AcDbVertex
100
AcDb2dVertex
 10
131.028953322548
 20
141.430220218498
 30
0.0
  0
VERTEX
  5
170
330
16E
100
AcDbEntity
  8
0
 62
     7
100
AcDbVertex
100
AcDb2dVertex
 10
126.5196648671519
 20
133.7941610379759
 30
0.0
  0
SEQEND
  5
171
330
16E
100
AcDbEntity
  8
0
  0
POLYLINE
  5
172
330
1F
100
AcDbEntity
  8
0
 62
     7
100
AcDb2dPolyline
 66
     1
 10
0.0
 20
0.0
 30
0.0
  0
VERTEX
  5
173
330
172
100
AcDbEntity
  8
0
 62
     7
100
AcDbVertex
100
AcDb2dVertex
 10
131.028953322548
 20
133.7941610379759
 30
0.0
  0
VERTEX
  5
174
330
172
100
AcDbEntity
  8
0
 62
     7
100
AcDbVertex
100
AcDb2dVertex
 10
126.5196648671519
 20
141.430220218498
 30
0.0
  0
SEQEND
  5
175
330
172
100
AcDbEntity
  8
0
  0
POLYLINE
  5
176
330
1F
100
AcDbEntity
  8
0
 62
     7
100
AcDb2dPolyline
 66
     1
 10
0.0
 20
0.0
 30
0.0
  0
VERTEX
  5
177
330
176
100
AcDbEntity
  8
0
 62
     7
100
AcDbVertex
100
AcDb2dVertex
 10
87.64173666855427
 20
146.5651384267399
 30
0.0
  0
VERTEX
  5
178
330
176
100
AcDbEntity
  8
0
 62
     7
100
AcDbVertex
100
AcDb2dVertex
 10
83.89812118986521
 20
140.6361251852879
 30
0.0
  0
SEQEND
  5
179
330
176
100
AcDbEntity
  8
0
  0
POLYLINE
  5
17A
330
1F
100
AcDbEntity
  8
0
 62
     7
100
AcDb2dPolyline
 66
     1
 10
0.0
 20
0.0
 30
0.0
  0
VERTEX
  5
17B
330
17A
100
AcDbEntity
  8
0
 62
     7
100
AcDbVertex
100
AcDb2dVertex
 10
87.64173666855427
 20
139.290470001028
 30
0.0
  0
VERTEX
  5
17C
330
17A
100
AcDbEntity
  8
0
 62
     7
100
AcDbVertex
100
AcDb2dVertex
 10
83.89812118986521
 20
144.7678309264113
 30
0.0
  0
SEQEND
  5
17D
330
17A
100
AcDbEntity
  8
0
  0
SPLINE
  5
17E
330
1F
100
AcDbEntity
  8
0
 62
     7
100
AcDbSpline
210
0.0
220
0.0
230
1.0
 70
     8
 71
     3
 72
    20
 73
    16
 74
     0
 42
0.0000000001
 43
0.0000000001
 40
0.0
 40
0.0
 40
0.0
 40
0.0
 40
1.0
 40
1.0
 40
1.0
 40
2.0
 40
2.0
 40
2.0
 40
3.0
 40
3.0
 40
3.0
 40
4.0
 40
4.0
 40
4.0
 40
5.0
 40
5.0
 40
5.0
 40
5.0
 10
110.988475154709
 20
131.0070769517849
 30
0.0
 10
110.988475154709
 20
131.6988525815836
 30
0.0
 10
110.4279577494887
 20
132.2597144965798
 30
0.0
 10
109.73618211969
 20
132.2597144965798
 30
0.0
 10
109.73618211969
 20
132.2597144965798
 30
0.0
 10
109.73618211969
 20
132.2597144965798
 30
0.0
 10
109.73618211969
 20
132.2597144965798
 30
0.0
 10
109.73618211969
 20
132.2597144965798
 30
0.0
 10
109.73618211969
 20
132.2597144965798
 30
0.0
 10
109.73618211969
 20
132.2597144965798
 30
0.0
 10
109.73618211969
 20
132.2597144965798
 30
0.0
 10
109.73618211969
 20
132.2597144965798
 30
0.0
 10
109.73618211969
 20
132.2597144965798
 30
0.0
 10
109.0447509996671
 20
132.2597144965798
 30
0.0
 10
108.4838890846709
 20
131.6988525815836
 30
0.0
 10
108.4838890846709
 20
131.0070769517849
 30
0.0
  0
POLYLINE
  5
17F
330
1F
100
AcDbEntity
  8
0
 62
     7
100
AcDb2dPolyline
 66
     1
 10
0.0
 20
0.0
 30
0.0
  0
VERTEX
  5
180
330
17F
100
AcDbEntity
  8
0
 62
     7
100
AcDbVertex
100
AcDb2dVertex
 10
110.988475154709
 20
125.9775787349367
 30
0.0
  0
VERTEX
  5
181
330
17F
100
AcDbEntity
  8
0
 62
     7
100
AcDbVertex
100
AcDb2dVertex
 10
110.988475154709
 20
131.003631854027
 30
0.0
  0
SEQEND
  5
182
330
17F
100
AcDbEntity
  8
0
  0
POLYLINE
  5
183
330
1F
100
AcDbEntity
  8
0
 62
     7
100
AcDb2dPolyline
 66
     1
 10
0.0
 20
0.0
 30
0.0
  0
VERTEX
  5
184
330
183
100
AcDbEntity
  8
0
 62
     7
100
AcDbVertex
100
AcDb2dVertex
 10
108.4838890846709
 20
131.003631854027
 30
0.0
  0
VERTEX
  5
185
330
183
100
AcDbEntity
  8
0
 62
     7
100
AcDbVertex
100
AcDb2dVertex
 10
108.4838890846709
 20
125.8780154097316
 30
0.0
  0
SEQEND
  5
186
330
183
100
AcDbEntity
  8
0
  0
SPLINE
  5
187
330
1F
100
AcDbEntity
  8
0
 62
     7
100
AcDbSpline
210
0.0
220
0.0
230
1.0
 70
     8
 71
     3
 72
     8
 73
     4
 74
     0
 42
0.0000000001
 43
0.0000000001
 40
0.0
 40
0.0
 40
0.0
 40
0.0
 40
1.0
 40
1.0
 40
1.0
 40
1.0
 10
109.717578591797
 20
125.9272803076704
 30
0.0
 10
109.5708174273078
 20
126.1281295069596
 30
0.0
 10
109.4085533229078
 20
126.3172653738717
 30
0.0
 10
109.2338868665792
 20
126.4939988888551
 30
0.0
  0
SPLINE
  5
188
330
1F
100
AcDbEntity
  8
0
 62
     7
100
AcDbSpline
210
0.0
220
0.0
230
1.0
 70
     8
 71
     3
 72
    32
 73
    28
 74
     0
 42
0.0000000001
 43
0.0000000001
 40
0.0
 40
0.0
 40
0.0
 40
0.0
 40
1.0
 40
1.0
 40
1.0
 40
2.0
 40
2.0
 40
2.0
 40
3.0
 40
3.0
 40
3.0
 40
4.0
 40
4.0
 40
4.0
 40
5.0
 40
5.0
 40
5.0
 40
6.0
 40
6.0
 40
6.0
 40
7.0
 40
7.0
 40
7.0
 40
8.0
 40
8.0
 40
8.0
 40
9.0
 40
9.0
 40
9.0
 40
9.0
 10
109.2387100034403
 20
126.4967549670615
 30
0.0
 10
109.2400880425435
 20
126.5663459417723
 30
0.0
 10
109.1846219686403
 20
126.6242235841061
 30
0.0
 10
109.1143419743779
 20
126.6256016232092
 30
0.0
 10
109.1143419743779
 20
126.6256016232092
 30
0.0
 10
109.1143419743779
 20
126.6256016232092
 30
0.0
 10
109.1143419743779
 20
126.6256016232092
 30
0.0
 10
109.1143419743779
 20
126.6256016232092
 30
0.0
 10
109.1143419743779
 20
126.6256016232092
 30
0.0
 10
109.1143419743779
 20
126.6256016232092
 30
0.0
 10
109.1143419743779
 20
126.6256016232092
 30
0.0
 10
109.1143419743779
 20
126.6256016232092
 30
0.0
 10
109.1143419743779
 20
126.6256016232092
 30
0.0
 10
109.0444064898913
 20
126.6269796623124
 30
0.0
 10
108.9861843377817
 20
126.5711690786335
 30
0.0
 10
108.9848062986785
 20
126.5015781039226
 30
0.0
 10
108.9848062986785
 20
126.5015781039226
 30
0.0
 10
108.9848062986785
 20
126.5015781039226
 30
0.0
 10
108.9848062986785
 20
126.5015781039226
 30
0.0
 10
108.9848062986785
 20
126.5015781039226
 30
0.0
 10
108.9848062986785
 20
126.5015781039226
 30
0.0
 10
108.9848062986785
 20
126.5015781039226
 30
0.0
 10
108.9848062986785
 20
126.5015781039226
 30
0.0
 10
108.9848062986785
 20
126.5015781039226
 30
0.0
 10
108.9848062986785
 20
126.5015781039226
 30
0.0
 10
108.9844617889027
 20
126.4995110452679
 30
0.0
 10
108.9844617889027
 20
126.4981330061647
 30
0.0
 10
108.9848062986785
 20
126.4967549670615
 30
0.0
  0
SPLINE
  5
189
330
1F
100
AcDbEntity
  8
0
 62
     7
100
AcDbSpline
210
0.0
220
0.0
230
1.0
 70
     8
 71
     3
 72
     8
 73
     4
 74
     0
 42
0.0000000001
 43
0.0000000001
 40
0.0
 40
0.0
 40
0.0
 40
0.0
 40
1.0
 40
1.0
 40
1.0
 40
1.0
 10
108.9848062986785
 20
126.4960659475099
 30
0.0
 10
109.0929823682785
 20
126.2804028278615
 30
0.0
 10
109.2345758861307
 20
126.0843767654335
 30
0.0
 10
109.4044192055983
 20
125.9148779557418
 30
0.0
  0
SPLINE
  5
18A
330
1F
100
AcDbEntity
  8
0
 62
     7
100
AcDbSpline
210
0.0
220
0.0
230
1.0
 70
     8
 71
     3
 72
     8
 73
     4
 74
     0
 42
0.0000000001
 43
0.0000000001
 40
0.0
 40
0.0
 40
0.0
 40
0.0
 40
1.0
 40
1.0
 40
1.0
 40
1.0
 10
110.3921287328059
 20
125.9534630506309
 30
0.0
 10
110.3449308935218
 20
125.980334813143
 30
0.0
 10
110.2915318782734
 20
125.9948042237265
 30
0.0
 10
110.2370993336976
 20
125.9948042237265
 30
0.0
  0
POLYLINE
  5
18B
330
1F
100
AcDbEntity
  8
0
 62
     7
100
AcDb2dPolyline
 66
     1
 10
0.0
 20
0.0
 30
0.0
  0
VERTEX
  5
18C
330
18B
100
AcDbEntity
  8
0
 62
     7
100
AcDbVertex
100
AcDb2dVertex
 10
110.2336542359396
 20
125.9948042237265
 30
0.0
  0
VERTEX
  5
18D
330
18B
100
AcDbEntity
  8
0
 62
     7
100
AcDbVertex
100
AcDb2dVertex
 10
109.9831956289358
 20
125.9948042237265
 30
0.0
  0
SEQEND
  5
18E
330
18B
100
AcDbEntity
  8
0
  0
SPLINE
  5
18F
330
1F
100
AcDbEntity
  8
0
 62
     7
100
AcDbSpline
210
0.0
220
0.0
230
1.0
 70
     8
 71
     3
 72
    20
 73
    16
 74
     0
 42
0.0000000001
 43
0.0000000001
 40
0.0
 40
0.0
 40
0.0
 40
0.0
 40
1.0
 40
1.0
 40
1.0
 40
2.0
 40
2.0
 40
2.0
 40
3.0
 40
3.0
 40
3.0
 40
4.0
 40
4.0
 40
4.0
 40
5.0
 40
5.0
 40
5.0
 40
5.0
 10
109.9835401387116
 20
125.9934261846233
 30
0.0
 10
110.1847338477766
 20
126.0485477487507
 30
0.0
 10
110.3035897204263
 20
126.2555981240042
 30
0.0
 10
110.2484681562989
 20
126.4574808526207
 30
0.0
 10
110.2484681562989
 20
126.4574808526207
 30
0.0
 10
110.2484681562989
 20
126.4574808526207
 30
0.0
 10
110.2484681562989
 20
126.4574808526207
 30
0.0
 10
110.2484681562989
 20
126.4574808526207
 30
0.0
 10
110.2484681562989
 20
126.4574808526207
 30
0.0
 10
110.2484681562989
 20
126.4574808526207
 30
0.0
 10
110.2484681562989
 20
126.4574808526207
 30
0.0
 10
110.2484681562989
 20
126.4574808526207
 30
0.0
 10
110.2484681562989
 20
126.4574808526207
 30
0.0
 10
110.2450230585409
 20
126.470572224101
 30
0.0
 10
110.2401999216798
 20
126.4836635955812
 30
0.0
 10
110.2350322750428
 20
126.4967549670615
 30
0.0
  0
SPLINE
  5
190
330
1F
100
AcDbEntity
  8
0
 62
     7
100
AcDbSpline
210
0.0
220
0.0
230
1.0
 70
     8
 71
     3
 72
     8
 73
     4
 74
     0
 42
0.0000000001
 43
0.0000000001
 40
0.0
 40
0.0
 40
0.0
 40
0.0
 40
1.0
 40
1.0
 40
1.0
 40
1.0
 10
109.4812448856008
 20
127.2464082391939
 30
0.0
 10
109.5108727263193
 20
126.844020821064
 30
0.0
 10
109.8309223080339
 20
126.5243157491252
 30
0.0
 10
110.232965216388
 20
126.4939988888551
 30
0.0
  0
SPLINE
  5
191
330
1F
100
AcDbEntity
  8
0
 62
     7
100
AcDbSpline
210
0.0
220
0.0
230
1.0
 70
     8
 71
     3
 72
    20
 73
    16
 74
     0
 42
0.0000000001
 43
0.0000000001
 40
0.0
 40
0.0
 40
0.0
 40
0.0
 40
1.0
 40
1.0
 40
1.0
 40
2.0
 40
2.0
 40
2.0
 40
3.0
 40
3.0
 40
3.0
 40
4.0
 40
4.0
 40
4.0
 40
5.0
 40
5.0
 40
5.0
 40
5.0
 10
110.2339987457154
 20
126.4946879084067
 30
0.0
 10
110.4351924547804
 20
126.5491204529825
 30
0.0
 10
110.5537038176543
 20
126.7572043575634
 30
0.0
 10
110.4989267633027
 20
126.9577090470768
 30
0.0
 10
110.4989267633027
 20
126.9577090470768
 30
0.0
 10
110.4989267633027
 20
126.9577090470768
 30
0.0
 10
110.4989267633027
 20
126.9577090470768
 30
0.0
 10
110.4989267633027
 20
126.9577090470768
 30
0.0
 10
110.4989267633027
 20
126.9577090470768
 30
0.0
 10
110.4989267633027
 20
126.9577090470768
 30
0.0
 10
110.4989267633027
 20
126.9577090470768
 30
0.0
 10
110.4989267633027
 20
126.9577090470768
 30
0.0
 10
110.4989267633027
 20
126.9577090470768
 30
0.0
 10
110.4954816655447
 20
126.9714894381086
 30
0.0
 10
110.4910030384594
 20
126.9849253193646
 30
0.0
 10
110.4858353918224
 20
126.9980166908449
 30
0.0
  0
SPLINE
  5
192
330
1F
100
AcDbEntity
  8
0
 62
     7
100
AcDbSpline
210
0.0
220
0.0
230
1.0
 70
     8
 71
     3
 72
     8
 73
     4
 74
     0
 42
0.0000000001
 43
0.0000000001
 40
0.0
 40
0.0
 40
0.0
 40
0.0
 40
1.0
 40
1.0
 40
1.0
 40
1.0
 10
110.4872134309256
 20
126.9959496321901
 30
0.0
 10
110.4965151948721
 20
127.1637258930029
 30
0.0
 10
110.3941957914606
 20
127.3177217627837
 30
0.0
 10
110.2353767848186
 20
127.3735323464627
 30
0.0
  0
SPLINE
  5
193
330
1F
100
AcDbEntity
  8
0
 62
     7
100
AcDbSpline
210
0.0
220
0.0
230
1.0
 70
     8
 71
     3
 72
     8
 73
     4
 74
     0
 42
0.0000000001
 43
0.0000000001
 40
0.0
 40
0.0
 40
0.0
 40
0.0
 40
1.0
 40
1.0
 40
1.0
 40
1.0
 10
110.2353767848186
 20
127.3721543073596
 30
0.0
 10
110.0028326861562
 20
127.5058241003685
 30
0.0
 10
109.7162005526938
 20
127.5058241003685
 30
0.0
 10
109.4840009638072
 20
127.3721543073596
 30
0.0
  0
POLYLINE
  5
194
330
1F
100
AcDbEntity
  8
0
 62
     7
100
AcDb2dPolyline
 66
     1
 10
0.0
 20
0.0
 30
0.0
  0
VERTEX
  5
195
330
194
100
AcDbEntity
  8
0
 62
     7
100
AcDbVertex
100
AcDb2dVertex
 10
109.4822784149282
 20
127.3735323464627
 30
0.0
  0
VERTEX
  5
196
330
194
100
AcDbEntity
  8
0
 62
     7
100
AcDbVertex
100
AcDb2dVertex
 10
109.4822784149282
 20
127.2464082391939
 30
0.0
  0
SEQEND
  5
197
330
194
100
AcDbEntity
  8
0
  0
SPLINE
  5
198
330
1F
100
AcDbEntity
  8
0
 62
     7
100
AcDbSpline
210
0.0
220
0.0
230
1.0
 70
     8
 71
     3
 72
    20
 73
    16
 74
     0
 42
0.0000000001
 43
0.0000000001
 40
0.0
 40
0.0
 40
0.0
 40
0.0
 40
1.0
 40
1.0
 40
1.0
 40
2.0
 40
2.0
 40
2.0
 40
3.0
 40
3.0
 40
3.0
 40
4.0
 40
4.0
 40
4.0
 40
5.0
 40
5.0
 40
5.0
 40
5.0
 10
109.480900375825
 20
127.2450302000908
 30
0.0
 10
109.6745148698225
 20
127.168549029864
 30
0.0
 10
109.8939675970046
 20
127.2629447084322
 30
0.0
 10
109.9707932770072
 20
127.4569037122054
 30
0.0
 10
109.9707932770072
 20
127.4569037122054
 30
0.0
 10
109.9707932770072
 20
127.4569037122054
 30
0.0
 10
109.9707932770072
 20
127.4569037122054
 30
0.0
 10
109.9707932770072
 20
127.4569037122054
 30
0.0
 10
109.9707932770072
 20
127.4569037122054
 30
0.0
 10
109.9707932770072
 20
127.4569037122054
 30
0.0
 10
109.9707932770072
 20
127.4569037122054
 30
0.0
 10
109.9707932770072
 20
127.4569037122054
 30
0.0
 10
109.9707932770072
 20
127.4569037122054
 30
0.0
 10
109.9759609236441
 20
127.4699950836857
 30
0.0
 10
109.9804395507295
 20
127.4830864551659
 30
0.0
 10
109.9838846484874
 20
127.4968668461978
 30
0.0
  0
SPLINE
  5
199
330
1F
100
AcDbEntity
  8
0
 62
     7
100
AcDbSpline
210
0.0
220
0.0
230
1.0
 70
     8
 71
     3
 72
     8
 73
     4
 74
     0
 42
0.0000000001
 43
0.0000000001
 40
0.0
 40
0.0
 40
0.0
 40
0.0
 40
1.0
 40
1.0
 40
1.0
 40
1.0
 10
109.9869852364696
 20
127.4968668461978
 30
0.0
 10
109.9480556318046
 20
128.2069014941137
 30
0.0
 10
109.5766740934963
 20
128.8566469312652
 30
0.0
 10
108.9848062986785
 20
129.2504216050003
 30
0.0
  0
SPLINE
  5
19A
330
1F
100
AcDbEntity
  8
0
 62
     7
100
AcDbSpline
210
0.0
220
0.0
230
1.0
 70
     8
 71
     3
 72
     8
 73
     4
 74
     0
 42
0.0000000001
 43
0.0000000001
 40
0.0
 40
0.0
 40
0.0
 40
0.0
 40
1.0
 40
1.0
 40
1.0
 40
1.0
 10
108.9851508084543
 20
129.2504216050003
 30
0.0
 10
109.0357937454964
 20
129.1622271023964
 30
0.0
 10
109.1350125609257
 20
129.1126176946818
 30
0.0
 10
109.2359539252339
 20
129.125709066162
 30
0.0
  0
SPLINE
  5
19B
330
1F
100
AcDbEntity
  8
0
 62
     7
100
AcDbSpline
210
0.0
220
0.0
230
1.0
 70
     8
 71
     3
 72
     8
 73
     4
 74
     0
 42
0.0000000001
 43
0.0000000001
 40
0.0
 40
0.0
 40
0.0
 40
0.0
 40
1.0
 40
1.0
 40
1.0
 40
1.0
 10
109.2335423568034
 20
129.1236420075073
 30
0.0
 10
109.4085533229078
 20
129.1208859293009
 30
0.0
 10
109.5814972303575
 20
129.1642941610512
 30
0.0
 10
109.734459570811
 20
129.2483545463455
 30
0.0
  0
SPLINE
  5
19C
330
1F
100
AcDbEntity
  8
0
 62
     7
100
AcDbSpline
210
0.0
220
0.0
230
1.0
 70
     8
 71
     3
 72
    20
 73
    16
 74
     0
 42
0.0000000001
 43
0.0000000001
 40
0.0
 40
0.0
 40
0.0
 40
0.0
 40
1.0
 40
1.0
 40
1.0
 40
2.0
 40
2.0
 40
2.0
 40
3.0
 40
3.0
 40
3.0
 40
4.0
 40
4.0
 40
4.0
 40
5.0
 40
5.0
 40
5.0
 40
5.0
 10
110.3638789311906
 20
128.7515714496474
 30
0.0
 10
110.3728361853613
 20
129.0278682898359
 30
0.0
 10
110.1554505168339
 20
129.2590343493952
 30
0.0
 10
109.8794981864212
 20
129.2679916035659
 30
0.0
 10
109.8794981864212
 20
129.2679916035659
 30
0.0
 10
109.8794981864212
 20
129.2679916035659
 30
0.0
 10
109.8794981864212
 20
129.2679916035659
 30
0.0
 10
109.8794981864212
 20
129.2679916035659
 30
0.0
 10
109.8794981864212
 20
129.2679916035659
 30
0.0
 10
109.8794981864212
 20
129.2679916035659
 30
0.0
 10
109.8794981864212
 20
129.2679916035659
 30
0.0
 10
109.8794981864212
 20
129.2679916035659
 30
0.0
 10
109.8794981864212
 20
129.2679916035659
 30
0.0
 10
109.8316113275855
 20
129.269369642669
 30
0.0
 10
109.7837244687498
 20
129.2638574862563
 30
0.0
 10
109.7379046685689
 20
129.2517996441034
 30
0.0
  0
SPLINE
  5
19D
330
1F
100
AcDbEntity
  8
0
 62
     7
100
AcDbSpline
210
0.0
220
0.0
230
1.0
 70
     8
 71
     3
 72
     8
 73
     4
 74
     0
 42
0.0000000001
 43
0.0000000001
 40
0.0
 40
0.0
 40
0.0
 40
0.0
 40
1.0
 40
1.0
 40
1.0
 40
1.0
 10
109.986296216918
 20
127.9977840602054
 30
0.0
 10
110.1943801214989
 20
128.197944239943
 30
0.0
 10
110.3273608949562
 20
128.463216767306
 30
0.0
 10
110.3621563823116
 20
128.7495043909926
 30
0.0
  0
SPLINE
  5
19E
330
1F
100
AcDbEntity
  8
0
 62
     7
100
AcDbSpline
210
0.0
220
0.0
230
1.0
 70
     8
 71
     3
 72
     8
 73
     4
 74
     0
 42
0.0000000001
 43
0.0000000001
 40
0.0
 40
0.0
 40
0.0
 40
0.0
 40
1.0
 40
1.0
 40
1.0
 40
1.0
 10
110.1134203241868
 20
129.2497325854487
 30
0.0
 10
110.1623407123498
 20
129.8929323368601
 30
0.0
 10
109.7379046685689
 20
130.476187387283
 30
0.0
 10
109.1112413863957
 20
130.6281161984091
 30
0.0
  0
SPLINE
  5
19F
330
1F
100
AcDbEntity
  8
0
 62
     7
100
AcDbSpline
210
0.0
220
0.0
230
1.0
 70
     8
 71
     3
 72
    20
 73
    16
 74
     0
 42
0.0000000001
 43
0.0000000001
 40
0.0
 40
0.0
 40
0.0
 40
0.0
 40
1.0
 40
1.0
 40
1.0
 40
2.0
 40
2.0
 40
2.0
 40
3.0
 40
3.0
 40
3.0
 40
4.0
 40
4.0
 40
4.0
 40
5.0
 40
5.0
 40
5.0
 40
5.0
 10
109.1119304059473
 20
130.6336283548219
 30
0.0
 10
109.0419949214607
 20
130.6336283548219
 30
0.0
 10
108.9844617889027
 20
130.5764397320397
 30
0.0
 10
108.9844617889027
 20
130.5065042475531
 30
0.0
 10
108.9844617889027
 20
130.5065042475531
 30
0.0
 10
108.9844617889027
 20
130.5065042475531
 30
0.0
 10
108.9844617889027
 20
130.5065042475531
 30
0.0
 10
108.9844617889027
 20
130.5065042475531
 30
0.0
 10
108.9844617889027
 20
130.5065042475531
 30
0.0
 10
108.9844617889027
 20
130.5065042475531
 30
0.0
 10
108.9844617889027
 20
130.5065042475531
 30
0.0
 10
108.9844617889027
 20
130.5065042475531
 30
0.0
 10
108.9844617889027
 20
130.5065042475531
 30
0.0
 10
108.9844617889027
 20
130.4358797435149
 30
0.0
 10
109.0419949214607
 20
130.3793801402843
 30
0.0
 10
109.1119304059473
 20
130.3793801402843
 30
0.0
  0
SPLINE
  5
1A0
330
1F
100
AcDbEntity
  8
0
 62
     7
100
AcDbSpline
210
0.0
220
0.0
230
1.0
 70
     8
 71
     3
 72
     8
 73
     4
 74
     0
 42
0.0000000001
 43
0.0000000001
 40
0.0
 40
0.0
 40
0.0
 40
0.0
 40
1.0
 40
1.0
 40
1.0
 40
1.0
 10
109.1108968766199
 20
130.3780021011811
 30
0.0
 10
109.4946807668569
 20
130.0321142862818
 30
0.0
 10
109.9756164138683
 20
129.8133505786512
 30
0.0
 10
110.488246960253
 20
129.7520278385595
 30
0.0
  0
SPLINE
  5
1A1
330
1F
100
AcDbEntity
  8
0
 62
     7
100
AcDbSpline
210
0.0
220
0.0
230
1.0
 70
     8
 71
     3
 72
     8
 73
     4
 74
     0
 42
0.0000000001
 43
0.0000000001
 40
0.0
 40
0.0
 40
0.0
 40
0.0
 40
1.0
 40
1.0
 40
1.0
 40
1.0
 10
109.7337705512594
 20
130.5051262084499
 30
0.0
 10
109.891556028574
 20
130.1761193725646
 30
0.0
 10
110.1568285559371
 20
129.9101578256499
 30
0.0
 10
110.4861799015982
 20
129.7527168581111
 30
0.0
  0
POLYLINE
  5
1A2
330
1F
100
AcDbEntity
  8
0
 62
     7
100
AcDb2dPolyline
 66
     1
 10
0.0
 20
0.0
 30
0.0
  0
VERTEX
  5
1A3
330
1A2
100
AcDbEntity
  8
0
 62
     7
100
AcDbVertex
100
AcDb2dVertex
 10
109.73618211969
 20
130.5065042475531
 30
0.0
  0
VERTEX
  5
1A4
330
1A2
100
AcDbEntity
  8
0
 62
     7
100
AcDbVertex
100
AcDb2dVertex
 10
110.2370993336976
 20
130.3793801402843
 30
0.0
  0
SEQEND
  5
1A5
330
1A2
100
AcDbEntity
  8
0
  0
POLYLINE
  5
1A6
330
1F
100
AcDbEntity
  8
0
 62
     7
100
AcDb2dPolyline
 66
     1
 10
0.0
 20
0.0
 30
0.0
  0
VERTEX
  5
1A7
330
1A6
100
AcDbEntity
  8
0
 62
     7
100
AcDbVertex
100
AcDb2dVertex
 10
110.2370993336976
 20
130.3793801402843
 30
0.0
  0
VERTEX
  5
1A8
330
1A6
100
AcDbEntity
  8
0
 62
     7
100
AcDbVertex
100
AcDb2dVertex
 10
110.3642234409664
 20
130.3793801402843
 30
0.0
  0
SEQEND
  5
1A9
330
1A6
100
AcDbEntity
  8
0
  0
SPLINE
  5
1AA
330
1F
100
AcDbEntity
  8
0
 62
     7
100
AcDbSpline
210
0.0
220
0.0
230
1.0
 70
     8
 71
     3
 72
    20
 73
    16
 74
     0
 42
0.0000000001
 43
0.0000000001
 40
0.0
 40
0.0
 40
0.0
 40
0.0
 40
1.0
 40
1.0
 40
1.0
 40
2.0
 40
2.0
 40
2.0
 40
3.0
 40
3.0
 40
3.0
 40
4.0
 40
4.0
 40
4.0
 40
5.0
 40
5.0
 40
5.0
 40
5.0
 10
110.3642234409664
 20
130.3793801402843
 30
0.0
 10
110.434158925453
 20
130.3793801402843
 30
0.0
 10
110.4913475482352
 20
130.4358797435149
 30
0.0
 10
110.4913475482352
 20
130.5065042475531
 30
0.0
 10
110.4913475482352
 20
130.5065042475531
 30
0.0
 10
110.4913475482352
 20
130.5065042475531
 30
0.0
 10
110.4913475482352
 20
130.5065042475531
 30
0.0
 10
110.4913475482352
 20
130.5065042475531
 30
0.0
 10
110.4913475482352
 20
130.5065042475531
 30
0.0
 10
110.4913475482352
 20
130.5065042475531
 30
0.0
 10
110.4913475482352
 20
130.5065042475531
 30
0.0
 10
110.4913475482352
 20
130.5065042475531
 30
0.0
 10
110.4913475482352
 20
130.5065042475531
 30
0.0
 10
110.4913475482352
 20
130.5764397320397
 30
0.0
 10
110.434158925453
 20
130.6336283548219
 30
0.0
 10
110.3642234409664
 20
130.6336283548219
 30
0.0
  0
SPLINE
  5
1AB
330
1F
100
AcDbEntity
  8
0
 62
     7
100
AcDbSpline
210
0.0
220
0.0
230
1.0
 70
     8
 71
     3
 72
     8
 73
     4
 74
     0
 42
0.0000000001
 43
0.0000000001
 40
0.0
 40
0.0
 40
0.0
 40
0.0
 40
1.0
 40
1.0
 40
1.0
 40
1.0
 10
110.3642234409664
 20
130.6308722766155
 30
0.0
 10
110.1192769903753
 20
130.8696175512422
 30
0.0
 10
109.8174864267779
 20
131.0422169489161
 30
0.0
 10
109.4877905713409
 20
131.1314449808473
 30
0.0
  0
POLYLINE
  5
1AC
330
1F
100
AcDbEntity
  8
0
 62
     7
100
AcDb2dPolyline
 66
     1
 10
0.0
 20
0.0
 30
0.0
  0
VERTEX
  5
1AD
330
1AC
100
AcDbEntity
  8
0
 62
     7
100
AcDbVertex
100
AcDb2dVertex
 10
109.486068022462
 20
131.1307559612958
 30
0.0
  0
VERTEX
  5
1AE
330
1AC
100
AcDbEntity
  8
0
 62
     7
100
AcDbVertex
100
AcDb2dVertex
 10
110.2370993336976
 20
131.0070769517849
 30
0.0
  0
SEQEND
  5
1AF
330
1AC
100
AcDbEntity
  8
0
  0
SPLINE
  5
1B0
330
1F
100
AcDbEntity
  8
0
 62
     7
100
AcDbSpline
210
0.0
220
0.0
230
1.0
 70
     8
 71
     3
 72
     8
 73
     4
 74
     0
 42
0.0000000001
 43
0.0000000001
 40
0.0
 40
0.0
 40
0.0
 40
0.0
 40
1.0
 40
1.0
 40
1.0
 40
1.0
 10
110.2370993336976
 20
131.0022538149238
 30
0.0
 10
110.358022265002
 20
131.0387718511582
 30
0.0
 10
110.4524179435702
 20
131.1335120395021
 30
0.0
 10
110.4889359798046
 20
131.2540904610308
 30
0.0
  0
SPLINE
  5
1B1
330
1F
100
AcDbEntity
  8
0
 62
     7
100
AcDbSpline
210
0.0
220
0.0
230
1.0
 70
     8
 71
     3
 72
     8
 73
     4
 74
     0
 42
0.0000000001
 43
0.0000000001
 40
0.0
 40
0.0
 40
0.0
 40
0.0
 40
1.0
 40
1.0
 40
1.0
 40
1.0
 10
110.4892804895804
 20
131.2561575196856
 30
0.0
 10
110.6232947923651
 20
131.4883571085722
 30
0.0
 10
110.6232947923651
 20
131.7749892420346
 30
0.0
 10
110.4892804895804
 20
132.007533340697
 30
0.0
  0
SPLINE
  5
1B2
330
1F
100
AcDbEntity
  8
0
 62
     7
100
AcDbSpline
210
0.0
220
0.0
230
1.0
 70
    11
 71
     3
 72
    38
 73
    34
 74
     0
 42
0.0000000001
 43
0.0000000001
 40
0.0
 40
0.0
 40
0.0
 40
0.0
 40
1.0
 40
1.0
 40
1.0
 40
2.0
 40
2.0
 40
2.0
 40
3.0
 40
3.0
 40
3.0
 40
4.0
 40
4.0
 40
4.0
 40
5.0
 40
5.0
 40
5.0
 40
6.0
 40
6.0
 40
6.0
 40
7.0
 40
7.0
 40
7.0
 40
8.0
 40
8.0
 40
8.0
 40
9.0
 40
9.0
 40
9.0
 40
10.0
 40
10.0
 40
10.0
 40
11.0
 40
11.0
 40
11.0
 40
11.0
 10
109.1753202046938
 20
131.2575355587887
 30
0.0
 10
109.1753202046938
 20
131.2926755559199
 30
0.0
 10
109.1470704030785
 20
131.3209253575352
 30
0.0
 10
109.1119304059473
 20
131.3209253575352
 30
0.0
 10
109.1119304059473
 20
131.3209253575352
 30
0.0
 10
109.1119304059473
 20
131.3209253575352
 30
0.0
 10
109.1119304059473
 20
131.3209253575352
 30
0.0
 10
109.0767904088161
 20
131.3209253575352
 30
0.0
 10
109.0485406072008
 20
131.2926755559199
 30
0.0
 10
109.0485406072008
 20
131.2575355587887
 30
0.0
 10
109.0485406072008
 20
131.2575355587887
 30
0.0
 10
109.0485406072008
 20
131.2575355587887
 30
0.0
 10
109.0485406072008
 20
131.2575355587887
 30
0.0
 10
109.0485406072008
 20
131.2227400714333
 30
0.0
 10
109.0767904088161
 20
131.1941457600422
 30
0.0
 10
109.1119304059473
 20
131.1941457600422
 30
0.0
 10
109.1119304059473
 20
131.1941457600422
 30
0.0
 10
109.1119304059473
 20
131.1941457600422
 30
0.0
 10
109.1119304059473
 20
131.1941457600422
 30
0.0
 10
109.1470704030785
 20
131.1941457600422
 30
0.0
 10
109.1753202046938
 20
131.2227400714333
 30
0.0
 10
109.1753202046938
 20
131.2575355587887
 30
0.0
 10
109.1753202046938
 20
131.2575355587887
 30
0.0
 10
109.1753202046938
 20
131.2575355587887
 30
0.0
 10
109.1753202046938
 20
131.2575355587887
 30
0.0
 10
109.1753202046938
 20
131.2575355587887
 30
0.0
 10
109.1753202046938
 20
131.2575355587887
 30
0.0
 10
109.1753202046938
 20
131.2575355587887
 30
0.0
 10
109.1753202046938
 20
131.2575355587887
 30
0.0
 10
109.1753202046938
 20
131.2575355587887
 30
0.0
 10
109.1753202046938
 20
131.2575355587887
 30
0.0
 10
109.1753202046938
 20
131.2575355587887
 30
0.0
 10
109.1753202046938
 20
131.2575355587887
 30
0.0
 10
109.1753202046938
 20
131.2575355587887
 30
0.0
  0
SPLINE
  5
1B3
330
1F
100
AcDbEntity
  8
0
 62
     7
100
AcDbSpline
210
0.0
220
0.0
230
1.0
 70
    11
 71
     3
 72
    38
 73
    34
 74
     0
 42
0.0000000001
 43
0.0000000001
 40
0.0
 40
0.0
 40
0.0
 40
0.0
 40
1.0
 40
1.0
 40
1.0
 40
2.0
 40
2.0
 40
2.0
 40
3.0
 40
3.0
 40
3.0
 40
4.0
 40
4.0
 40
4.0
 40
5.0
 40
5.0
 40
5.0
 40
6.0
 40
6.0
 40
6.0
 40
7.0
 40
7.0
 40
7.0
 40
8.0
 40
8.0
 40
8.0
 40
9.0
 40
9.0
 40
9.0
 40
10.0
 40
10.0
 40
10.0
 40
11.0
 40
11.0
 40
11.0
 40
11.0
 10
109.1753202046938
 20
131.2575355587887
 30
0.0
 10
109.1753202046938
 20
131.2926755559199
 30
0.0
 10
109.1470704030785
 20
131.3209253575352
 30
0.0
 10
109.1119304059473
 20
131.3209253575352
 30
0.0
 10
109.1119304059473
 20
131.3209253575352
 30
0.0
 10
109.1119304059473
 20
131.3209253575352
 30
0.0
 10
109.1119304059473
 20
131.3209253575352
 30
0.0
 10
109.0767904088161
 20
131.3209253575352
 30
0.0
 10
109.0485406072008
 20
131.2926755559199
 30
0.0
 10
109.0485406072008
 20
131.2575355587887
 30
0.0
 10
109.0485406072008
 20
131.2575355587887
 30
0.0
 10
109.0485406072008
 20
131.2575355587887
 30
0.0
 10
109.0485406072008
 20
131.2575355587887
 30
0.0
 10
109.0485406072008
 20
131.2227400714333
 30
0.0
 10
109.0767904088161
 20
131.1941457600422
 30
0.0
 10
109.1119304059473
 20
131.1941457600422
 30
0.0
 10
109.1119304059473
 20
131.1941457600422
 30
0.0
 10
109.1119304059473
 20
131.1941457600422
 30
0.0
 10
109.1119304059473
 20
131.1941457600422
 30
0.0
 10
109.1470704030785
 20
131.1941457600422
 30
0.0
 10
109.1753202046938
 20
131.2227400714333
 30
0.0
 10
109.1753202046938
 20
131.2575355587887
 30
0.0
 10
109.1753202046938
 20
131.2575355587887
 30
0.0
 10
109.1753202046938
 20
131.2575355587887
 30
0.0
 10
109.1753202046938
 20
131.2575355587887
 30
0.0
 10
109.1753202046938
 20
131.2575355587887
 30
0.0
 10
109.1753202046938
 20
131.2575355587887
 30
0.0
 10
109.1753202046938
 20
131.2575355587887
 30
0.0
 10
109.1753202046938
 20
131.2575355587887
 30
0.0
 10
109.1753202046938
 20
131.2575355587887
 30
0.0
 10
109.1753202046938
 20
131.2575355587887
 30
0.0
 10
109.1753202046938
 20
131.2575355587887
 30
0.0
 10
109.1753202046938
 20
131.2575355587887
 30
0.0
 10
109.1753202046938
 20
131.2575355587887
 30
0.0
  0
MTEXT
  5
1B4
330
1F
100
AcDbEntity
  8
0
 62
     7
100
AcDbMText
 10
65.4914806337396
 20
164.4217691258069
 30
0.0
 40
3.156148944288591
 41
0.0
 71
     7
 72
     1
  1
\fMS Gothic|b0|i0|c0|p34;\W1;FA-20*-AdF\U+25A1
  0
MTEXT
  5
1B5
330
1F
100
AcDbEntity
  8
0
 62
     7
100
AcDbMText
 10
65.4914806337396
 20
169.5473855701023
 30
0.0
 40
3.156148944288591
 41
0.0
 71
     7
 72
     1
  1
\fMS Gothic|b0|i0|c0|p34;\W1;FA-20*-AdM\U+25A1
  0
ENDSEC
  0
SECTION
  2
OBJECTS
  0
DICTIONARY
  5
C
330
0
100
AcDbDictionary
  3
ACAD_GROUP
350
D
  3
ACAD_LAYOUT
350
1A
  3
ACAD_MLINESTYLE
350
17
  3
ACAD_PLOTSETTINGS
350
19
  3
ACAD_TABLESTYLE
350
1B6
  3
ACAD_VISUALSTYLE
350
2A
  3
ACDBHEADERROUNDTRIPXREC
350
1B7
  0
DICTIONARY
  5
1D7
330
29
100
AcDbDictionary
280
     1
  3
ACAD_XREC_ROUNDTRIP
360
1D8
  0
DICTIONARY
  5
D
102
{ACAD_REACTORS
330
C
102
}
330
C
100
AcDbDictionary
  0
DICTIONARY
  5
1A
102
{ACAD_REACTORS
330
C
102
}
330
C
100
AcDbDictionary
  0
DICTIONARY
  5
17
102
{ACAD_REACTORS
330
C
102
}
330
C
100
AcDbDictionary
  3
STANDARD
350
18
  0
DICTIONARY
  5
19
102
{ACAD_REACTORS
330
C
102
}
330
C
100
AcDbDictionary
  0
DICTIONARY
  5
1B6
102
{ACAD_REACTORS
330
C
102
}
330
C
100
AcDbDictionary
  0
DICTIONARY
  5
2A
102
{ACAD_REACTORS
330
C
102
}
330
C
100
AcDbDictionary
  3
2DWIREFRAME
350
2F
  3
3D_HIDDEN
350
31
  3
3DWIREFRAME
350
30
  3
BASIC
350
32
  3
BRIGHTEN
350
36
  3
COLORCHANGE
350
3A
  3
CONCEPTUAL
350
34
  3
DIM
350
35
  3
FACEPATTERN
350
39
  3
FLAT
350
2B
  3
FLATWITHEDGES
350
2C
  3
GOURAUD
350
2D
  3
GOURAUDWITHEDGES
350
2E
  3
LINEPATTERN
350
38
  3
REALISTIC
350
33
  3
THICKEN
350
37
  0
DICTIONARY
  5
1B7
102
{ACAD_REACTORS
330
C
102
}
330
C
100
AcDbDictionary
  3
CEPSNTYPE
350
1C0
  3
DIMSTYLEDATA
350
1D6
  3
FINGERPRINTGUID
350
1C1
  3
HYPERLINKBASE
350
1BA
  3
INSUNITS
350
1BF
  3
LAYOUTDICT
350
1BC
  3
LWETCUNION
350
1BE
  3
PLOTSETDICT
350
1BD
  3
PSVPSCALE
350
1C3
  3
PUCSBASE
350
1C6
  3
PUCSORGBACK
350
1CC
  3
PUCSORGBOTTOM
350
1C8
  3
PUCSORGFRONT
350
1CB
  3
PUCSORGLEFT
350
1C9
  3
PUCSORGRIGHT
350
1CA
  3
PUCSORGTOP
350
1C7
  3
PUCSORTHOREF
350
1C4
  3
PUCSORTHOVIEW
350
1C5
  3
STYLESHEET
350
1BB
  3
TSTACKALIGN
350
1B8
  3
TSTACKSIZE
350
1B9
  3
UCSBASE
350
1CF
  3
UCSORGBACK
350
1D5
  3
UCSORGBOTTOM
350
1D1
  3
UCSORGFRONT
350
1D4
  3
UCSORGLEFT
350
1D2
  3
UCSORGRIGHT
350
1D3
  3
UCSORGTOP
350
1D0
  3
UCSORTHOREF
350
1CD
  3
UCSORTHOVIEW
350
1CE
  3
VERSIONGUID
350
1C2
  0
XRECORD
  5
1D8
102
{ACAD_REACTORS
330
1D7
102
}
330
1D7
100
AcDbXrecord
102
UCS
 74
     0
 71
     1
 10
0.0
 20
0.0
 30
0.0
 10
1.0
 20
0.0
 30
0.0
 10
0.0
 20
1.0
 30
0.0
146
0.0
 79
     0
102
VIEW
281
     0
  0
MLINESTYLE
  5
18
102
{ACAD_REACTORS
330
17
102
}
330
17
100
AcDbMlineStyle
  2
Standard
 70
     0
  3

 62
   256
 51
90.0
 52
90.0
 71
     2
 49
0.5
 62
   256
  6
BYLAYER
 49
-0.5
 62
   256
  6
BYLAYER
  0
ACAD_PROXY_OBJECT_WRAPPER
  5
2F
102
{ACAD_REACTORS
330
2A
102
}
330
2A
100
AcDbVisualStyle
  2
2dWireframe
 70
     4
 71
     0
 72
     2
 73
     0
 90
        0
 40
-0.6
 41
-30.0
 62
     5
 63
     7
421
 16777215
 74
     1
 91
        4
 64
     7
 65
   257
 75
     1
175
     1
 42
1.0
 92
        0
 66
   257
 43
1.0
 76
     1
 77
     6
 78
     2
 67
     7
 79
     5
170
     0
171
     0
290
     0
174
     0
 93
        1
 44
0.0
173
     0
291
     0
 45
0.0
1001
ACAD
1000
AcDbSavedByObjectVersion
1070
     0
1000
AcadProxyRoundTripData
1071
      501
1071
       25
1070
     1
  0
ACAD_PROXY_OBJECT_WRAPPER
  5
31
102
{ACAD_REACTORS
330
2A
102
}
330
2A
100
AcDbVisualStyle
  2
3D Hidden
 70
     6
 71
     1
 72
     2
 73
     2
 90
        0
 40
-0.6
 41
-30.0
 62
     5
 63
     7
421
 16777215
 74
     2
 91
        2
 64
     7
 65
   257
 75
     2
175
     1
 42
40.0
 92
        0
 66
   257
 43
1.0
 76
     1
 77
     6
 78
     2
 67
     7
 79
     3
170
     0
171
     0
290
     0
174
     0
 93
        1
 44
0.0
173
     0
291
     0
 45
0.0
1001
ACAD
1000
AcDbSavedByObjectVersion
1070
     0
1000
AcadProxyRoundTripData
1071
      501
1071
       25
1070
     1
  0
ACAD_PROXY_OBJECT_WRAPPER
  5
30
102
{ACAD_REACTORS
330
2A
102
}
330
2A
100
AcDbVisualStyle
  2
3dWireframe
 70
     5
 71
     0
 72
     2
 73
     0
 90
        0
 40
-0.6
 41
-30.0
 62
     5
 63
     7
421
 16777215
 74
     1
 91
        4
 64
     7
 65
   257
 75
     1
175
     1
 42
1.0
 92
        0
 66
   257
 43
1.0
 76
     1
 77
     6
 78
     2
 67
     7
 79
     5
170
     0
171
     0
290
     0
174
     0
 93
        1
 44
0.0
173
     0
291
     0
 45
0.0
1001
ACAD
1000
AcDbSavedByObjectVersion
1070
     0
1000
AcadProxyRoundTripData
1071
      501
1071
       25
1070
     1
  0
ACAD_PROXY_OBJECT_WRAPPER
  5
32
102
{ACAD_REACTORS
330
2A
102
}
330
2A
100
AcDbVisualStyle
  2
Basic
 70
     7
 71
     1
 72
     0
 73
     1
 90
        0
 40
-0.6
 41
-30.0
 62
     5
 63
     7
421
 16777215
 74
     0
 91
        4
 64
     7
 65
   257
 75
     1
175
     1
 42
1.0
 92
        8
 66
     7
 43
1.0
 76
     1
 77
     6
 78
     2
 67
     7
 79
     5
170
     0
171
     0
290
     0
174
     0
 93
        1
 44
0.0
173
     0
291
     1
 45
0.0
1001
ACAD
1000
AcDbSavedByObjectVersion
1070
     0
1000
AcadProxyRoundTripData
1071
      501
1071
       25
1070
     1
  0
ACAD_PROXY_OBJECT_WRAPPER
  5
36
102
{ACAD_REACTORS
330
2A
102
}
330
2A
100
AcDbVisualStyle
  2
Brighten
 70
    12
 71
     2
 72
     2
 73
     0
 90
        0
 40
-0.6
 41
-30.0
 62
     5
 63
     7
421
 16777215
 74
     1
 91
        4
 64
     7
 65
   257
 75
     1
175
     1
 42
1.0
 92
        8
 66
     7
 43
1.0
 76
     1
 77
     6
 78
     2
 67
     7
 79
     5
170
     0
171
     0
290
     0
174
     0
 93
        1
 44
50.0
173
     0
291
     1
 45
0.0
1001
ACAD
1000
AcDbSavedByObjectVersion
1070
     0
1000
AcadProxyRoundTripData
1071
      501
1071
       25
1070
     1
  0
ACAD_PROXY_OBJECT_WRAPPER
  5
3A
102
{ACAD_REACTORS
330
2A
102
}
330
2A
100
AcDbVisualStyle
  2
ColorChange
 70
    16
 71
     2
 72
     2
 73
     3
 90
        0
 40
-0.6
 41
-30.0
 62
     5
 63
     8
421
  8421504
 74
     1
 91
        4
 64
     7
 65
   257
 75
     1
175
     1
 42
1.0
 92
        8
 66
     8
424
  8421504
 43
1.0
 76
     1
 77
     6
 78
     2
 67
     7
 79
     5
170
     0
171
     0
290
     0
174
     0
 93
        1
 44
0.0
173
     0
291
     1
 45
0.0
1001
ACAD
1000
AcDbSavedByObjectVersion
1070
     0
1000
AcadProxyRoundTripData
1071
      501
1071
       25
1070
     1
  0
ACAD_PROXY_OBJECT_WRAPPER
  5
34
102
{ACAD_REACTORS
330
2A
102
}
330
2A
100
AcDbVisualStyle
  2
Conceptual
 70
     9
 71
     3
 72
     2
 73
     0
 90
        0
 40
-0.6
 41
-30.0
 62
     5
 63
     7
421
 16777215
 74
     2
 91
        2
 64
     7
 65
   257
 75
     1
175
     1
 42
40.0
 92
        8
 66
     7
 43
1.0
 76
     1
 77
     6
 78
     2
 67
     7
 79
     3
170
     0
171
     0
290
     0
174
     0
 93
        1
 44
0.0
173
     0
291
     0
 45
0.0
1001
ACAD
1000
AcDbSavedByObjectVersion
1070
     0
1000
AcadProxyRoundTripData
1071
      501
1071
       25
1070
     1
  0
ACAD_PROXY_OBJECT_WRAPPER
  5
35
102
{ACAD_REACTORS
330
2A
102
}
330
2A
100
AcDbVisualStyle
  2
Dim
 70
    11
 71
     2
 72
     2
 73
     0
 90
        0
 40
-0.6
 41
-30.0
 62
     5
 63
     7
421
 16777215
 74
     1
 91
        4
 64
     7
 65
   257
 75
     1
175
     1
 42
1.0
 92
        8
 66
     7
 43
1.0
 76
     1
 77
     6
 78
     2
 67
     7
 79
     5
170
     0
171
     0
290
     0
174
     0
 93
        1
 44
-50.0
173
     0
291
     1
 45
0.0
1001
ACAD
1000
AcDbSavedByObjectVersion
1070
     0
1000
AcadProxyRoundTripData
1071
      501
1071
       25
1070
     1
  0
ACAD_PROXY_OBJECT_WRAPPER
  5
39
102
{ACAD_REACTORS
330
2A
102
}
330
2A
100
AcDbVisualStyle
  2
Facepattern
 70
    15
 71
     2
 72
     2
 73
     0
 90
        0
 40
-0.6
 41
-30.0
 62
     5
 63
     7
421
 16777215
 74
     1
 91
        4
 64
     7
 65
   257
 75
     1
175
     1
 42
1.0
 92
        8
 66
     7
 43
1.0
 76
     1
 77
     6
 78
     2
 67
     7
 79
     5
170
     0
171
     0
290
     0
174
     0
 93
        1
 44
0.0
173
     0
291
     1
 45
0.0
1001
ACAD
1000
AcDbSavedByObjectVersion
1070
     0
1000
AcadProxyRoundTripData
1071
      501
1071
       25
1070
     1
  0
ACAD_PROXY_OBJECT_WRAPPER
  5
2B
102
{ACAD_REACTORS
330
2A
102
}
330
2A
100
AcDbVisualStyle
  2
Flat
 70
     0
 71
     2
 72
     1
 73
     1
 90
        2
 40
-0.6
 41
30.0
 62
     5
 63
     7
421
 16777215
 74
     0
 91
        4
 64
     7
 65
   257
 75
     1
175
     1
 42
1.0
 92
        8
 66
     7
 43
1.0
 76
     1
 77
     6
 78
     2
 67
     7
 79
     5
170
     0
171
     0
290
     0
174
     0
 93
       13
 44
0.0
173
     0
291
     1
 45
0.0
1001
ACAD
1000
AcDbSavedByObjectVersion
1070
     0
1000
AcadProxyRoundTripData
1071
      501
1071
       25
1070
     1
  0
ACAD_PROXY_OBJECT_WRAPPER
  5
2C
102
{ACAD_REACTORS
330
2A
102
}
330
2A
100
AcDbVisualStyle
  2
FlatWithEdges
 70
     1
 71
     2
 72
     1
 73
     1
 90
        2
 40
-0.6
 41
30.0
 62
     5
 63
     7
421
 16777215
 74
     1
 91
        4
 64
     7
 65
   257
 75
     1
175
     1
 42
1.0
 92
        0
 66
   257
 43
1.0
 76
     1
 77
     6
 78
     2
 67
     7
 79
     5
170
     0
171
     0
290
     0
174
     0
 93
       13
 44
0.0
173
     0
291
     1
 45
0.0
1001
ACAD
1000
AcDbSavedByObjectVersion
1070
     0
1000
AcadProxyRoundTripData
1071
      501
1071
       25
1070
     1
  0
ACAD_PROXY_OBJECT_WRAPPER
  5
2D
102
{ACAD_REACTORS
330
2A
102
}
330
2A
100
AcDbVisualStyle
  2
Gouraud
 70
     2
 71
     2
 72
     2
 73
     1
 90
        2
 40
-0.6
 41
30.0
 62
     5
 63
     7
421
 16777215
 74
     0
 91
        4
 64
     7
 65
   257
 75
     1
175
     1
 42
1.0
 92
        0
 66
     7
 43
1.0
 76
     1
 77
     6
 78
     2
 67
     7
 79
     5
170
     0
171
     0
290
     0
174
     0
 93
       13
 44
0.0
173
     0
291
     1
 45
0.0
1001
ACAD
1000
AcDbSavedByObjectVersion
1070
     0
1000
AcadProxyRoundTripData
1071
      501
1071
       25
1070
     1
  0
ACAD_PROXY_OBJECT_WRAPPER
  5
2E
102
{ACAD_REACTORS
330
2A
102
}
330
2A
100
AcDbVisualStyle
  2
GouraudWithEdges
 70
     3
 71
     2
 72
     2
 73
     1
 90
        2
 40
-0.6
 41
30.0
 62
     5
 63
     7
421
 16777215
 74
     1
 91
        4
 64
     7
 65
   257
 75
     1
175
     1
 42
1.0
 92
        0
 66
   257
 43
1.0
 76
     1
 77
     6
 78
     2
 67
     7
 79
     5
170
     0
171
     0
290
     0
174
     0
 93
       13
 44
0.0
173
     0
291
     1
 45
0.0
1001
ACAD
1000
AcDbSavedByObjectVersion
1070
     0
1000
AcadProxyRoundTripData
1071
      501
1071
       25
1070
     1
  0
ACAD_PROXY_OBJECT_WRAPPER
  5
38
102
{ACAD_REACTORS
330
2A
102
}
330
2A
100
AcDbVisualStyle
  2
Linepattern
 70
    14
 71
     2
 72
     2
 73
     0
 90
        0
 40
-0.6
 41
-30.0
 62
     5
 63
     7
421
 16777215
 74
     1
 91
        4
 64
     7
 65
   257
 75
     7
175
     7
 42
1.0
 92
        8
 66
     7
 43
1.0
 76
     1
 77
     6
 78
     2
 67
     7
 79
     5
170
     0
171
     0
290
     0
174
     0
 93
        1
 44
0.0
173
     0
291
     1
 45
0.0
1001
ACAD
1000
AcDbSavedByObjectVersion
1070
     0
1000
AcadProxyRoundTripData
1071
      501
1071
       25
1070
     1
  0
ACAD_PROXY_OBJECT_WRAPPER
  5
33
102
{ACAD_REACTORS
330
2A
102
}
330
2A
100
AcDbVisualStyle
  2
Realistic
 70
     8
 71
     2
 72
     2
 73
     0
 90
        0
 40
-0.6
 41
-30.0
 62
     5
 63
     7
421
 16777215
 74
     1
 91
        0
 64
     7
 65
   257
 75
     1
175
     1
 42
1.0
 92
        8
 66
     8
424
  7895160
 43
1.0
 76
     1
 77
     6
 78
     2
 67
     7
 79
     5
170
     0
171
     0
290
     0
174
     0
 93
       13
 44
0.0
173
     0
291
     0
 45
0.0
1001
ACAD
1000
AcDbSavedByObjectVersion
1070
     0
1000
AcadProxyRoundTripData
1071
      501
1071
       25
1070
     1
  0
ACAD_PROXY_OBJECT_WRAPPER
  5
37
102
{ACAD_REACTORS
330
2A
102
}
330
2A
100
AcDbVisualStyle
  2
Thicken
 70
    13
 71
     2
 72
     2
 73
     0
 90
        0
 40
-0.6
 41
-30.0
 62
     5
 63
     7
421
 16777215
 74
     1
 91
        4
 64
     7
 65
   257
 75
     1
175
     1
 42
1.0
 92
       12
 66
     7
 43
1.0
 76
     1
 77
     6
 78
     2
 67
     7
 79
     5
170
     0
171
     0
290
     0
174
     0
 93
        1
 44
0.0
173
     0
291
     1
 45
0.0
1001
ACAD
1000
AcDbSavedByObjectVersion
1070
     0
1000
AcadProxyRoundTripData
1071
      501
1071
       25
1070
     1
  0
XRECORD
  5
1C0
102
{ACAD_REACTORS
330
1B7
102
}
330
1B7
100
AcDbXrecord
 90
        0
  0
XRECORD
  5
1D6
102
{ACAD_REACTORS
330
1B7
102
}
330
1B7
100
AcDbXrecord
1000
DSTYLE
1002
{
1070
   340
340
11
1002
}
  0
XRECORD
  5
1C1
102
{ACAD_REACTORS
330
1B7
102
}
330
1B7
100
AcDbXrecord
  1
{0537515A-9688-4446-A06B-5D9D4F39F38A}
  0
XRECORD
  5
1BA
102
{ACAD_REACTORS
330
1B7
102
}
330
1B7
100
AcDbXrecord
  1

  0
XRECORD
  5
1BF
102
{ACAD_REACTORS
330
1B7
102
}
330
1B7
100
AcDbXrecord
 90
        1
  0
XRECORD
  5
1BC
102
{ACAD_REACTORS
330
1B7
102
}
330
1B7
100
AcDbXrecord
340
1A
  0
XRECORD
  5
1BE
102
{ACAD_REACTORS
330
1B7
102
}
330
1B7
100
AcDbXrecord
 90
    10269
  0
XRECORD
  5
1BD
102
{ACAD_REACTORS
330
1B7
102
}
330
1B7
100
AcDbXrecord
340
19
  0
XRECORD
  5
1C3
102
{ACAD_REACTORS
330
1B7
102
}
330
1B7
100
AcDbXrecord
 40
0.0
  0
XRECORD
  5
1C6
102
{ACAD_REACTORS
330
1B7
102
}
330
1B7
100
AcDbXrecord
340
0
  0
XRECORD
  5
1CC
102
{ACAD_REACTORS
330
1B7
102
}
330
1B7
100
AcDbXrecord
 10
0.0
 20
0.0
 30
0.0
  0
XRECORD
  5
1C8
102
{ACAD_REACTORS
330
1B7
102
}
330
1B7
100
AcDbXrecord
 10
0.0
 20
0.0
 30
0.0
  0
XRECORD
  5
1CB
102
{ACAD_REACTORS
330
1B7
102
}
330
1B7
100
AcDbXrecord
 10
0.0
 20
0.0
 30
0.0
  0
XRECORD
  5
1C9
102
{ACAD_REACTORS
330
1B7
102
}
330
1B7
100
AcDbXrecord
 10
0.0
 20
0.0
 30
0.0
  0
XRECORD
  5
1CA
102
{ACAD_REACTORS
330
1B7
102
}
330
1B7
100
AcDbXrecord
 10
0.0
 20
0.0
 30
0.0
  0
XRECORD
  5
1C7
102
{ACAD_REACTORS
330
1B7
102
}
330
1B7
100
AcDbXrecord
 10
0.0
 20
0.0
 30
0.0
  0
XRECORD
  5
1C4
102
{ACAD_REACTORS
330
1B7
102
}
330
1B7
100
AcDbXrecord
340
0
  0
XRECORD
  5
1C5
102
{ACAD_REACTORS
330
1B7
102
}
330
1B7
100
AcDbXrecord
 70
     0
  0
XRECORD
  5
1BB
102
{ACAD_REACTORS
330
1B7
102
}
330
1B7
100
AcDbXrecord
  1

  0
XRECORD
  5
1B8
102
{ACAD_REACTORS
330
1B7
102
}
330
1B7
100
AcDbXrecord
 90
        1
  0
XRECORD
  5
1B9
102
{ACAD_REACTORS
330
1B7
102
}
330
1B7
100
AcDbXrecord
 90
       70
  0
XRECORD
  5
1CF
102
{ACAD_REACTORS
330
1B7
102
}
330
1B7
100
AcDbXrecord
340
0
  0
XRECORD
  5
1D5
102
{ACAD_REACTORS
330
1B7
102
}
330
1B7
100
AcDbXrecord
 10
0.0
 20
0.0
 30
0.0
  0
XRECORD
  5
1D1
102
{ACAD_REACTORS
330
1B7
102
}
330
1B7
100
AcDbXrecord
 10
0.0
 20
0.0
 30
0.0
  0
XRECORD
  5
1D4
102
{ACAD_REACTORS
330
1B7
102
}
330
1B7
100
AcDbXrecord
 10
0.0
 20
0.0
 30
0.0
  0
XRECORD
  5
1D2
102
{ACAD_REACTORS
330
1B7
102
}
330
1B7
100
AcDbXrecord
 10
0.0
 20
0.0
 30
0.0
  0
XRECORD
  5
1D3
102
{ACAD_REACTORS
330
1B7
102
}
330
1B7
100
AcDbXrecord
 10
0.0
 20
0.0
 30
0.0
  0
XRECORD
  5
1D0
102
{ACAD_REACTORS
330
1B7
102
}
330
1B7
100
AcDbXrecord
 10
0.0
 20
0.0
 30
0.0
  0
XRECORD
  5
1CD
102
{ACAD_REACTORS
330
1B7
102
}
330
1B7
100
AcDbXrecord
340
0
  0
XRECORD
  5
1CE
102
{ACAD_REACTORS
330
1B7
102
}
330
1B7
100
AcDbXrecord
 70
     0
  0
XRECORD
  5
1C2
102
{ACAD_REACTORS
330
1B7
102
}
330
1B7
100
AcDbXrecord
  1
{FAEB1C32-E019-11D5-929B-00C0DF256EC4}
  0
ENDSEC
  0
EOF
