  0
SECTION
  2
HEADER
  9
$ACADVER
  1
AC1014
  9
$ACADMAINTVER
 70
     9
  9
$DWGCODEPAGE
  3
ASCII
  9
$INSBASE
 10
0.0
 20
0.0
 30
0.0
  9
$EXTMIN
 10
1.000000000000000E+20
 20
1.000000000000000E+20
 30
1.000000000000000E+20
  9
$EXTMAX
 10
-1.000000000000000E+20
 20
-1.000000000000000E+20
 30
-1.000000000000000E+20
  9
$LIMMIN
 10
0.0
 20
0.0
  9
$LIMMAX
 10
12.0
 20
9.0
  9
$ORTHOMODE
 70
     0
  9
$REGENMODE
 70
     1
  9
$FILLMODE
 70
     1
  9
$QTEXTMODE
 70
     0
  9
$MIRRTEXT
 70
     1
  9
$DRAGMODE
 70
     2
  9
$LTSCALE
 40
1.0
  9
$OSMODE
 70
    37
  9
$ATTMODE
 70
     1
  9
$TEXTSIZE
 40
0.2
  9
$TRACEWID
 40
0.05
  9
$TEXTSTYLE
  7
STANDARD
  9
$CLAYER
  8
0
  9
$CELTYPE
  6
BYLAYER
  9
$CECOLOR
 62
   256
  9
$CELTSCALE
 40
1.0
  9
$DELOBJ
 70
     1
  9
$DISPSILH
 70
     0
  9
$DIMSCALE
 40
1.0
  9
$DIMASZ
 40
0.18
  9
$DIMEXO
 40
0.0625
  9
$DIMDLI
 40
0.38
  9
$DIMRND
 40
0.0
  9
$DIMDLE
 40
0.0
  9
$DIMEXE
 40
0.18
  9
$DIMTP
 40
0.0
  9
$DIMTM
 40
0.0
  9
$DIMTXT
 40
0.18
  9
$DIMCEN
 40
0.09
  9
$DIMTSZ
 40
0.0
  9
$DIMTOL
 70
     0
  9
$DIMLIM
 70
     0
  9
$DIMTIH
 70
     1
  9
$DIMTOH
 70
     1
  9
$DIMSE1
 70
     0
  9
$DIMSE2
 70
     0
  9
$DIMTAD
 70
     0
  9
$DIMZIN
 70
     0
  9
$DIMBLK
  1

  9
$DIMASO
 70
     1
  9
$DIMSHO
 70
     1
  9
$DIMPOST
  1

  9
$DIMAPOST
  1

  9
$DIMALT
 70
     0
  9
$DIMALTD
 70
     2
  9
$DIMALTF
 40
25.4
  9
$DIMLFAC
 40
1.0
  9
$DIMTOFL
 70
     0
  9
$DIMTVP
 40
0.0
  9
$DIMTIX
 70
     0
  9
$DIMSOXD
 70
     0
  9
$DIMSAH
 70
     0
  9
$DIMBLK1
  1

  9
$DIMBLK2
  1

  9
$DIMSTYLE
  2
STANDARD
  9
$DIMCLRD
 70
     0
  9
$DIMCLRE
 70
     0
  9
$DIMCLRT
 70
     0
  9
$DIMTFAC
 40
1.0
  9
$DIMGAP
 40
0.09
  9
$DIMJUST
 70
     0
  9
$DIMSD1
 70
     0
  9
$DIMSD2
 70
     0
  9
$DIMTOLJ
 70
     1
  9
$DIMTZIN
 70
     0
  9
$DIMALTZ
 70
     0
  9
$DIMALTTZ
 70
     0
  9
$DIMFIT
 70
     3
  9
$DIMUPT
 70
     0
  9
$DIMUNIT
 70
     2
  9
$DIMDEC
 70
     4
  9
$DIMTDEC
 70
     4
  9
$DIMALTU
 70
     2
  9
$DIMALTTD
 70
     2
  9
$DIMTXSTY
  7
STANDARD
  9
$DIMAUNIT
 70
     0
  9
$LUNITS
 70
     2
  9
$LUPREC
 70
     4
  9
$SKETCHINC
 40
0.1
  9
$FILLETRAD
 40
0.5
  9
$AUNITS
 70
     0
  9
$AUPREC
 70
     0
  9
$MENU
  1
.
  9
$ELEVATION
 40
0.0
  9
$PELEVATION
 40
0.0
  9
$THICKNESS
 40
0.0
  9
$LIMCHECK
 70
     0
  9
$CHAMFERA
 40
0.5
  9
$CHAMFERB
 40
0.5
  9
$CHAMFERC
 40
1.0
  9
$CHAMFERD
 40
0.0
  9
$SKPOLY
 70
     0
  9
$TDCREATE
 40
2456674.772734583
  9
$TDUPDATE
 40
2456674.772734595
  9
$TDINDWG
 40
0.0000000116
  9
$TDUSRTIMER
 40
0.0000000116
  9
$USRTIMER
 70
     1
  9
$ANGBASE
 50
0.0
  9
$ANGDIR
 70
     0
  9
$PDMODE
 70
     0
  9
$PDSIZE
 40
0.0
  9
$PLINEWID
 40
0.0
  9
$COORDS
 70
     1
  9
$SPLFRAME
 70
     0
  9
$SPLINETYPE
 70
     6
  9
$SPLINESEGS
 70
     8
  9
$ATTDIA
 70
     0
  9
$ATTREQ
 70
     1
  9
$HANDLING
 70
     1
  9
$HANDSEED
  5
180
  9
$SURFTAB1
 70
     6
  9
$SURFTAB2
 70
     6
  9
$SURFTYPE
 70
     6
  9
$SURFU
 70
     6
  9
$SURFV
 70
     6
  9
$UCSNAME
  2

  9
$UCSORG
 10
0.0
 20
0.0
 30
0.0
  9
$UCSXDIR
 10
1.0
 20
0.0
 30
0.0
  9
$UCSYDIR
 10
0.0
 20
1.0
 30
0.0
  9
$PUCSNAME
  2

  9
$PUCSORG
 10
0.0
 20
0.0
 30
0.0
  9
$PUCSXDIR
 10
1.0
 20
0.0
 30
0.0
  9
$PUCSYDIR
 10
0.0
 20
1.0
 30
0.0
  9
$USERI1
 70
     0
  9
$USERI2
 70
     0
  9
$USERI3
 70
     0
  9
$USERI4
 70
     0
  9
$USERI5
 70
     0
  9
$USERR1
 40
0.0
  9
$USERR2
 40
0.0
  9
$USERR3
 40
0.0
  9
$USERR4
 40
0.0
  9
$USERR5
 40
0.0
  9
$WORLDVIEW
 70
     1
  9
$SHADEDGE
 70
     3
  9
$SHADEDIF
 70
    70
  9
$TILEMODE
 70
     1
  9
$MAXACTVP
 70
    64
  9
$PINSBASE
 10
0.0
 20
0.0
 30
0.0
  9
$PLIMCHECK
 70
     0
  9
$PEXTMIN
 10
1.000000000000000E+20
 20
1.000000000000000E+20
 30
1.000000000000000E+20
  9
$PEXTMAX
 10
-1.000000000000000E+20
 20
-1.000000000000000E+20
 30
-1.000000000000000E+20
  9
$PLIMMIN
 10
0.0
 20
0.0
  9
$PLIMMAX
 10
12.0
 20
9.0
  9
$UNITMODE
 70
     0
  9
$VISRETAIN
 70
     1
  9
$PLINEGEN
 70
     0
  9
$PSLTSCALE
 70
     1
  9
$TREEDEPTH
 70
  3020
  9
$PICKSTYLE
 70
     1
  9
$CMLSTYLE
  2
STANDARD
  9
$CMLJUST
 70
     0
  9
$CMLSCALE
 40
1.0
  9
$PROXYGRAPHICS
 70
     1
  9
$MEASUREMENT
 70
     0
  0
ENDSEC
  0
SECTION
  2
CLASSES
  0
CLASS
  1
ACDBDICTIONARYWDFLT
  2
AcDbDictionaryWithDefault
  3
ObjectDBX Classes
 90
        0
280
     0
281
     0
  0
CLASS
  1
VISUALSTYLE
  2
AcDbVisualStyle
  3
ObjectDBX Classes
 90
     4095
280
     1
281
     0
  0
CLASS
  1
ACAD_PROXY_OBJECT_WRAPPER
  2
AcDbProxyObjectWrapper
  3
AutoCAD 2000
 90
        0
280
     0
281
     0
  0
CLASS
  1
XRECORD
  2
AcDbXrecord
  3
AutoCAD 2000
 90
        0
280
     0
281
     0
  0
CLASS
  1
LWPOLYLINE
  2
AcDbPolyline
  3
AutoCAD 2000
 90
        0
280
     0
281
     1
  0
CLASS
  1
HATCH
  2
AcDbHatch
  3
AutoCAD 2000
 90
        0
280
     0
281
     1
  0
CLASS
  1
ACDBPLACEHOLDER
  2
AcDbPlaceHolder
  3
ObjectDBX Classes
 90
        0
280
     0
281
     0
  0
CLASS
  1
LAYOUT
  2
AcDbLayout
  3
ObjectDBX Classes
 90
        0
280
     0
281
     0
  0
ENDSEC
  0
SECTION
  2
TABLES
  0
TABLE
  2
VPORT
  5
8
330
0
100
AcDbSymbolTable
 70
     1
  0
VPORT
  5
29
102
{ACAD_XDICTIONARY
360
17E
102
}
330
8
100
AcDbSymbolTableRecord
100
AcDbViewportTableRecord
  2
*ACTIVE
 70
     0
 10
0.0
 20
0.0
 11
1.0
 21
1.0
 12
0.0
 22
0.0
 13
0.0
 23
0.0
 14
0.5
 24
0.5
 15
0.5
 25
0.5
 16
0.0
 26
0.0
 36
1.0
 17
105.0008091239277
 27
148.5001637099431
 37
0.0
 40
297.0003274198861
 41
0.7070753762199199
 42
50.0
 43
0.0
 44
0.0
 50
0.0
 51
0.0
 71
     0
 72
   100
 73
     1
 74
     3
 75
     0
 76
     0
 77
     0
 78
     0
  0
ENDTAB
  0
TABLE
  2
LTYPE
  5
5
330
0
100
AcDbSymbolTable
 70
    12
  0
LTYPE
  5
14
330
5
100
AcDbSymbolTableRecord
100
AcDbLinetypeTableRecord
  2
BYBLOCK
 70
     0
  3

 72
    65
 73
     0
 40
0.0
  0
LTYPE
  5
15
330
5
100
AcDbSymbolTableRecord
100
AcDbLinetypeTableRecord
  2
BYLAYER
 70
     0
  3

 72
    65
 73
     0
 40
0.0
  0
LTYPE
  5
16
330
5
100
AcDbSymbolTableRecord
100
AcDbLinetypeTableRecord
  2
CONTINUOUS
 70
     0
  3
Solid line
 72
    65
 73
     0
 40
0.0
  0
LTYPE
  5
3C
330
5
100
AcDbSymbolTableRecord
100
AcDbLinetypeTableRecord
  2
AI-LINETYPE-1
 70
     0
  3
Adobe Illustrator Linetype No. 1
 72
    65
 73
     2
 40
2.006182490528701
 49
1.337454657250473
 74
     0
 49
-0.6687278332782282
 74
     0
  0
LTYPE
  5
41
330
5
100
AcDbSymbolTableRecord
100
AcDbLinetypeTableRecord
  2
AI-LINETYPE-2
 70
     0
  3
Adobe Illustrator Linetype No. 2
 72
    65
 73
     2
 40
2.006182490528701
 49
1.337454657250473
 74
     0
 49
-0.6687278332782282
 74
     0
  0
LTYPE
  5
46
330
5
100
AcDbSymbolTableRecord
100
AcDbLinetypeTableRecord
  2
AI-LINETYPE-3
 70
     0
  3
Adobe Illustrator Linetype No. 3
 72
    65
 73
     2
 40
2.006182490528701
 49
1.337454657250473
 74
     0
 49
-0.6687278332782282
 74
     0
  0
LTYPE
  5
138
330
5
100
AcDbSymbolTableRecord
100
AcDbLinetypeTableRecord
  2
AI-LINETYPE-4
 70
     0
  3
Adobe Illustrator Linetype No. 4
 72
    65
 73
     4
 40
37.08212523705553
 49
23.17632726385372
 74
     0
 49
-4.635265991067269
 74
     0
 49
4.635265991067269
 74
     0
 49
-4.635265991067269
 74
     0
  0
LTYPE
  5
13D
330
5
100
AcDbSymbolTableRecord
100
AcDbLinetypeTableRecord
  2
AI-LINETYPE-5
 70
     0
  3
Adobe Illustrator Linetype No. 5
 72
    65
 73
     4
 40
37.08212523705553
 49
23.17632726385372
 74
     0
 49
-4.635265991067269
 74
     0
 49
4.635265991067269
 74
     0
 49
-4.635265991067269
 74
     0
  0
LTYPE
  5
142
330
5
100
AcDbSymbolTableRecord
100
AcDbLinetypeTableRecord
  2
AI-LINETYPE-6
 70
     0
  3
Adobe Illustrator Linetype No. 6
 72
    65
 73
     4
 40
37.08212523705553
 49
23.17632726385372
 74
     0
 49
-4.635265991067269
 74
     0
 49
4.635265991067269
 74
     0
 49
-4.635265991067269
 74
     0
  0
LTYPE
  5
147
330
5
100
AcDbSymbolTableRecord
100
AcDbLinetypeTableRecord
  2
AI-LINETYPE-7
 70
     0
  3
Adobe Illustrator Linetype No. 7
 72
    65
 73
     4
 40
37.08212523705553
 49
23.17632726385372
 74
     0
 49
-4.635265991067269
 74
     0
 49
4.635265991067269
 74
     0
 49
-4.635265991067269
 74
     0
  0
LTYPE
  5
14C
330
5
100
AcDbSymbolTableRecord
100
AcDbLinetypeTableRecord
  2
AI-LINETYPE-8
 70
     0
  3
Adobe Illustrator Linetype No. 8
 72
    65
 73
     4
 40
37.08212523705553
 49
23.17632726385372
 74
     0
 49
-4.635265991067269
 74
     0
 49
4.635265991067269
 74
     0
 49
-4.635265991067269
 74
     0
  0
LTYPE
  5
151
330
5
100
AcDbSymbolTableRecord
100
AcDbLinetypeTableRecord
  2
AI-LINETYPE-9
 70
     0
  3
Adobe Illustrator Linetype No. 9
 72
    65
 73
     4
 40
37.08212523705553
 49
23.17632726385372
 74
     0
 49
-4.635265991067269
 74
     0
 49
4.635265991067269
 74
     0
 49
-4.635265991067269
 74
     0
  0
LTYPE
  5
156
330
5
100
AcDbSymbolTableRecord
100
AcDbLinetypeTableRecord
  2
AI-LINETYPE-10
 70
     0
  3
Adobe Illustrator Linetype No. 10
 72
    65
 73
     4
 40
37.08212523705553
 49
23.17632726385372
 74
     0
 49
-4.635265991067269
 74
     0
 49
4.635265991067269
 74
     0
 49
-4.635265991067269
 74
     0
  0
LTYPE
  5
15B
330
5
100
AcDbSymbolTableRecord
100
AcDbLinetypeTableRecord
  2
AI-LINETYPE-11
 70
     0
  3
Adobe Illustrator Linetype No. 11
 72
    65
 73
     4
 40
37.08212523705553
 49
23.17632726385372
 74
     0
 49
-4.635265991067269
 74
     0
 49
4.635265991067269
 74
     0
 49
-4.635265991067269
 74
     0
  0
ENDTAB
  0
TABLE
  2
LAYER
  5
2
330
0
100
AcDbSymbolTable
 70
     1
  0
LAYER
  5
10
330
2
100
AcDbSymbolTableRecord
100
AcDbLayerTableRecord
  2
0
 70
     0
 62
     7
  6
CONTINUOUS
  0
ENDTAB
  0
TABLE
  2
STYLE
  5
3
330
0
100
AcDbSymbolTable
 70
     1
  0
STYLE
  5
11
330
3
100
AcDbSymbolTableRecord
100
AcDbTextStyleTableRecord
  2
STANDARD
 70
     0
 40
0.0
 41
1.0
 50
0.0
 71
     0
 42
0.2
  3
txt
  4

  0
ENDTAB
  0
TABLE
  2
VIEW
  5
6
330
0
100
AcDbSymbolTable
 70
     0
  0
ENDTAB
  0
TABLE
  2
UCS
  5
7
330
0
100
AcDbSymbolTable
 70
     0
  0
ENDTAB
  0
TABLE
  2
APPID
  5
9
330
0
100
AcDbSymbolTable
 70
     1
  0
APPID
  5
12
330
9
100
AcDbSymbolTableRecord
100
AcDbRegAppTableRecord
  2
ACAD
 70
     0
  0
ENDTAB
  0
TABLE
  2
DIMSTYLE
  5
A
330
0
100
AcDbSymbolTable
 70
     1
  0
DIMSTYLE
105
27
330
A
100
AcDbSymbolTableRecord
100
AcDbDimStyleTableRecord
  2
STANDARD
 70
     0
  3

  4

  5

  6

  7

 40
1.0
 41
0.18
 42
0.0625
 43
0.38
 44
0.18
 45
0.0
 46
0.0
 47
0.0
 48
0.0
140
0.18
141
0.09
142
0.0
143
25.4
144
1.0
145
0.0
146
1.0
147
0.09
 71
     0
 72
     0
 73
     1
 74
     1
 75
     0
 76
     0
 77
     0
 78
     0
170
     0
171
     2
172
     0
173
     0
174
     0
175
     0
176
     0
177
     0
178
     0
270
     2
271
     4
272
     4
273
     2
274
     2
340
11
275
     0
280
     0
281
     0
282
     0
283
     1
284
     0
285
     0
286
     0
287
     3
288
     0
  0
ENDTAB
  0
TABLE
  2
BLOCK_RECORD
  5
1
330
0
100
AcDbSymbolTable
 70
     1
  0
BLOCK_RECORD
  5
1F
330
1
100
AcDbSymbolTableRecord
100
AcDbBlockTableRecord
  2
*MODEL_SPACE
  0
BLOCK_RECORD
  5
1B
330
1
100
AcDbSymbolTableRecord
100
AcDbBlockTableRecord
  2
*PAPER_SPACE
  0
ENDTAB
  0
ENDSEC
  0
SECTION
  2
BLOCKS
  0
BLOCK
  5
20
330
1F
100
AcDbEntity
  8
0
100
AcDbBlockBegin
  2
*MODEL_SPACE
 70
     0
 71
     0
 10
0.0
 20
0.0
 30
0.0
  3
*MODEL_SPACE
  1

  0
ENDBLK
  5
21
330
1F
100
AcDbEntity
  8
0
100
AcDbBlockEnd
  0
BLOCK
  5
1C
330
1B
100
AcDbEntity
 67
     1
  8
0
100
AcDbBlockBegin
  2
*PAPER_SPACE
 70
     0
 71
     0
 10
0.0
 20
0.0
 30
0.0
  3
*PAPER_SPACE
  1

  0
ENDBLK
  5
1D
330
1B
100
AcDbEntity
 67
     1
  8
0
100
AcDbBlockEnd
  0
ENDSEC
  0
SECTION
  2
ENTITIES
  0
SPLINE
  5
3B
330
1F
100
AcDbEntity
  8
0
  6
AI-LINETYPE-1
 62
     7
100
AcDbSpline
210
0.0
220
0.0
230
1.0
 70
     8
 71
     3
 72
     8
 73
     4
 74
     0
 42
0.0000000001
 43
0.0000000001
 40
0.0
 40
0.0
 40
0.0
 40
0.0
 40
1.0
 40
1.0
 40
1.0
 40
1.0
 10
130.3402782807314
 20
154.1145533986493
 30
0.0
 10
130.3402782807314
 20
153.9490164513792
 30
0.0
 10
130.197306723776
 20
153.8148298937066
 30
0.0
 10
130.0205732087926
 20
153.8148298937066
 30
0.0
  0
POLYLINE
  5
3D
330
1F
100
AcDbEntity
  8
0
  6
AI-LINETYPE-2
 62
     7
100
AcDb2dPolyline
 66
     1
 10
0.0
 20
0.0
 30
0.0
  0
VERTEX
  5
3E
330
3D
100
AcDbEntity
  8
0
  6
AI-LINETYPE-2
 62
     7
100
AcDbVertex
100
AcDb2dVertex
 10
130.3402782807314
 20
154.414104648704
 30
0.0
  0
VERTEX
  5
3F
330
3D
100
AcDbEntity
  8
0
  6
AI-LINETYPE-2
 62
     7
100
AcDbVertex
100
AcDb2dVertex
 10
130.3402782807314
 20
154.1145533986493
 30
0.0
  0
SEQEND
  5
40
330
3D
100
AcDbEntity
  8
0
  6
AI-LINETYPE-2
  0
POLYLINE
  5
42
330
1F
100
AcDbEntity
  8
0
  6
AI-LINETYPE-3
 62
     7
100
AcDb2dPolyline
 66
     1
 10
0.0
 20
0.0
 30
0.0
  0
VERTEX
  5
43
330
42
100
AcDbEntity
  8
0
  6
AI-LINETYPE-3
 62
     7
100
AcDbVertex
100
AcDb2dVertex
 10
130.0205732087926
 20
153.8148298937066
 30
0.0
  0
VERTEX
  5
44
330
42
100
AcDbEntity
  8
0
  6
AI-LINETYPE-3
 62
     7
100
AcDbVertex
100
AcDb2dVertex
 10
128.208107278329
 20
153.8148298937066
 30
0.0
  0
SEQEND
  5
45
330
42
100
AcDbEntity
  8
0
  6
AI-LINETYPE-3
  0
POLYLINE
  5
47
330
1F
100
AcDbEntity
  8
0
 62
     7
100
AcDb2dPolyline
 66
     1
 10
0.0
 20
0.0
 30
0.0
  0
VERTEX
  5
48
330
47
100
AcDbEntity
  8
0
 62
     7
100
AcDbVertex
100
AcDb2dVertex
 10
122.3438618747266
 20
151.3526185260914
 30
0.0
  0
VERTEX
  5
49
330
47
100
AcDbEntity
  8
0
 62
     7
100
AcDbVertex
100
AcDb2dVertex
 10
118.3596063176439
 20
145.442725577196
 30
0.0
  0
SEQEND
  5
4A
330
47
100
AcDbEntity
  8
0
  0
POLYLINE
  5
4B
330
1F
100
AcDbEntity
  8
0
 62
     7
100
AcDb2dPolyline
 66
     1
 10
0.0
 20
0.0
 30
0.0
  0
VERTEX
  5
4C
330
4B
100
AcDbEntity
  8
0
 62
     7
100
AcDbVertex
100
AcDb2dVertex
 10
122.3438618747266
 20
144.1012045102457
 30
0.0
  0
VERTEX
  5
4D
330
4B
100
AcDbEntity
  8
0
 62
     7
100
AcDbVertex
100
AcDb2dVertex
 10
118.3596063176439
 20
149.5611676919513
 30
0.0
  0
SEQEND
  5
4E
330
4B
100
AcDbEntity
  8
0
  0
POLYLINE
  5
4F
330
1F
100
AcDbEntity
  8
0
 62
     7
100
AcDb2dPolyline
 66
     1
 10
0.0
 20
0.0
 30
0.0
  0
VERTEX
  5
50
330
4F
100
AcDbEntity
  8
0
 62
     7
100
AcDbVertex
100
AcDb2dVertex
 10
117.0122285845051
 20
153.0656933862378
 30
0.0
  0
VERTEX
  5
51
330
4F
100
AcDbEntity
  8
0
 62
     7
100
AcDbVertex
100
AcDb2dVertex
 10
117.0122285845051
 20
131.8401015896601
 30
0.0
  0
SEQEND
  5
52
330
4F
100
AcDbEntity
  8
0
  0
POLYLINE
  5
53
330
1F
100
AcDbEntity
  8
0
 62
     7
100
AcDb2dPolyline
 66
     1
 10
0.0
 20
0.0
 30
0.0
  0
VERTEX
  5
54
330
53
100
AcDbEntity
  8
0
 62
     7
100
AcDbVertex
100
AcDb2dVertex
 10
117.0122285845051
 20
131.8401015896601
 30
0.0
  0
VERTEX
  5
55
330
53
100
AcDbEntity
  8
0
 62
     7
100
AcDbVertex
100
AcDb2dVertex
 10
124.2627813259112
 20
131.8401015896601
 30
0.0
  0
SEQEND
  5
56
330
53
100
AcDbEntity
  8
0
  0
POLYLINE
  5
57
330
1F
100
AcDbEntity
  8
0
 62
     7
100
AcDb2dPolyline
 66
     1
 10
0.0
 20
0.0
 30
0.0
  0
VERTEX
  5
58
330
57
100
AcDbEntity
  8
0
 62
     7
100
AcDbVertex
100
AcDb2dVertex
 10
124.2627813259112
 20
153.8148298937066
 30
0.0
  0
VERTEX
  5
59
330
57
100
AcDbEntity
  8
0
 62
     7
100
AcDbVertex
100
AcDb2dVertex
 10
124.2627813259112
 20
131.0411834195887
 30
0.0
  0
SEQEND
  5
5A
330
57
100
AcDbEntity
  8
0
  0
POLYLINE
  5
5B
330
1F
100
AcDbEntity
  8
0
 62
     7
100
AcDb2dPolyline
 66
     1
 10
0.0
 20
0.0
 30
0.0
  0
VERTEX
  5
5C
330
5B
100
AcDbEntity
  8
0
 62
     7
100
AcDbVertex
100
AcDb2dVertex
 10
124.2627813259112
 20
131.0411834195887
 30
0.0
  0
VERTEX
  5
5D
330
5B
100
AcDbEntity
  8
0
 62
     7
100
AcDbVertex
100
AcDb2dVertex
 10
130.0205732087926
 20
131.0411834195887
 30
0.0
  0
SEQEND
  5
5E
330
5B
100
AcDbEntity
  8
0
  0
SPLINE
  5
5F
330
1F
100
AcDbEntity
  8
0
 62
     7
100
AcDbSpline
210
0.0
220
0.0
230
1.0
 70
     8
 71
     3
 72
     8
 73
     4
 74
     0
 42
0.0000000001
 43
0.0000000001
 40
0.0
 40
0.0
 40
0.0
 40
0.0
 40
1.0
 40
1.0
 40
1.0
 40
1.0
 10
130.0205732087926
 20
131.0411834195887
 30
0.0
 10
130.197306723776
 20
131.0411834195887
 30
0.0
 10
130.3402782807314
 20
130.9068246070282
 30
0.0
 10
130.3402782807314
 20
130.7418044244219
 30
0.0
  0
POLYLINE
  5
60
330
1F
100
AcDbEntity
  8
0
 62
     7
100
AcDb2dPolyline
 66
     1
 10
0.0
 20
0.0
 30
0.0
  0
VERTEX
  5
61
330
60
100
AcDbEntity
  8
0
 62
     7
100
AcDbVertex
100
AcDb2dVertex
 10
130.3402782807314
 20
157.410822933467
 30
0.0
  0
VERTEX
  5
62
330
60
100
AcDbEntity
  8
0
 62
     7
100
AcDbVertex
100
AcDb2dVertex
 10
130.3402782807314
 20
127.4455348896041
 30
0.0
  0
SEQEND
  5
63
330
60
100
AcDbEntity
  8
0
  0
POLYLINE
  5
64
330
1F
100
AcDbEntity
  8
0
 62
     7
100
AcDb2dPolyline
 66
     1
 10
0.0
 20
0.0
 30
0.0
  0
VERTEX
  5
65
330
64
100
AcDbEntity
  8
0
 62
     7
100
AcDbVertex
100
AcDb2dVertex
 10
130.3402782807314
 20
127.4455348896041
 30
0.0
  0
VERTEX
  5
66
330
64
100
AcDbEntity
  8
0
 62
     7
100
AcDbVertex
100
AcDb2dVertex
 10
133.5393960587747
 20
127.4455348896041
 30
0.0
  0
SEQEND
  5
67
330
64
100
AcDbEntity
  8
0
  0
POLYLINE
  5
68
330
1F
100
AcDbEntity
  8
0
 62
     7
100
AcDb2dPolyline
 66
     1
 10
0.0
 20
0.0
 30
0.0
  0
VERTEX
  5
69
330
68
100
AcDbEntity
  8
0
 62
     7
100
AcDbVertex
100
AcDb2dVertex
 10
133.5393960587747
 20
127.4455348896041
 30
0.0
  0
VERTEX
  5
6A
330
68
100
AcDbEntity
  8
0
 62
     7
100
AcDbVertex
100
AcDb2dVertex
 10
133.5393960587747
 20
157.410822933467
 30
0.0
  0
SEQEND
  5
6B
330
68
100
AcDbEntity
  8
0
  0
POLYLINE
  5
6C
330
1F
100
AcDbEntity
  8
0
 62
     7
100
AcDb2dPolyline
 66
     1
 10
0.0
 20
0.0
 30
0.0
  0
VERTEX
  5
6D
330
6C
100
AcDbEntity
  8
0
 62
     7
100
AcDbVertex
100
AcDb2dVertex
 10
135.1386104380205
 20
132.4398931093212
 30
0.0
  0
VERTEX
  5
6E
330
6C
100
AcDbEntity
  8
0
 62
     7
100
AcDbVertex
100
AcDb2dVertex
 10
143.1353713538012
 20
132.4398931093212
 30
0.0
  0
SEQEND
  5
6F
330
6C
100
AcDbEntity
  8
0
  0
POLYLINE
  5
70
330
1F
100
AcDbEntity
  8
0
 62
     7
100
AcDb2dPolyline
 66
     1
 10
0.0
 20
0.0
 30
0.0
  0
VERTEX
  5
71
330
70
100
AcDbEntity
  8
0
 62
     7
100
AcDbVertex
100
AcDb2dVertex
 10
143.1353713538012
 20
132.4398931093212
 30
0.0
  0
VERTEX
  5
72
330
70
100
AcDbEntity
  8
0
 62
     7
100
AcDbVertex
100
AcDb2dVertex
 10
143.1353713538012
 20
152.4164647137499
 30
0.0
  0
SEQEND
  5
73
330
70
100
AcDbEntity
  8
0
  0
POLYLINE
  5
74
330
1F
100
AcDbEntity
  8
0
 62
     7
100
AcDb2dPolyline
 66
     1
 10
0.0
 20
0.0
 30
0.0
  0
VERTEX
  5
75
330
74
100
AcDbEntity
  8
0
 62
     7
100
AcDbVertex
100
AcDb2dVertex
 10
143.1353713538012
 20
152.4164647137499
 30
0.0
  0
VERTEX
  5
76
330
74
100
AcDbEntity
  8
0
 62
     7
100
AcDbVertex
100
AcDb2dVertex
 10
135.1386104380205
 20
152.4164647137499
 30
0.0
  0
SEQEND
  5
77
330
74
100
AcDbEntity
  8
0
  0
POLYLINE
  5
78
330
1F
100
AcDbEntity
  8
0
 62
     7
100
AcDb2dPolyline
 66
     1
 10
0.0
 20
0.0
 30
0.0
  0
VERTEX
  5
79
330
78
100
AcDbEntity
  8
0
 62
     7
100
AcDbVertex
100
AcDb2dVertex
 10
133.5393960587747
 20
157.410822933467
 30
0.0
  0
VERTEX
  5
7A
330
78
100
AcDbEntity
  8
0
 62
     7
100
AcDbVertex
100
AcDb2dVertex
 10
130.3402782807314
 20
157.410822933467
 30
0.0
  0
SEQEND
  5
7B
330
78
100
AcDbEntity
  8
0
  0
POLYLINE
  5
7C
330
1F
100
AcDbEntity
  8
0
 62
     7
100
AcDb2dPolyline
 66
     1
 10
0.0
 20
0.0
 30
0.0
  0
VERTEX
  5
7D
330
7C
100
AcDbEntity
  8
0
 62
     7
100
AcDbVertex
100
AcDb2dVertex
 10
128.208107278329
 20
153.8148298937066
 30
0.0
  0
VERTEX
  5
7E
330
7C
100
AcDbEntity
  8
0
 62
     7
100
AcDbVertex
100
AcDb2dVertex
 10
124.2627813259112
 20
153.8148298937066
 30
0.0
  0
SEQEND
  5
7F
330
7C
100
AcDbEntity
  8
0
  0
POLYLINE
  5
80
330
1F
100
AcDbEntity
  8
0
 62
     7
100
AcDb2dPolyline
 66
     1
 10
0.0
 20
0.0
 30
0.0
  0
VERTEX
  5
81
330
80
100
AcDbEntity
  8
0
 62
     7
100
AcDbVertex
100
AcDb2dVertex
 10
124.2627813259112
 20
153.2155551387092
 30
0.0
  0
VERTEX
  5
82
330
80
100
AcDbEntity
  8
0
 62
     7
100
AcDbVertex
100
AcDb2dVertex
 10
122.3438618747266
 20
153.2155551387092
 30
0.0
  0
SEQEND
  5
83
330
80
100
AcDbEntity
  8
0
  0
SPLINE
  5
84
330
1F
100
AcDbEntity
  8
0
 62
     7
100
AcDbSpline
210
0.0
220
0.0
230
1.0
 70
     8
 71
     3
 72
     8
 73
     4
 74
     0
 42
0.0000000001
 43
0.0000000001
 40
0.0
 40
0.0
 40
0.0
 40
0.0
 40
1.0
 40
1.0
 40
1.0
 40
1.0
 10
122.1343999310425
 20
153.8148298937066
 30
0.0
 10
122.2504997254858
 20
153.8127628350518
 30
0.0
 10
122.3438618747266
 20
153.7238793128964
 30
0.0
 10
122.3438618747266
 20
153.6151864786327
 30
0.0
  0
POLYLINE
  5
85
330
1F
100
AcDbEntity
  8
0
 62
     7
100
AcDb2dPolyline
 66
     1
 10
0.0
 20
0.0
 30
0.0
  0
VERTEX
  5
86
330
85
100
AcDbEntity
  8
0
 62
     7
100
AcDbVertex
100
AcDb2dVertex
 10
122.3438618747266
 20
153.6151864786327
 30
0.0
  0
VERTEX
  5
87
330
85
100
AcDbEntity
  8
0
 62
     7
100
AcDbVertex
100
AcDb2dVertex
 10
122.3438618747266
 20
131.8401015896601
 30
0.0
  0
SEQEND
  5
88
330
85
100
AcDbEntity
  8
0
  0
SPLINE
  5
89
330
1F
100
AcDbEntity
  8
0
 62
     7
100
AcDbSpline
210
0.0
220
0.0
230
1.0
 70
     8
 71
     3
 72
     8
 73
     4
 74
     0
 42
0.0000000001
 43
0.0000000001
 40
0.0
 40
0.0
 40
0.0
 40
0.0
 40
1.0
 40
1.0
 40
1.0
 40
1.0
 10
117.0129176040567
 20
153.0663824057894
 30
0.0
 10
118.6586408030349
 20
153.5922765785423
 30
0.0
 10
120.3911804655139
 20
153.8448022442008
 30
0.0
 10
122.1299213039571
 20
153.8120738155002
 30
0.0
  0
POLYLINE
  5
8A
330
1F
100
AcDbEntity
  8
0
 62
     7
100
AcDb2dPolyline
 66
     1
 10
0.0
 20
0.0
 30
0.0
  0
VERTEX
  5
8B
330
8A
100
AcDbEntity
  8
0
 62
     7
100
AcDbVertex
100
AcDb2dVertex
 10
128.208107278329
 20
153.8148298937066
 30
0.0
  0
VERTEX
  5
8C
330
8A
100
AcDbEntity
  8
0
 62
     7
100
AcDbVertex
100
AcDb2dVertex
 10
128.208107278329
 20
154.414104648704
 30
0.0
  0
SEQEND
  5
8D
330
8A
100
AcDbEntity
  8
0
  0
POLYLINE
  5
8E
330
1F
100
AcDbEntity
  8
0
 62
     7
100
AcDb2dPolyline
 66
     1
 10
0.0
 20
0.0
 30
0.0
  0
VERTEX
  5
8F
330
8E
100
AcDbEntity
  8
0
 62
     7
100
AcDbVertex
100
AcDb2dVertex
 10
128.208107278329
 20
154.414104648704
 30
0.0
  0
VERTEX
  5
90
330
8E
100
AcDbEntity
  8
0
 62
     7
100
AcDbVertex
100
AcDb2dVertex
 10
130.3402782807314
 20
154.414104648704
 30
0.0
  0
SEQEND
  5
91
330
8E
100
AcDbEntity
  8
0
  0
POLYLINE
  5
92
330
1F
100
AcDbEntity
  8
0
 62
     7
100
AcDb2dPolyline
 66
     1
 10
0.0
 20
0.0
 30
0.0
  0
VERTEX
  5
93
330
92
100
AcDbEntity
  8
0
 62
     7
100
AcDbVertex
100
AcDb2dVertex
 10
133.5393960587747
 20
156.9114560134504
 30
0.0
  0
VERTEX
  5
94
330
92
100
AcDbEntity
  8
0
 62
     7
100
AcDbVertex
100
AcDb2dVertex
 10
135.1386104380205
 20
156.9114560134504
 30
0.0
  0
SEQEND
  5
95
330
92
100
AcDbEntity
  8
0
  0
POLYLINE
  5
96
330
1F
100
AcDbEntity
  8
0
 62
     7
100
AcDb2dPolyline
 66
     1
 10
0.0
 20
0.0
 30
0.0
  0
VERTEX
  5
97
330
96
100
AcDbEntity
  8
0
 62
     7
100
AcDbVertex
100
AcDb2dVertex
 10
135.1386104380205
 20
156.9114560134504
 30
0.0
  0
VERTEX
  5
98
330
96
100
AcDbEntity
  8
0
 62
     7
100
AcDbVertex
100
AcDb2dVertex
 10
135.1386104380205
 20
127.9447295547328
 30
0.0
  0
SEQEND
  5
99
330
96
100
AcDbEntity
  8
0
  0
POLYLINE
  5
9A
330
1F
100
AcDbEntity
  8
0
 62
     7
100
AcDb2dPolyline
 66
     1
 10
0.0
 20
0.0
 30
0.0
  0
VERTEX
  5
9B
330
9A
100
AcDbEntity
  8
0
 62
     7
100
AcDbVertex
100
AcDb2dVertex
 10
135.1386104380205
 20
127.9447295547328
 30
0.0
  0
VERTEX
  5
9C
330
9A
100
AcDbEntity
  8
0
 62
     7
100
AcDbVertex
100
AcDb2dVertex
 10
133.5393960587747
 20
127.9447295547328
 30
0.0
  0
SEQEND
  5
9D
330
9A
100
AcDbEntity
  8
0
  0
SPLINE
  5
9E
330
1F
100
AcDbEntity
  8
0
 62
     7
100
AcDbSpline
210
0.0
220
0.0
230
1.0
 70
     8
 71
     3
 72
     8
 73
     4
 74
     0
 42
0.0000000001
 43
0.0000000001
 40
0.0
 40
0.0
 40
0.0
 40
0.0
 40
1.0
 40
1.0
 40
1.0
 40
1.0
 10
117.5682673626401
 20
148.6621694320112
 30
0.0
 10
118.6610523714655
 20
150.1721557793258
 30
0.0
 10
120.4073724249763
 20
151.1562479538875
 30
0.0
 10
122.3438618747266
 20
151.3526185260914
 30
0.0
  0
SPLINE
  5
9F
330
1F
100
AcDbEntity
  8
0
 62
     7
100
AcDbSpline
210
0.0
220
0.0
230
1.0
 70
     8
 71
     3
 72
     8
 73
     4
 74
     0
 42
0.0000000001
 43
0.0000000001
 40
0.0
 40
0.0
 40
0.0
 40
0.0
 40
1.0
 40
1.0
 40
1.0
 40
1.0
 10
122.3438618747266
 20
144.1012045102457
 30
0.0
 10
120.3067755704438
 20
143.9230929561591
 30
0.0
 10
118.3606398469713
 20
144.9276834623807
 30
0.0
 10
117.433219530528
 20
146.6350739112265
 30
0.0
  0
SPLINE
  5
A0
330
1F
100
AcDbEntity
  8
0
 62
     7
100
AcDbSpline
210
0.0
220
0.0
230
1.0
 70
     8
 71
     3
 72
     8
 73
     4
 74
     0
 42
0.0000000001
 43
0.0000000001
 40
0.0
 40
0.0
 40
0.0
 40
0.0
 40
1.0
 40
1.0
 40
1.0
 40
1.0
 10
117.433219530528
 20
146.6350739112265
 30
0.0
 10
117.0818195592159
 20
147.2834413092749
 30
0.0
 10
117.1331515158095
 20
148.0596218341437
 30
0.0
 10
117.5682673626401
 20
148.6621694320112
 30
0.0
  0
POLYLINE
  5
A1
330
1F
100
AcDbEntity
  8
0
 62
     7
100
AcDb2dPolyline
 66
     1
 10
0.0
 20
0.0
 30
0.0
  0
VERTEX
  5
A2
330
A1
100
AcDbEntity
  8
0
 62
     7
100
AcDbVertex
100
AcDb2dVertex
 10
146.0268419020584
 20
145.025179728931
 30
0.0
  0
VERTEX
  5
A3
330
A1
100
AcDbEntity
  8
0
 62
     7
100
AcDbVertex
100
AcDb2dVertex
 10
146.0268419020584
 20
144.220749402447
 30
0.0
  0
SEQEND
  5
A4
330
A1
100
AcDbEntity
  8
0
  0
POLYLINE
  5
A5
330
1F
100
AcDbEntity
  8
0
 62
     7
100
AcDb2dPolyline
 66
     1
 10
0.0
 20
0.0
 30
0.0
  0
VERTEX
  5
A6
330
A5
100
AcDbEntity
  8
0
 62
     7
100
AcDbVertex
100
AcDb2dVertex
 10
144.8413837635438
 20
145.8237533892266
 30
0.0
  0
VERTEX
  5
A7
330
A5
100
AcDbEntity
  8
0
 62
     7
100
AcDbVertex
100
AcDb2dVertex
 10
143.1353713538012
 20
145.8237533892266
 30
0.0
  0
SEQEND
  5
A8
330
A5
100
AcDbEntity
  8
0
  0
POLYLINE
  5
A9
330
1F
100
AcDbEntity
  8
0
 62
     7
100
AcDb2dPolyline
 66
     1
 10
0.0
 20
0.0
 30
0.0
  0
VERTEX
  5
AA
330
A9
100
AcDbEntity
  8
0
 62
     7
100
AcDbVertex
100
AcDb2dVertex
 10
146.9735547659463
 20
144.2259170490839
 30
0.0
  0
VERTEX
  5
AB
330
A9
100
AcDbEntity
  8
0
 62
     7
100
AcDbVertex
100
AcDb2dVertex
 10
143.1353713538012
 20
144.2259170490839
 30
0.0
  0
SEQEND
  5
AC
330
A9
100
AcDbEntity
  8
0
  0
SPLINE
  5
AD
330
1F
100
AcDbEntity
  8
0
 62
     7
100
AcDbSpline
210
0.0
220
0.0
230
1.0
 70
     8
 71
     3
 72
     8
 73
     4
 74
     0
 42
0.0000000001
 43
0.0000000001
 40
0.0
 40
0.0
 40
0.0
 40
0.0
 40
1.0
 40
1.0
 40
1.0
 40
1.0
 10
146.9735547659463
 20
145.025179728931
 30
0.0
 10
146.1822158109425
 20
145.0348260026533
 30
0.0
 10
145.4218827357603
 20
145.3193910774609
 30
0.0
 10
144.8413837635438
 20
145.8237533892266
 30
0.0
  0
SPLINE
  5
AE
330
1F
100
AcDbEntity
  8
0
 62
     7
100
AcDbSpline
210
0.0
220
0.0
230
1.0
 70
     8
 71
     3
 72
     8
 73
     4
 74
     0
 42
0.0000000001
 43
0.0000000001
 40
0.0
 40
0.0
 40
0.0
 40
0.0
 40
1.0
 40
1.0
 40
1.0
 40
1.0
 10
146.9735547659463
 20
142.4279205292037
 30
0.0
 10
146.1822158109425
 20
142.437566802926
 30
0.0
 10
145.4218827357603
 20
142.7228208972852
 30
0.0
 10
144.8413837635438
 20
143.226838699275
 30
0.0
  0
POLYLINE
  5
AF
330
1F
100
AcDbEntity
  8
0
 62
     7
100
AcDb2dPolyline
 66
     1
 10
0.0
 20
0.0
 30
0.0
  0
VERTEX
  5
B0
330
AF
100
AcDbEntity
  8
0
 62
     7
100
AcDbVertex
100
AcDb2dVertex
 10
144.8413837635438
 20
143.226838699275
 30
0.0
  0
VERTEX
  5
B1
330
AF
100
AcDbEntity
  8
0
 62
     7
100
AcDbVertex
100
AcDb2dVertex
 10
143.1353713538012
 20
143.226838699275
 30
0.0
  0
SEQEND
  5
B2
330
AF
100
AcDbEntity
  8
0
  0
POLYLINE
  5
B3
330
1F
100
AcDbEntity
  8
0
 62
     7
100
AcDb2dPolyline
 66
     1
 10
0.0
 20
0.0
 30
0.0
  0
VERTEX
  5
B4
330
B3
100
AcDbEntity
  8
0
 62
     7
100
AcDbVertex
100
AcDb2dVertex
 10
146.0268419020584
 20
139.8310058392522
 30
0.0
  0
VERTEX
  5
B5
330
B3
100
AcDbEntity
  8
0
 62
     7
100
AcDbVertex
100
AcDb2dVertex
 10
146.0268419020584
 20
139.0269200225439
 30
0.0
  0
SEQEND
  5
B6
330
B3
100
AcDbEntity
  8
0
  0
SPLINE
  5
B7
330
1F
100
AcDbEntity
  8
0
 62
     7
100
AcDbSpline
210
0.0
220
0.0
230
1.0
 70
     8
 71
     3
 72
     8
 73
     4
 74
     0
 42
0.0000000001
 43
0.0000000001
 40
0.0
 40
0.0
 40
0.0
 40
0.0
 40
1.0
 40
1.0
 40
1.0
 40
1.0
 10
146.9735547659463
 20
139.8310058392522
 30
0.0
 10
146.1822158109425
 20
139.8409966227503
 30
0.0
 10
145.4218827357603
 20
140.1259062073337
 30
0.0
 10
144.8413837635438
 20
140.6302685190993
 30
0.0
  0
POLYLINE
  5
B8
330
1F
100
AcDbEntity
  8
0
 62
     7
100
AcDb2dPolyline
 66
     1
 10
0.0
 20
0.0
 30
0.0
  0
VERTEX
  5
B9
330
B8
100
AcDbEntity
  8
0
 62
     7
100
AcDbVertex
100
AcDb2dVertex
 10
146.9735547659463
 20
139.0320876691809
 30
0.0
  0
VERTEX
  5
BA
330
B8
100
AcDbEntity
  8
0
 62
     7
100
AcDbVertex
100
AcDb2dVertex
 10
143.1353713538012
 20
139.0320876691809
 30
0.0
  0
SEQEND
  5
BB
330
B8
100
AcDbEntity
  8
0
  0
POLYLINE
  5
BC
330
1F
100
AcDbEntity
  8
0
 62
     7
100
AcDb2dPolyline
 66
     1
 10
0.0
 20
0.0
 30
0.0
  0
VERTEX
  5
BD
330
BC
100
AcDbEntity
  8
0
 62
     7
100
AcDbVertex
100
AcDb2dVertex
 10
144.8413837635438
 20
140.6302685190993
 30
0.0
  0
VERTEX
  5
BE
330
BC
100
AcDbEntity
  8
0
 62
     7
100
AcDbVertex
100
AcDb2dVertex
 10
143.1353713538012
 20
140.6302685190993
 30
0.0
  0
SEQEND
  5
BF
330
BC
100
AcDbEntity
  8
0
  0
POLYLINE
  5
C0
330
1F
100
AcDbEntity
  8
0
 62
     7
100
AcDb2dPolyline
 66
     1
 10
0.0
 20
0.0
 30
0.0
  0
VERTEX
  5
C1
330
C0
100
AcDbEntity
  8
0
 62
     7
100
AcDbVertex
100
AcDb2dVertex
 10
146.0268419020584
 20
142.4279205292037
 30
0.0
  0
VERTEX
  5
C2
330
C0
100
AcDbEntity
  8
0
 62
     7
100
AcDbVertex
100
AcDb2dVertex
 10
146.0268419020584
 20
141.6238347124955
 30
0.0
  0
SEQEND
  5
C3
330
C0
100
AcDbEntity
  8
0
  0
POLYLINE
  5
C4
330
1F
100
AcDbEntity
  8
0
 62
     7
100
AcDb2dPolyline
 66
     1
 10
0.0
 20
0.0
 30
0.0
  0
VERTEX
  5
C5
330
C4
100
AcDbEntity
  8
0
 62
     7
100
AcDbVertex
100
AcDb2dVertex
 10
146.9735547659463
 20
141.6290023591324
 30
0.0
  0
VERTEX
  5
C6
330
C4
100
AcDbEntity
  8
0
 62
     7
100
AcDbVertex
100
AcDb2dVertex
 10
143.1353713538012
 20
141.6290023591324
 30
0.0
  0
SEQEND
  5
C7
330
C4
100
AcDbEntity
  8
0
  0
SPLINE
  5
C8
330
1F
100
AcDbEntity
  8
0
 62
     7
100
AcDbSpline
210
0.0
220
0.0
230
1.0
 70
    11
 71
     3
 72
    68
 73
    64
 74
     0
 42
0.0000000001
 43
0.0000000001
 40
0.0
 40
0.0
 40
0.0
 40
0.0
 40
1.0
 40
1.0
 40
1.0
 40
2.0
 40
2.0
 40
2.0
 40
3.0
 40
3.0
 40
3.0
 40
4.0
 40
4.0
 40
4.0
 40
5.0
 40
5.0
 40
5.0
 40
6.0
 40
6.0
 40
6.0
 40
7.0
 40
7.0
 40
7.0
 40
8.0
 40
8.0
 40
8.0
 40
9.0
 40
9.0
 40
9.0
 40
10.0
 40
10.0
 40
10.0
 40
11.0
 40
11.0
 40
11.0
 40
12.0
 40
12.0
 40
12.0
 40
13.0
 40
13.0
 40
13.0
 40
14.0
 40
14.0
 40
14.0
 40
15.0
 40
15.0
 40
15.0
 40
16.0
 40
16.0
 40
16.0
 40
17.0
 40
17.0
 40
17.0
 40
18.0
 40
18.0
 40
18.0
 40
19.0
 40
19.0
 40
19.0
 40
20.0
 40
20.0
 40
20.0
 40
21.0
 40
21.0
 40
21.0
 40
21.0
 10
90.20213332227139
 20
142.4279205292037
 30
0.0
 10
90.20213332227139
 20
146.3997737343578
 30
0.0
 10
86.98234495768041
 20
149.6197343538366
 30
0.0
 10
83.01049175252638
 20
149.6197343538366
 30
0.0
 10
83.01049175252638
 20
149.6197343538366
 30
0.0
 10
83.01049175252638
 20
149.6197343538366
 30
0.0
 10
83.01049175252638
 20
149.6197343538366
 30
0.0
 10
83.01049175252638
 20
149.6197343538366
 30
0.0
 10
83.01049175252638
 20
149.6197343538366
 30
0.0
 10
83.01049175252638
 20
149.6197343538366
 30
0.0
 10
83.01049175252638
 20
149.6197343538366
 30
0.0
 10
83.01049175252638
 20
149.6197343538366
 30
0.0
 10
83.01049175252638
 20
149.6197343538366
 30
0.0
 10
79.03846629248444
 20
149.6197343538366
 30
0.0
 10
75.81850567300555
 20
146.3997737343578
 30
0.0
 10
75.81850567300555
 20
142.4279205292037
 30
0.0
 10
75.81850567300555
 20
142.4279205292037
 30
0.0
 10
75.81850567300555
 20
142.4279205292037
 30
0.0
 10
75.81850567300555
 20
142.4279205292037
 30
0.0
 10
75.81850567300555
 20
142.4279205292037
 30
0.0
 10
75.81850567300555
 20
142.4279205292037
 30
0.0
 10
75.81850567300555
 20
142.4279205292037
 30
0.0
 10
75.81850567300555
 20
142.4279205292037
 30
0.0
 10
75.81850567300555
 20
142.4279205292037
 30
0.0
 10
75.81850567300555
 20
142.4279205292037
 30
0.0
 10
75.81850567300555
 20
138.4564118338255
 30
0.0
 10
79.03846629248444
 20
135.2362789594587
 30
0.0
 10
83.01049175252638
 20
135.2362789594587
 30
0.0
 10
83.01049175252638
 20
135.2362789594587
 30
0.0
 10
83.01049175252638
 20
135.2362789594587
 30
0.0
 10
83.01049175252638
 20
135.2362789594587
 30
0.0
 10
83.01049175252638
 20
135.2362789594587
 30
0.0
 10
83.01049175252638
 20
135.2362789594587
 30
0.0
 10
83.01049175252638
 20
135.2362789594587
 30
0.0
 10
83.01049175252638
 20
135.2362789594587
 30
0.0
 10
83.01049175252638
 20
135.2362789594587
 30
0.0
 10
83.01049175252638
 20
135.2362789594587
 30
0.0
 10
86.98234495768041
 20
135.2362789594587
 30
0.0
 10
90.20213332227139
 20
138.4564118338255
 30
0.0
 10
90.20213332227139
 20
142.4279205292037
 30
0.0
 10
90.20213332227139
 20
142.4279205292037
 30
0.0
 10
90.20213332227139
 20
142.4279205292037
 30
0.0
 10
90.20213332227139
 20
142.4279205292037
 30
0.0
 10
90.20213332227139
 20
142.4279205292037
 30
0.0
 10
90.20213332227139
 20
142.4279205292037
 30
0.0
 10
90.20213332227139
 20
142.4279205292037
 30
0.0
 10
90.20213332227139
 20
142.4279205292037
 30
0.0
 10
90.20213332227139
 20
142.4279205292037
 30
0.0
 10
90.20213332227139
 20
142.4279205292037
 30
0.0
 10
90.20213332227139
 20
142.4279205292037
 30
0.0
 10
90.20213332227139
 20
142.4279205292037
 30
0.0
 10
90.20213332227139
 20
142.4279205292037
 30
0.0
 10
90.20213332227139
 20
142.4279205292037
 30
0.0
 10
90.20213332227139
 20
142.4279205292037
 30
0.0
 10
90.20213332227139
 20
142.4279205292037
 30
0.0
 10
90.20213332227139
 20
142.4279205292037
 30
0.0
 10
90.20213332227139
 20
142.4279205292037
 30
0.0
 10
90.20213332227139
 20
142.4279205292037
 30
0.0
 10
90.20213332227139
 20
142.4279205292037
 30
0.0
 10
90.20213332227139
 20
142.4279205292037
 30
0.0
 10
90.20213332227139
 20
142.4279205292037
 30
0.0
 10
90.20213332227139
 20
142.4279205292037
 30
0.0
 10
90.20213332227139
 20
142.4279205292037
 30
0.0
 10
90.20213332227139
 20
142.4279205292037
 30
0.0
  0
SPLINE
  5
C9
330
1F
100
AcDbEntity
  8
0
 62
     7
100
AcDbSpline
210
0.0
220
0.0
230
1.0
 70
     8
 71
     3
 72
     8
 73
     4
 74
     0
 42
0.0000000001
 43
0.0000000001
 40
0.0
 40
0.0
 40
0.0
 40
0.0
 40
1.0
 40
1.0
 40
1.0
 40
1.0
 10
81.41282766727164
 20
151.1224859958595
 30
0.0
 10
76.70613511034438
 20
150.2577664586111
 30
0.0
 10
73.54164056476867
 20
145.8034273124546
 30
0.0
 10
74.27510187743872
 20
141.0743416201006
 30
0.0
  0
SPLINE
  5
CA
330
1F
100
AcDbEntity
  8
0
 62
     7
100
AcDbSpline
210
0.0
220
0.0
230
1.0
 70
     8
 71
     3
 72
     8
 73
     4
 74
     0
 42
0.0000000001
 43
0.0000000001
 40
0.0
 40
0.0
 40
0.0
 40
0.0
 40
1.0
 40
1.0
 40
1.0
 40
1.0
 10
74.76688958238775
 20
139.236381966228
 30
0.0
 10
75.18925856751385
 20
138.1453195062815
 30
0.0
 10
75.8236733196425
 20
137.1496862542306
 30
0.0
 10
76.63361580253928
 20
136.3059818133058
 30
0.0
  0
SPLINE
  5
CB
330
1F
100
AcDbEntity
  8
0
 62
     7
100
AcDbSpline
210
0.0
220
0.0
230
1.0
 70
     8
 71
     3
 72
     8
 73
     4
 74
     0
 42
0.0000000001
 43
0.0000000001
 40
0.0
 40
0.0
 40
0.0
 40
0.0
 40
1.0
 40
1.0
 40
1.0
 40
1.0
 10
78.09003087971759
 20
135.0846946581084
 30
0.0
 10
80.83749634169205
 20
133.2432899064779
 30
0.0
 10
84.38319095418621
 20
133.0903275660244
 30
0.0
 10
87.2793123844167
 20
134.6874748866154
 30
0.0
  0
SPLINE
  5
CC
330
1F
100
AcDbEntity
  8
0
 62
     7
100
AcDbSpline
210
0.0
220
0.0
230
1.0
 70
     8
 71
     3
 72
     8
 73
     4
 74
     0
 42
0.0000000001
 43
0.0000000001
 40
0.0
 40
0.0
 40
0.0
 40
0.0
 40
1.0
 40
1.0
 40
1.0
 40
1.0
 10
88.83322372814533
 20
135.7771593074587
 30
0.0
 10
90.30462498057077
 20
137.0652813591606
 30
0.0
 10
91.30732068302551
 20
138.8057447464828
 30
0.0
 10
91.68438663263441
 20
140.7246641976675
 30
0.0
  0
SPLINE
  5
CD
330
1F
100
AcDbEntity
  8
0
 62
     7
100
AcDbSpline
210
0.0
220
0.0
230
1.0
 70
     8
 71
     3
 72
     8
 73
     4
 74
     0
 42
0.0000000001
 43
0.0000000001
 40
0.0
 40
0.0
 40
0.0
 40
0.0
 40
1.0
 40
1.0
 40
1.0
 40
1.0
 10
91.8483732859134
 20
142.6080991419451
 30
0.0
 10
91.76293486151594
 20
146.8056062502456
 30
0.0
 10
88.73693324581029
 20
150.3640477244443
 30
0.0
 10
84.60746681822951
 20
151.1224859958595
 30
0.0
  0
SPLINE
  5
CE
330
1F
100
AcDbEntity
  8
0
 62
     7
100
AcDbSpline
210
0.0
220
0.0
230
1.0
 70
    11
 71
     3
 72
    68
 73
    64
 74
     0
 42
0.0000000001
 43
0.0000000001
 40
0.0
 40
0.0
 40
0.0
 40
0.0
 40
1.0
 40
1.0
 40
1.0
 40
2.0
 40
2.0
 40
2.0
 40
3.0
 40
3.0
 40
3.0
 40
4.0
 40
4.0
 40
4.0
 40
5.0
 40
5.0
 40
5.0
 40
6.0
 40
6.0
 40
6.0
 40
7.0
 40
7.0
 40
7.0
 40
8.0
 40
8.0
 40
8.0
 40
9.0
 40
9.0
 40
9.0
 40
10.0
 40
10.0
 40
10.0
 40
11.0
 40
11.0
 40
11.0
 40
12.0
 40
12.0
 40
12.0
 40
13.0
 40
13.0
 40
13.0
 40
14.0
 40
14.0
 40
14.0
 40
15.0
 40
15.0
 40
15.0
 40
16.0
 40
16.0
 40
16.0
 40
17.0
 40
17.0
 40
17.0
 40
18.0
 40
18.0
 40
18.0
 40
19.0
 40
19.0
 40
19.0
 40
20.0
 40
20.0
 40
20.0
 40
21.0
 40
21.0
 40
21.0
 40
21.0
 10
92.59923234226115
 20
142.4279205292037
 30
0.0
 10
92.59923234226115
 20
147.7237248027424
 30
0.0
 10
88.30612377117718
 20
152.0170056287143
 30
0.0
 10
83.01014724275058
 20
152.0170056287143
 30
0.0
 10
83.01014724275058
 20
152.0170056287143
 30
0.0
 10
83.01014724275058
 20
152.0170056287143
 30
0.0
 10
83.01014724275058
 20
152.0170056287143
 30
0.0
 10
83.01014724275058
 20
152.0170056287143
 30
0.0
 10
83.01014724275058
 20
152.0170056287143
 30
0.0
 10
83.01014724275058
 20
152.0170056287143
 30
0.0
 10
83.01014724275058
 20
152.0170056287143
 30
0.0
 10
83.01014724275058
 20
152.0170056287143
 30
0.0
 10
83.01014724275058
 20
152.0170056287143
 30
0.0
 10
77.71434296921187
 20
152.0170056287143
 30
0.0
 10
73.42123439812791
 20
147.7237248027424
 30
0.0
 10
73.42123439812791
 20
142.4279205292037
 30
0.0
 10
73.42123439812791
 20
142.4279205292037
 30
0.0
 10
73.42123439812791
 20
142.4279205292037
 30
0.0
 10
73.42123439812791
 20
142.4279205292037
 30
0.0
 10
73.42123439812791
 20
142.4279205292037
 30
0.0
 10
73.42123439812791
 20
142.4279205292037
 30
0.0
 10
73.42123439812791
 20
142.4279205292037
 30
0.0
 10
73.42123439812791
 20
142.4279205292037
 30
0.0
 10
73.42123439812791
 20
142.4279205292037
 30
0.0
 10
73.42123439812791
 20
142.4279205292037
 30
0.0
 10
73.42123439812791
 20
137.132116255665
 30
0.0
 10
77.71434296921187
 20
132.8391799394689
 30
0.0
 10
83.01014724275058
 20
132.8391799394689
 30
0.0
 10
83.01014724275058
 20
132.8391799394689
 30
0.0
 10
83.01014724275058
 20
132.8391799394689
 30
0.0
 10
83.01014724275058
 20
132.8391799394689
 30
0.0
 10
83.01014724275058
 20
132.8391799394689
 30
0.0
 10
83.01014724275058
 20
132.8391799394689
 30
0.0
 10
83.01014724275058
 20
132.8391799394689
 30
0.0
 10
83.01014724275058
 20
132.8391799394689
 30
0.0
 10
83.01014724275058
 20
132.8391799394689
 30
0.0
 10
83.01014724275058
 20
132.8391799394689
 30
0.0
 10
88.30612377117718
 20
132.8391799394689
 30
0.0
 10
92.59923234226115
 20
137.132116255665
 30
0.0
 10
92.59923234226115
 20
142.4279205292037
 30
0.0
 10
92.59923234226115
 20
142.4279205292037
 30
0.0
 10
92.59923234226115
 20
142.4279205292037
 30
0.0
 10
92.59923234226115
 20
142.4279205292037
 30
0.0
 10
92.59923234226115
 20
142.4279205292037
 30
0.0
 10
92.59923234226115
 20
142.4279205292037
 30
0.0
 10
92.59923234226115
 20
142.4279205292037
 30
0.0
 10
92.59923234226115
 20
142.4279205292037
 30
0.0
 10
92.59923234226115
 20
142.4279205292037
 30
0.0
 10
92.59923234226115
 20
142.4279205292037
 30
0.0
 10
92.59923234226115
 20
142.4279205292037
 30
0.0
 10
92.59923234226115
 20
142.4279205292037
 30
0.0
 10
92.59923234226115
 20
142.4279205292037
 30
0.0
 10
92.59923234226115
 20
142.4279205292037
 30
0.0
 10
92.59923234226115
 20
142.4279205292037
 30
0.0
 10
92.59923234226115
 20
142.4279205292037
 30
0.0
 10
92.59923234226115
 20
142.4279205292037
 30
0.0
 10
92.59923234226115
 20
142.4279205292037
 30
0.0
 10
92.59923234226115
 20
142.4279205292037
 30
0.0
 10
92.59923234226115
 20
142.4279205292037
 30
0.0
 10
92.59923234226115
 20
142.4279205292037
 30
0.0
 10
92.59923234226115
 20
142.4279205292037
 30
0.0
 10
92.59923234226115
 20
142.4279205292037
 30
0.0
 10
92.59923234226115
 20
142.4279205292037
 30
0.0
 10
92.59923234226115
 20
142.4279205292037
 30
0.0
  0
SPLINE
  5
CF
330
1F
100
AcDbEntity
  8
0
 62
     7
100
AcDbSpline
210
0.0
220
0.0
230
1.0
 70
    11
 71
     3
 72
    68
 73
    64
 74
     0
 42
0.0000000001
 43
0.0000000001
 40
0.0
 40
0.0
 40
0.0
 40
0.0
 40
1.0
 40
1.0
 40
1.0
 40
2.0
 40
2.0
 40
2.0
 40
3.0
 40
3.0
 40
3.0
 40
4.0
 40
4.0
 40
4.0
 40
5.0
 40
5.0
 40
5.0
 40
6.0
 40
6.0
 40
6.0
 40
7.0
 40
7.0
 40
7.0
 40
8.0
 40
8.0
 40
8.0
 40
9.0
 40
9.0
 40
9.0
 40
10.0
 40
10.0
 40
10.0
 40
11.0
 40
11.0
 40
11.0
 40
12.0
 40
12.0
 40
12.0
 40
13.0
 40
13.0
 40
13.0
 40
14.0
 40
14.0
 40
14.0
 40
15.0
 40
15.0
 40
15.0
 40
16.0
 40
16.0
 40
16.0
 40
17.0
 40
17.0
 40
17.0
 40
18.0
 40
18.0
 40
18.0
 40
19.0
 40
19.0
 40
19.0
 40
20.0
 40
20.0
 40
20.0
 40
21.0
 40
21.0
 40
21.0
 40
21.0
 10
92.84900192971337
 20
142.4279205292037
 30
0.0
 10
92.84900192971337
 20
147.8618732228367
 30
0.0
 10
88.44409993638355
 20
152.2667752161665
 30
0.0
 10
83.01049175252638
 20
152.2667752161665
 30
0.0
 10
83.01049175252638
 20
152.2667752161665
 30
0.0
 10
83.01049175252638
 20
152.2667752161665
 30
0.0
 10
83.01049175252638
 20
152.2667752161665
 30
0.0
 10
83.01049175252638
 20
152.2667752161665
 30
0.0
 10
83.01049175252638
 20
152.2667752161665
 30
0.0
 10
83.01049175252638
 20
152.2667752161665
 30
0.0
 10
83.01049175252638
 20
152.2667752161665
 30
0.0
 10
83.01049175252638
 20
152.2667752161665
 30
0.0
 10
83.01049175252638
 20
152.2667752161665
 30
0.0
 10
77.5767113137813
 20
152.2667752161665
 30
0.0
 10
73.17180932045149
 20
147.8618732228367
 30
0.0
 10
73.17180932045149
 20
142.4279205292037
 30
0.0
 10
73.17180932045149
 20
142.4279205292037
 30
0.0
 10
73.17180932045149
 20
142.4279205292037
 30
0.0
 10
73.17180932045149
 20
142.4279205292037
 30
0.0
 10
73.17180932045149
 20
142.4279205292037
 30
0.0
 10
73.17180932045149
 20
142.4279205292037
 30
0.0
 10
73.17180932045149
 20
142.4279205292037
 30
0.0
 10
73.17180932045149
 20
142.4279205292037
 30
0.0
 10
73.17180932045149
 20
142.4279205292037
 30
0.0
 10
73.17180932045149
 20
142.4279205292037
 30
0.0
 10
73.17180932045149
 20
136.9943123453465
 30
0.0
 10
77.5767113137813
 20
132.5894103520167
 30
0.0
 10
83.01049175252638
 20
132.5894103520167
 30
0.0
 10
83.01049175252638
 20
132.5894103520167
 30
0.0
 10
83.01049175252638
 20
132.5894103520167
 30
0.0
 10
83.01049175252638
 20
132.5894103520167
 30
0.0
 10
83.01049175252638
 20
132.5894103520167
 30
0.0
 10
83.01049175252638
 20
132.5894103520167
 30
0.0
 10
83.01049175252638
 20
132.5894103520167
 30
0.0
 10
83.01049175252638
 20
132.5894103520167
 30
0.0
 10
83.01049175252638
 20
132.5894103520167
 30
0.0
 10
83.01049175252638
 20
132.5894103520167
 30
0.0
 10
88.44409993638355
 20
132.5894103520167
 30
0.0
 10
92.84900192971337
 20
136.9943123453465
 30
0.0
 10
92.84900192971337
 20
142.4279205292037
 30
0.0
 10
92.84900192971337
 20
142.4279205292037
 30
0.0
 10
92.84900192971337
 20
142.4279205292037
 30
0.0
 10
92.84900192971337
 20
142.4279205292037
 30
0.0
 10
92.84900192971337
 20
142.4279205292037
 30
0.0
 10
92.84900192971337
 20
142.4279205292037
 30
0.0
 10
92.84900192971337
 20
142.4279205292037
 30
0.0
 10
92.84900192971337
 20
142.4279205292037
 30
0.0
 10
92.84900192971337
 20
142.4279205292037
 30
0.0
 10
92.84900192971337
 20
142.4279205292037
 30
0.0
 10
92.84900192971337
 20
142.4279205292037
 30
0.0
 10
92.84900192971337
 20
142.4279205292037
 30
0.0
 10
92.84900192971337
 20
142.4279205292037
 30
0.0
 10
92.84900192971337
 20
142.4279205292037
 30
0.0
 10
92.84900192971337
 20
142.4279205292037
 30
0.0
 10
92.84900192971337
 20
142.4279205292037
 30
0.0
 10
92.84900192971337
 20
142.4279205292037
 30
0.0
 10
92.84900192971337
 20
142.4279205292037
 30
0.0
 10
92.84900192971337
 20
142.4279205292037
 30
0.0
 10
92.84900192971337
 20
142.4279205292037
 30
0.0
 10
92.84900192971337
 20
142.4279205292037
 30
0.0
 10
92.84900192971337
 20
142.4279205292037
 30
0.0
 10
92.84900192971337
 20
142.4279205292037
 30
0.0
 10
92.84900192971337
 20
142.4279205292037
 30
0.0
 10
92.84900192971337
 20
142.4279205292037
 30
0.0
  0
SPLINE
  5
D0
330
1F
100
AcDbEntity
  8
0
 62
     7
100
AcDbSpline
210
0.0
220
0.0
230
1.0
 70
     8
 71
     3
 72
    32
 73
    28
 74
     0
 42
0.0000000001
 43
0.0000000001
 40
0.0
 40
0.0
 40
0.0
 40
0.0
 40
1.0
 40
1.0
 40
1.0
 40
2.0
 40
2.0
 40
2.0
 40
3.0
 40
3.0
 40
3.0
 40
4.0
 40
4.0
 40
4.0
 40
5.0
 40
5.0
 40
5.0
 40
6.0
 40
6.0
 40
6.0
 40
7.0
 40
7.0
 40
7.0
 40
8.0
 40
8.0
 40
8.0
 40
9.0
 40
9.0
 40
9.0
 40
9.0
 10
84.04453784457857
 20
131.8407906092117
 30
0.0
 10
89.89173001427905
 20
132.4123323272575
 30
0.0
 10
94.16899113567638
 20
137.6147744515554
 30
0.0
 10
93.59779392740634
 20
143.4621388761438
 30
0.0
 10
93.59779392740634
 20
143.4621388761438
 30
0.0
 10
93.59779392740634
 20
143.4621388761438
 30
0.0
 10
93.59779392740634
 20
143.4621388761438
 30
0.0
 10
93.59779392740634
 20
143.4621388761438
 30
0.0
 10
93.59779392740634
 20
143.4621388761438
 30
0.0
 10
93.59779392740634
 20
143.4621388761438
 30
0.0
 10
93.59779392740634
 20
143.4621388761438
 30
0.0
 10
93.59779392740634
 20
143.4621388761438
 30
0.0
 10
93.59779392740634
 20
143.4621388761438
 30
0.0
 10
93.59779392740634
 20
143.4621388761438
 30
0.0
 10
93.59779392740634
 20
143.4621388761438
 30
0.0
 10
93.59779392740634
 20
143.4621388761438
 30
0.0
 10
93.59779392740634
 20
143.4621388761438
 30
0.0
 10
93.59779392740634
 20
143.4621388761438
 30
0.0
 10
93.59779392740634
 20
143.4621388761438
 30
0.0
 10
93.59779392740634
 20
143.4621388761438
 30
0.0
 10
93.59779392740634
 20
143.4621388761438
 30
0.0
 10
93.59779392740634
 20
143.4621388761438
 30
0.0
 10
93.59779392740634
 20
143.4621388761438
 30
0.0
 10
93.59779392740634
 20
143.4621388761438
 30
0.0
 10
93.59779392740634
 20
143.4621388761438
 30
0.0
 10
93.4842779562815
 20
144.6207252521463
 30
0.0
 10
93.18214288290827
 20
145.7531288851883
 30
0.0
 10
92.70241302011209
 20
146.813529975089
 30
0.0
  0
SPLINE
  5
D1
330
1F
100
AcDbEntity
  8
0
 62
     7
100
AcDbSpline
210
0.0
220
0.0
230
1.0
 70
     8
 71
     3
 72
    32
 73
    28
 74
     0
 42
0.0000000001
 43
0.0000000001
 40
0.0
 40
0.0
 40
0.0
 40
0.0
 40
1.0
 40
1.0
 40
1.0
 40
2.0
 40
2.0
 40
2.0
 40
3.0
 40
3.0
 40
3.0
 40
4.0
 40
4.0
 40
4.0
 40
5.0
 40
5.0
 40
5.0
 40
6.0
 40
6.0
 40
6.0
 40
7.0
 40
7.0
 40
7.0
 40
8.0
 40
8.0
 40
8.0
 40
9.0
 40
9.0
 40
9.0
 40
9.0
 10
91.65355300770065
 20
148.6290964935347
 30
0.0
 10
88.22895358139884
 20
153.4027962018544
 30
0.0
 10
81.58336000629075
 20
154.4964424851193
 30
0.0
 10
76.80931578819534
 20
151.0718430588175
 30
0.0
 10
76.80931578819534
 20
151.0718430588175
 30
0.0
 10
76.80931578819534
 20
151.0718430588175
 30
0.0
 10
76.80931578819534
 20
151.0718430588175
 30
0.0
 10
76.80931578819534
 20
151.0718430588175
 30
0.0
 10
76.80931578819534
 20
151.0718430588175
 30
0.0
 10
76.80931578819534
 20
151.0718430588175
 30
0.0
 10
76.80931578819534
 20
151.0718430588175
 30
0.0
 10
76.80931578819534
 20
151.0718430588175
 30
0.0
 10
76.80931578819534
 20
151.0718430588175
 30
0.0
 10
76.80931578819534
 20
151.0718430588175
 30
0.0
 10
76.80931578819534
 20
151.0718430588175
 30
0.0
 10
76.80931578819534
 20
151.0718430588175
 30
0.0
 10
76.80931578819534
 20
151.0718430588175
 30
0.0
 10
76.80931578819534
 20
151.0718430588175
 30
0.0
 10
76.80931578819534
 20
151.0718430588175
 30
0.0
 10
76.80931578819534
 20
151.0718430588175
 30
0.0
 10
76.80931578819534
 20
151.0718430588175
 30
0.0
 10
76.80931578819534
 20
151.0718430588175
 30
0.0
 10
76.80931578819534
 20
151.0718430588175
 30
0.0
 10
76.80931578819534
 20
151.0718430588175
 30
0.0
 10
76.80931578819534
 20
151.0718430588175
 30
0.0
 10
75.86380870852275
 20
150.3933310553869
 30
0.0
 10
75.03560720750876
 20
149.5639237701577
 30
0.0
 10
74.35830098829349
 20
148.6173831611577
 30
0.0
  0
SPLINE
  5
D2
330
1F
100
AcDbEntity
  8
0
 62
     7
100
AcDbSpline
210
0.0
220
0.0
230
1.0
 70
     8
 71
     3
 72
    32
 73
    28
 74
     0
 42
0.0000000001
 43
0.0000000001
 40
0.0
 40
0.0
 40
0.0
 40
0.0
 40
1.0
 40
1.0
 40
1.0
 40
2.0
 40
2.0
 40
2.0
 40
3.0
 40
3.0
 40
3.0
 40
4.0
 40
4.0
 40
4.0
 40
5.0
 40
5.0
 40
5.0
 40
6.0
 40
6.0
 40
6.0
 40
7.0
 40
7.0
 40
7.0
 40
8.0
 40
8.0
 40
8.0
 40
9.0
 40
9.0
 40
9.0
 40
9.0
 10
73.3328676406362
 20
146.8452248744622
 30
0.0
 10
70.89339391822352
 20
141.5008447225362
 30
0.0
 10
73.24863500045403
 20
135.1904591592778
 30
0.0
 10
78.59318740726789
 20
132.7506409270893
 30
0.0
 10
78.59318740726789
 20
132.7506409270893
 30
0.0
 10
78.59318740726789
 20
132.7506409270893
 30
0.0
 10
78.59318740726789
 20
132.7506409270893
 30
0.0
 10
78.59318740726789
 20
132.7506409270893
 30
0.0
 10
78.59318740726789
 20
132.7506409270893
 30
0.0
 10
78.59318740726789
 20
132.7506409270893
 30
0.0
 10
78.59318740726789
 20
132.7506409270893
 30
0.0
 10
78.59318740726789
 20
132.7506409270893
 30
0.0
 10
78.59318740726789
 20
132.7506409270893
 30
0.0
 10
78.59318740726789
 20
132.7506409270893
 30
0.0
 10
78.59318740726789
 20
132.7506409270893
 30
0.0
 10
78.59318740726789
 20
132.7506409270893
 30
0.0
 10
78.59318740726789
 20
132.7506409270893
 30
0.0
 10
78.59318740726789
 20
132.7506409270893
 30
0.0
 10
78.59318740726789
 20
132.7506409270893
 30
0.0
 10
78.59318740726789
 20
132.7506409270893
 30
0.0
 10
78.59318740726789
 20
132.7506409270893
 30
0.0
 10
78.59318740726789
 20
132.7506409270893
 30
0.0
 10
78.59318740726789
 20
132.7506409270893
 30
0.0
 10
78.59318740726789
 20
132.7506409270893
 30
0.0
 10
78.59318740726789
 20
132.7506409270893
 30
0.0
 10
79.66461280999398
 20
132.2621260650104
 30
0.0
 10
80.80993555962834
 20
131.9537898156728
 30
0.0
 10
81.98264683643851
 20
131.8404460994359
 30
0.0
  0
SPLINE
  5
D3
330
1F
100
AcDbEntity
  8
0
 62
     7
100
AcDbSpline
210
0.0
220
0.0
230
1.0
 70
    11
 71
     3
 72
    68
 73
    64
 74
     0
 42
0.0000000001
 43
0.0000000001
 40
0.0
 40
0.0
 40
0.0
 40
0.0
 40
1.0
 40
1.0
 40
1.0
 40
2.0
 40
2.0
 40
2.0
 40
3.0
 40
3.0
 40
3.0
 40
4.0
 40
4.0
 40
4.0
 40
5.0
 40
5.0
 40
5.0
 40
6.0
 40
6.0
 40
6.0
 40
7.0
 40
7.0
 40
7.0
 40
8.0
 40
8.0
 40
8.0
 40
9.0
 40
9.0
 40
9.0
 40
10.0
 40
10.0
 40
10.0
 40
11.0
 40
11.0
 40
11.0
 40
12.0
 40
12.0
 40
12.0
 40
13.0
 40
13.0
 40
13.0
 40
14.0
 40
14.0
 40
14.0
 40
15.0
 40
15.0
 40
15.0
 40
16.0
 40
16.0
 40
16.0
 40
17.0
 40
17.0
 40
17.0
 40
18.0
 40
18.0
 40
18.0
 40
19.0
 40
19.0
 40
19.0
 40
20.0
 40
20.0
 40
20.0
 40
21.0
 40
21.0
 40
21.0
 40
21.0
 10
94.39740111702925
 20
142.4279205292037
 30
0.0
 10
94.39740111702925
 20
148.7169464863628
 30
0.0
 10
89.29917319990965
 20
153.8151744034824
 30
0.0
 10
83.01049175252638
 20
153.8151744034824
 30
0.0
 10
83.01049175252638
 20
153.8151744034824
 30
0.0
 10
83.01049175252638
 20
153.8151744034824
 30
0.0
 10
83.01049175252638
 20
153.8151744034824
 30
0.0
 10
83.01049175252638
 20
153.8151744034824
 30
0.0
 10
83.01049175252638
 20
153.8151744034824
 30
0.0
 10
83.01049175252638
 20
153.8151744034824
 30
0.0
 10
83.01049175252638
 20
153.8151744034824
 30
0.0
 10
83.01049175252638
 20
153.8151744034824
 30
0.0
 10
83.01049175252638
 20
153.8151744034824
 30
0.0
 10
76.72181030514311
 20
153.8151744034824
 30
0.0
 10
71.62358238802351
 20
148.7169464863628
 30
0.0
 10
71.62358238802351
 20
142.4279205292037
 30
0.0
 10
71.62358238802351
 20
142.4279205292037
 30
0.0
 10
71.62358238802351
 20
142.4279205292037
 30
0.0
 10
71.62358238802351
 20
142.4279205292037
 30
0.0
 10
71.62358238802351
 20
142.4279205292037
 30
0.0
 10
71.62358238802351
 20
142.4279205292037
 30
0.0
 10
71.62358238802351
 20
142.4279205292037
 30
0.0
 10
71.62358238802351
 20
142.4279205292037
 30
0.0
 10
71.62358238802351
 20
142.4279205292037
 30
0.0
 10
71.62358238802351
 20
142.4279205292037
 30
0.0
 10
71.62358238802351
 20
136.1395835915962
 30
0.0
 10
76.72181030514311
 20
131.0411834195887
 30
0.0
 10
83.01049175252638
 20
131.0411834195887
 30
0.0
 10
83.01049175252638
 20
131.0411834195887
 30
0.0
 10
83.01049175252638
 20
131.0411834195887
 30
0.0
 10
83.01049175252638
 20
131.0411834195887
 30
0.0
 10
83.01049175252638
 20
131.0411834195887
 30
0.0
 10
83.01049175252638
 20
131.0411834195887
 30
0.0
 10
83.01049175252638
 20
131.0411834195887
 30
0.0
 10
83.01049175252638
 20
131.0411834195887
 30
0.0
 10
83.01049175252638
 20
131.0411834195887
 30
0.0
 10
83.01049175252638
 20
131.0411834195887
 30
0.0
 10
89.29917319990965
 20
131.0411834195887
 30
0.0
 10
94.39740111702925
 20
136.1395835915962
 30
0.0
 10
94.39740111702925
 20
142.4279205292037
 30
0.0
 10
94.39740111702925
 20
142.4279205292037
 30
0.0
 10
94.39740111702925
 20
142.4279205292037
 30
0.0
 10
94.39740111702925
 20
142.4279205292037
 30
0.0
 10
94.39740111702925
 20
142.4279205292037
 30
0.0
 10
94.39740111702925
 20
142.4279205292037
 30
0.0
 10
94.39740111702925
 20
142.4279205292037
 30
0.0
 10
94.39740111702925
 20
142.4279205292037
 30
0.0
 10
94.39740111702925
 20
142.4279205292037
 30
0.0
 10
94.39740111702925
 20
142.4279205292037
 30
0.0
 10
94.39740111702925
 20
142.4279205292037
 30
0.0
 10
94.39740111702925
 20
142.4279205292037
 30
0.0
 10
94.39740111702925
 20
142.4279205292037
 30
0.0
 10
94.39740111702925
 20
142.4279205292037
 30
0.0
 10
94.39740111702925
 20
142.4279205292037
 30
0.0
 10
94.39740111702925
 20
142.4279205292037
 30
0.0
 10
94.39740111702925
 20
142.4279205292037
 30
0.0
 10
94.39740111702925
 20
142.4279205292037
 30
0.0
 10
94.39740111702925
 20
142.4279205292037
 30
0.0
 10
94.39740111702925
 20
142.4279205292037
 30
0.0
 10
94.39740111702925
 20
142.4279205292037
 30
0.0
 10
94.39740111702925
 20
142.4279205292037
 30
0.0
 10
94.39740111702925
 20
142.4279205292037
 30
0.0
 10
94.39740111702925
 20
142.4279205292037
 30
0.0
 10
94.39740111702925
 20
142.4279205292037
 30
0.0
  0
SPLINE
  5
D4
330
1F
100
AcDbEntity
  8
0
 62
     7
100
AcDbSpline
210
0.0
220
0.0
230
1.0
 70
     8
 71
     3
 72
     8
 73
     4
 74
     0
 42
0.0000000001
 43
0.0000000001
 40
0.0
 40
0.0
 40
0.0
 40
0.0
 40
1.0
 40
1.0
 40
1.0
 40
1.0
 10
73.83791897195339
 20
140.9589308452088
 30
0.0
 10
73.93851582648586
 20
140.3305450141567
 30
0.0
 10
74.10353600909222
 20
139.7138725154815
 30
0.0
 10
74.33056795134191
 20
139.1195931522331
 30
0.0
  0
SPLINE
  5
D5
330
1F
100
AcDbEntity
  8
0
 62
     7
100
AcDbSpline
210
0.0
220
0.0
230
1.0
 70
     8
 71
     3
 72
     8
 73
     4
 74
     0
 42
0.0000000001
 43
0.0000000001
 40
0.0
 40
0.0
 40
0.0
 40
0.0
 40
1.0
 40
1.0
 40
1.0
 40
1.0
 10
76.34595013974949
 20
135.9573379202001
 30
0.0
 10
76.78726716254438
 20
135.5022405063733
 30
0.0
 10
77.27440398552017
 20
135.0943409318307
 30
0.0
 10
77.79978139360932
 20
134.7381178236574
 30
0.0
  0
SPLINE
  5
D6
330
1F
100
AcDbEntity
  8
0
 62
     7
100
AcDbSpline
210
0.0
220
0.0
230
1.0
 70
     8
 71
     3
 72
     8
 73
     4
 74
     0
 42
0.0000000001
 43
0.0000000001
 40
0.0
 40
0.0
 40
0.0
 40
0.0
 40
1.0
 40
1.0
 40
1.0
 40
1.0
 10
87.53597216738484
 20
134.3160933483071
 30
0.0
 10
88.08977163197719
 20
134.6247741074205
 30
0.0
 10
88.61032590320519
 20
134.9899544697644
 30
0.0
 10
89.09005576600137
 20
135.4040552202714
 30
0.0
  0
SPLINE
  5
D7
330
1F
100
AcDbEntity
  8
0
 62
     7
100
AcDbSpline
210
0.0
220
0.0
230
1.0
 70
     8
 71
     3
 72
     8
 73
     4
 74
     0
 42
0.0000000001
 43
0.0000000001
 40
0.0
 40
0.0
 40
0.0
 40
0.0
 40
1.0
 40
1.0
 40
1.0
 40
1.0
 10
92.13397189004841
 20
140.6809114561413
 30
0.0
 10
92.25282776269809
 20
141.3027516014534
 30
0.0
 10
92.30794932682548
 20
141.9352715498152
 30
0.0
 10
92.29830305310318
 20
142.5688250275043
 30
0.0
  0
SPLINE
  5
D8
330
1F
100
AcDbEntity
  8
0
 62
     7
100
AcDbSpline
210
0.0
220
0.0
230
1.0
 70
     8
 71
     3
 72
     8
 73
     4
 74
     0
 42
0.0000000001
 43
0.0000000001
 40
0.0
 40
0.0
 40
0.0
 40
0.0
 40
1.0
 40
1.0
 40
1.0
 40
1.0
 10
84.60746681822951
 20
151.5789614487894
 30
0.0
 10
83.55240562985375
 20
151.7631019239525
 30
0.0
 10
82.47340101206015
 20
151.7634464337283
 30
0.0
 10
81.41816756879648
 20
151.5799949781168
 30
0.0
  0
POLYLINE
  5
D9
330
1F
100
AcDbEntity
  8
0
 62
     7
100
AcDb2dPolyline
 66
     1
 10
0.0
 20
0.0
 30
0.0
  0
VERTEX
  5
DA
330
D9
100
AcDbEntity
  8
0
 62
     7
100
AcDbVertex
100
AcDb2dVertex
 10
97.99270513723806
 20
153.9149099835754
 30
0.0
  0
VERTEX
  5
DB
330
D9
100
AcDbEntity
  8
0
 62
     7
100
AcDbVertex
100
AcDb2dVertex
 10
97.99270513723806
 20
130.9416200943837
 30
0.0
  0
SEQEND
  5
DC
330
D9
100
AcDbEntity
  8
0
  0
SPLINE
  5
DD
330
1F
100
AcDbEntity
  8
0
 62
     7
100
AcDbSpline
210
0.0
220
0.0
230
1.0
 70
     8
 71
     3
 72
     8
 73
     4
 74
     0
 42
0.0000000001
 43
0.0000000001
 40
0.0
 40
0.0
 40
0.0
 40
0.0
 40
1.0
 40
1.0
 40
1.0
 40
1.0
 10
94.49713669712223
 20
127.4455348896041
 30
0.0
 10
96.42759722579606
 20
127.4455348896041
 30
0.0
 10
97.99270513723806
 20
129.0109873108219
 30
0.0
 10
97.99270513723806
 20
130.9416200943837
 30
0.0
  0
SPLINE
  5
DE
330
1F
100
AcDbEntity
  8
0
 62
     7
100
AcDbSpline
210
0.0
220
0.0
230
1.0
 70
     8
 71
     3
 72
     8
 73
     4
 74
     0
 42
0.0000000001
 43
0.0000000001
 40
0.0
 40
0.0
 40
0.0
 40
0.0
 40
1.0
 40
1.0
 40
1.0
 40
1.0
 10
97.99270513723806
 20
153.9149099835754
 30
0.0
 10
97.99270513723806
 20
155.845715022025
 30
0.0
 10
96.42759722579606
 20
157.4111674432428
 30
0.0
 10
94.49713669712223
 20
157.4111674432428
 30
0.0
  0
POLYLINE
  5
DF
330
1F
100
AcDbEntity
  8
0
 62
     7
100
AcDb2dPolyline
 66
     1
 10
0.0
 20
0.0
 30
0.0
  0
VERTEX
  5
E0
330
DF
100
AcDbEntity
  8
0
 62
     7
100
AcDbVertex
100
AcDb2dVertex
 10
94.49713669712223
 20
127.4455348896041
 30
0.0
  0
VERTEX
  5
E1
330
DF
100
AcDbEntity
  8
0
 62
     7
100
AcDbVertex
100
AcDb2dVertex
 10
71.52367455304261
 20
127.4455348896041
 30
0.0
  0
SEQEND
  5
E2
330
DF
100
AcDbEntity
  8
0
  0
SPLINE
  5
E3
330
1F
100
AcDbEntity
  8
0
 62
     7
100
AcDbSpline
210
0.0
220
0.0
230
1.0
 70
     8
 71
     3
 72
     8
 73
     4
 74
     0
 42
0.0000000001
 43
0.0000000001
 40
0.0
 40
0.0
 40
0.0
 40
0.0
 40
1.0
 40
1.0
 40
1.0
 40
1.0
 10
68.02776160315099
 20
130.9416200943837
 30
0.0
 10
68.02776160315099
 20
129.0109873108219
 30
0.0
 10
69.59269725970509
 20
127.4455348896041
 30
0.0
 10
71.52367455304261
 20
127.4455348896041
 30
0.0
  0
POLYLINE
  5
E4
330
1F
100
AcDbEntity
  8
0
 62
     7
100
AcDb2dPolyline
 66
     1
 10
0.0
 20
0.0
 30
0.0
  0
VERTEX
  5
E5
330
E4
100
AcDbEntity
  8
0
 62
     7
100
AcDbVertex
100
AcDb2dVertex
 10
68.02776160315099
 20
130.9416200943837
 30
0.0
  0
VERTEX
  5
E6
330
E4
100
AcDbEntity
  8
0
 62
     7
100
AcDbVertex
100
AcDb2dVertex
 10
68.02776160315099
 20
153.9149099835754
 30
0.0
  0
SEQEND
  5
E7
330
E4
100
AcDbEntity
  8
0
  0
SPLINE
  5
E8
330
1F
100
AcDbEntity
  8
0
 62
     7
100
AcDbSpline
210
0.0
220
0.0
230
1.0
 70
     8
 71
     3
 72
     8
 73
     4
 74
     0
 42
0.0000000001
 43
0.0000000001
 40
0.0
 40
0.0
 40
0.0
 40
0.0
 40
1.0
 40
1.0
 40
1.0
 40
1.0
 10
71.52367455304261
 20
157.4111674432428
 30
0.0
 10
69.59269725970509
 20
157.4111674432428
 30
0.0
 10
68.02776160315099
 20
155.845715022025
 30
0.0
 10
68.02776160315099
 20
153.9149099835754
 30
0.0
  0
POLYLINE
  5
E9
330
1F
100
AcDbEntity
  8
0
 62
     7
100
AcDb2dPolyline
 66
     1
 10
0.0
 20
0.0
 30
0.0
  0
VERTEX
  5
EA
330
E9
100
AcDbEntity
  8
0
 62
     7
100
AcDbVertex
100
AcDb2dVertex
 10
71.52367455304261
 20
157.4111674432428
 30
0.0
  0
VERTEX
  5
EB
330
E9
100
AcDbEntity
  8
0
 62
     7
100
AcDbVertex
100
AcDb2dVertex
 10
94.49713669712223
 20
157.4111674432428
 30
0.0
  0
SEQEND
  5
EC
330
E9
100
AcDbEntity
  8
0
  0
POLYLINE
  5
ED
330
1F
100
AcDbEntity
  8
0
 62
     7
100
AcDb2dPolyline
 66
     1
 10
0.0
 20
0.0
 30
0.0
  0
VERTEX
  5
EE
330
ED
100
AcDbEntity
  8
0
 62
     7
100
AcDbVertex
100
AcDb2dVertex
 10
74.32540030470496
 20
139.1171815838025
 30
0.0
  0
VERTEX
  5
EF
330
ED
100
AcDbEntity
  8
0
 62
     7
100
AcDbVertex
100
AcDb2dVertex
 10
75.24920326850238
 20
139.3669511712548
 30
0.0
  0
SEQEND
  5
F0
330
ED
100
AcDbEntity
  8
0
  0
POLYLINE
  5
F1
330
1F
100
AcDbEntity
  8
0
 62
     7
100
AcDb2dPolyline
 66
     1
 10
0.0
 20
0.0
 30
0.0
  0
VERTEX
  5
F2
330
F1
100
AcDbEntity
  8
0
 62
     7
100
AcDbVertex
100
AcDb2dVertex
 10
73.8358519132986
 20
140.9547967278993
 30
0.0
  0
VERTEX
  5
F3
330
F1
100
AcDbEntity
  8
0
 62
     7
100
AcDbVertex
100
AcDb2dVertex
 10
74.75465948534698
 20
141.1997431784904
 30
0.0
  0
SEQEND
  5
F4
330
F1
100
AcDbEntity
  8
0
  0
POLYLINE
  5
F5
330
1F
100
AcDbEntity
  8
0
 62
     7
100
AcDb2dPolyline
 66
     1
 10
0.0
 20
0.0
 30
0.0
  0
VERTEX
  5
F6
330
F5
100
AcDbEntity
  8
0
 62
     7
100
AcDbVertex
100
AcDb2dVertex
 10
77.79633629585136
 20
134.73708429433
 30
0.0
  0
VERTEX
  5
F7
330
F5
100
AcDbEntity
  8
0
 62
     7
100
AcDbVertex
100
AcDb2dVertex
 10
78.40594634412268
 20
135.4660669799147
 30
0.0
  0
SEQEND
  5
F8
330
F5
100
AcDbEntity
  8
0
  0
POLYLINE
  5
F9
330
1F
100
AcDbEntity
  8
0
 62
     7
100
AcDb2dPolyline
 66
     1
 10
0.0
 20
0.0
 30
0.0
  0
VERTEX
  5
FA
330
F9
100
AcDbEntity
  8
0
 62
     7
100
AcDbVertex
100
AcDb2dVertex
 10
76.34319406154312
 20
135.9556153713211
 30
0.0
  0
VERTEX
  5
FB
330
F9
100
AcDbEntity
  8
0
 62
     7
100
AcDbVertex
100
AcDb2dVertex
 10
76.95245960003864
 20
136.6904547230943
 30
0.0
  0
SEQEND
  5
FC
330
F9
100
AcDbEntity
  8
0
  0
POLYLINE
  5
FD
330
1F
100
AcDbEntity
  8
0
 62
     7
100
AcDb2dPolyline
 66
     1
 10
0.0
 20
0.0
 30
0.0
  0
VERTEX
  5
FE
330
FD
100
AcDbEntity
  8
0
 62
     7
100
AcDbVertex
100
AcDb2dVertex
 10
89.08867772689818
 20
135.4009546322893
 30
0.0
  0
VERTEX
  5
FF
330
FD
100
AcDbEntity
  8
0
 62
     7
100
AcDbVertex
100
AcDb2dVertex
 10
88.54418002625233
 20
136.180580254916
 30
0.0
  0
SEQEND
  5
100
330
FD
100
AcDbEntity
  8
0
  0
POLYLINE
  5
101
330
1F
100
AcDbEntity
  8
0
 62
     7
100
AcDb2dPolyline
 66
     1
 10
0.0
 20
0.0
 30
0.0
  0
VERTEX
  5
102
330
101
100
AcDbEntity
  8
0
 62
     7
100
AcDbVertex
100
AcDb2dVertex
 10
87.53528314783326
 20
134.3126482505492
 30
0.0
  0
VERTEX
  5
103
330
101
100
AcDbEntity
  8
0
 62
     7
100
AcDbVertex
100
AcDb2dVertex
 10
86.98613456521416
 20
135.0919293634001
 30
0.0
  0
SEQEND
  5
104
330
101
100
AcDbEntity
  8
0
  0
POLYLINE
  5
105
330
1F
100
AcDbEntity
  8
0
 62
     7
100
AcDb2dPolyline
 66
     1
 10
0.0
 20
0.0
 30
0.0
  0
VERTEX
  5
106
330
105
100
AcDbEntity
  8
0
 62
     7
100
AcDbVertex
100
AcDb2dVertex
 10
92.30450422906752
 20
142.5681360079527
 30
0.0
  0
VERTEX
  5
107
330
105
100
AcDbEntity
  8
0
 62
     7
100
AcDbVertex
100
AcDb2dVertex
 10
91.35072891477583
 20
142.6477177661617
 30
0.0
  0
SEQEND
  5
108
330
105
100
AcDbEntity
  8
0
  0
POLYLINE
  5
109
330
1F
100
AcDbEntity
  8
0
 62
     7
100
AcDb2dPolyline
 66
     1
 10
0.0
 20
0.0
 30
0.0
  0
VERTEX
  5
10A
330
109
100
AcDbEntity
  8
0
 62
     7
100
AcDbVertex
100
AcDb2dVertex
 10
92.1346609096
 20
140.6753992997286
 30
0.0
  0
VERTEX
  5
10B
330
109
100
AcDbEntity
  8
0
 62
     7
100
AcDbVertex
100
AcDb2dVertex
 10
91.18553647728156
 20
140.7601487045745
 30
0.0
  0
SEQEND
  5
10C
330
109
100
AcDbEntity
  8
0
  0
SPLINE
  5
10D
330
1F
100
AcDbEntity
  8
0
 62
     7
100
AcDbSpline
210
0.0
220
0.0
230
1.0
 70
    11
 71
     3
 72
    68
 73
    64
 74
     0
 42
0.0000000001
 43
0.0000000001
 40
0.0
 40
0.0
 40
0.0
 40
0.0
 40
1.0
 40
1.0
 40
1.0
 40
2.0
 40
2.0
 40
2.0
 40
3.0
 40
3.0
 40
3.0
 40
4.0
 40
4.0
 40
4.0
 40
5.0
 40
5.0
 40
5.0
 40
6.0
 40
6.0
 40
6.0
 40
7.0
 40
7.0
 40
7.0
 40
8.0
 40
8.0
 40
8.0
 40
9.0
 40
9.0
 40
9.0
 40
10.0
 40
10.0
 40
10.0
 40
11.0
 40
11.0
 40
11.0
 40
12.0
 40
12.0
 40
12.0
 40
13.0
 40
13.0
 40
13.0
 40
14.0
 40
14.0
 40
14.0
 40
15.0
 40
15.0
 40
15.0
 40
16.0
 40
16.0
 40
16.0
 40
17.0
 40
17.0
 40
17.0
 40
18.0
 40
18.0
 40
18.0
 40
19.0
 40
19.0
 40
19.0
 40
20.0
 40
20.0
 40
20.0
 40
21.0
 40
21.0
 40
21.0
 40
21.0
 10
91.35072891477583
 20
142.4279205292037
 30
0.0
 10
91.35072891477583
 20
147.0343607413743
 30
0.0
 10
87.61658745492115
 20
150.768502201229
 30
0.0
 10
83.01049175252638
 20
150.768502201229
 30
0.0
 10
83.01049175252638
 20
150.768502201229
 30
0.0
 10
83.01049175252638
 20
150.768502201229
 30
0.0
 10
83.01049175252638
 20
150.768502201229
 30
0.0
 10
83.01049175252638
 20
150.768502201229
 30
0.0
 10
83.01049175252638
 20
150.768502201229
 30
0.0
 10
83.01049175252638
 20
150.768502201229
 30
0.0
 10
83.01049175252638
 20
150.768502201229
 30
0.0
 10
83.01049175252638
 20
150.768502201229
 30
0.0
 10
83.01049175252638
 20
150.768502201229
 30
0.0
 10
78.4042237952437
 20
150.768502201229
 30
0.0
 10
74.67008233538903
 20
147.0343607413743
 30
0.0
 10
74.67008233538903
 20
142.4279205292037
 30
0.0
 10
74.67008233538903
 20
142.4279205292037
 30
0.0
 10
74.67008233538903
 20
142.4279205292037
 30
0.0
 10
74.67008233538903
 20
142.4279205292037
 30
0.0
 10
74.67008233538903
 20
142.4279205292037
 30
0.0
 10
74.67008233538903
 20
142.4279205292037
 30
0.0
 10
74.67008233538903
 20
142.4279205292037
 30
0.0
 10
74.67008233538903
 20
142.4279205292037
 30
0.0
 10
74.67008233538903
 20
142.4279205292037
 30
0.0
 10
74.67008233538903
 20
142.4279205292037
 30
0.0
 10
74.67008233538903
 20
137.8218248268089
 30
0.0
 10
78.4042237952437
 20
134.0876833669543
 30
0.0
 10
83.01049175252638
 20
134.0876833669543
 30
0.0
 10
83.01049175252638
 20
134.0876833669543
 30
0.0
 10
83.01049175252638
 20
134.0876833669543
 30
0.0
 10
83.01049175252638
 20
134.0876833669543
 30
0.0
 10
83.01049175252638
 20
134.0876833669543
 30
0.0
 10
83.01049175252638
 20
134.0876833669543
 30
0.0
 10
83.01049175252638
 20
134.0876833669543
 30
0.0
 10
83.01049175252638
 20
134.0876833669543
 30
0.0
 10
83.01049175252638
 20
134.0876833669543
 30
0.0
 10
83.01049175252638
 20
134.0876833669543
 30
0.0
 10
87.61658745492115
 20
134.0876833669543
 30
0.0
 10
91.35072891477583
 20
137.8218248268089
 30
0.0
 10
91.35072891477583
 20
142.4279205292037
 30
0.0
 10
91.35072891477583
 20
142.4279205292037
 30
0.0
 10
91.35072891477583
 20
142.4279205292037
 30
0.0
 10
91.35072891477583
 20
142.4279205292037
 30
0.0
 10
91.35072891477583
 20
142.4279205292037
 30
0.0
 10
91.35072891477583
 20
142.4279205292037
 30
0.0
 10
91.35072891477583
 20
142.4279205292037
 30
0.0
 10
91.35072891477583
 20
142.4279205292037
 30
0.0
 10
91.35072891477583
 20
142.4279205292037
 30
0.0
 10
91.35072891477583
 20
142.4279205292037
 30
0.0
 10
91.35072891477583
 20
142.4279205292037
 30
0.0
 10
91.35072891477583
 20
142.4279205292037
 30
0.0
 10
91.35072891477583
 20
142.4279205292037
 30
0.0
 10
91.35072891477583
 20
142.4279205292037
 30
0.0
 10
91.35072891477583
 20
142.4279205292037
 30
0.0
 10
91.35072891477583
 20
142.4279205292037
 30
0.0
 10
91.35072891477583
 20
142.4279205292037
 30
0.0
 10
91.35072891477583
 20
142.4279205292037
 30
0.0
 10
91.35072891477583
 20
142.4279205292037
 30
0.0
 10
91.35072891477583
 20
142.4279205292037
 30
0.0
 10
91.35072891477583
 20
142.4279205292037
 30
0.0
 10
91.35072891477583
 20
142.4279205292037
 30
0.0
 10
91.35072891477583
 20
142.4279205292037
 30
0.0
 10
91.35072891477583
 20
142.4279205292037
 30
0.0
 10
91.35072891477583
 20
142.4279205292037
 30
0.0
  0
SPLINE
  5
10E
330
1F
100
AcDbEntity
  8
0
 62
     7
100
AcDbSpline
210
0.0
220
0.0
230
1.0
 70
    11
 71
     3
 72
    68
 73
    64
 74
     0
 42
0.0000000001
 43
0.0000000001
 40
0.0
 40
0.0
 40
0.0
 40
0.0
 40
1.0
 40
1.0
 40
1.0
 40
2.0
 40
2.0
 40
2.0
 40
3.0
 40
3.0
 40
3.0
 40
4.0
 40
4.0
 40
4.0
 40
5.0
 40
5.0
 40
5.0
 40
6.0
 40
6.0
 40
6.0
 40
7.0
 40
7.0
 40
7.0
 40
8.0
 40
8.0
 40
8.0
 40
9.0
 40
9.0
 40
9.0
 40
10.0
 40
10.0
 40
10.0
 40
11.0
 40
11.0
 40
11.0
 40
12.0
 40
12.0
 40
12.0
 40
13.0
 40
13.0
 40
13.0
 40
14.0
 40
14.0
 40
14.0
 40
15.0
 40
15.0
 40
15.0
 40
16.0
 40
16.0
 40
16.0
 40
17.0
 40
17.0
 40
17.0
 40
18.0
 40
18.0
 40
18.0
 40
19.0
 40
19.0
 40
19.0
 40
20.0
 40
20.0
 40
20.0
 40
21.0
 40
21.0
 40
21.0
 40
21.0
 10
96.19522538202155
 20
153.9149099835754
 30
0.0
 10
96.19522538202155
 20
154.8526655932926
 30
0.0
 10
95.43472005195152
 20
155.6129986684747
 30
0.0
 10
94.49679218734644
 20
155.6129986684747
 30
0.0
 10
94.49679218734644
 20
155.6129986684747
 30
0.0
 10
94.49679218734644
 20
155.6129986684747
 30
0.0
 10
94.49679218734644
 20
155.6129986684747
 30
0.0
 10
94.49679218734644
 20
155.6129986684747
 30
0.0
 10
94.49679218734644
 20
155.6129986684747
 30
0.0
 10
94.49679218734644
 20
155.6129986684747
 30
0.0
 10
94.49679218734644
 20
155.6129986684747
 30
0.0
 10
94.49679218734644
 20
155.6129986684747
 30
0.0
 10
94.49679218734644
 20
155.6129986684747
 30
0.0
 10
93.55903657762927
 20
155.6129986684747
 30
0.0
 10
92.79870350244713
 20
154.8526655932926
 30
0.0
 10
92.79870350244713
 20
153.9149099835754
 30
0.0
 10
92.79870350244713
 20
153.9149099835754
 30
0.0
 10
92.79870350244713
 20
153.9149099835754
 30
0.0
 10
92.79870350244713
 20
153.9149099835754
 30
0.0
 10
92.79870350244713
 20
153.9149099835754
 30
0.0
 10
92.79870350244713
 20
153.9149099835754
 30
0.0
 10
92.79870350244713
 20
153.9149099835754
 30
0.0
 10
92.79870350244713
 20
153.9149099835754
 30
0.0
 10
92.79870350244713
 20
153.9149099835754
 30
0.0
 10
92.79870350244713
 20
153.9149099835754
 30
0.0
 10
92.79870350244713
 20
152.9769821189703
 30
0.0
 10
93.55903657762927
 20
152.2168212986761
 30
0.0
 10
94.49679218734644
 20
152.2168212986761
 30
0.0
 10
94.49679218734644
 20
152.2168212986761
 30
0.0
 10
94.49679218734644
 20
152.2168212986761
 30
0.0
 10
94.49679218734644
 20
152.2168212986761
 30
0.0
 10
94.49679218734644
 20
152.2168212986761
 30
0.0
 10
94.49679218734644
 20
152.2168212986761
 30
0.0
 10
94.49679218734644
 20
152.2168212986761
 30
0.0
 10
94.49679218734644
 20
152.2168212986761
 30
0.0
 10
94.49679218734644
 20
152.2168212986761
 30
0.0
 10
94.49679218734644
 20
152.2168212986761
 30
0.0
 10
95.43472005195152
 20
152.2168212986761
 30
0.0
 10
96.19522538202155
 20
152.9769821189703
 30
0.0
 10
96.19522538202155
 20
153.9149099835754
 30
0.0
 10
96.19522538202155
 20
153.9149099835754
 30
0.0
 10
96.19522538202155
 20
153.9149099835754
 30
0.0
 10
96.19522538202155
 20
153.9149099835754
 30
0.0
 10
96.19522538202155
 20
153.9149099835754
 30
0.0
 10
96.19522538202155
 20
153.9149099835754
 30
0.0
 10
96.19522538202155
 20
153.9149099835754
 30
0.0
 10
96.19522538202155
 20
153.9149099835754
 30
0.0
 10
96.19522538202155
 20
153.9149099835754
 30
0.0
 10
96.19522538202155
 20
153.9149099835754
 30
0.0
 10
96.19522538202155
 20
153.9149099835754
 30
0.0
 10
96.19522538202155
 20
153.9149099835754
 30
0.0
 10
96.19522538202155
 20
153.9149099835754
 30
0.0
 10
96.19522538202155
 20
153.9149099835754
 30
0.0
 10
96.19522538202155
 20
153.9149099835754
 30
0.0
 10
96.19522538202155
 20
153.9149099835754
 30
0.0
 10
96.19522538202155
 20
153.9149099835754
 30
0.0
 10
96.19522538202155
 20
153.9149099835754
 30
0.0
 10
96.19522538202155
 20
153.9149099835754
 30
0.0
 10
96.19522538202155
 20
153.9149099835754
 30
0.0
 10
96.19522538202155
 20
153.9149099835754
 30
0.0
 10
96.19522538202155
 20
153.9149099835754
 30
0.0
 10
96.19522538202155
 20
153.9149099835754
 30
0.0
 10
96.19522538202155
 20
153.9149099835754
 30
0.0
 10
96.19522538202155
 20
153.9149099835754
 30
0.0
  0
SPLINE
  5
10F
330
1F
100
AcDbEntity
  8
0
 62
     7
100
AcDbSpline
210
0.0
220
0.0
230
1.0
 70
    11
 71
     3
 72
    68
 73
    64
 74
     0
 42
0.0000000001
 43
0.0000000001
 40
0.0
 40
0.0
 40
0.0
 40
0.0
 40
1.0
 40
1.0
 40
1.0
 40
2.0
 40
2.0
 40
2.0
 40
3.0
 40
3.0
 40
3.0
 40
4.0
 40
4.0
 40
4.0
 40
5.0
 40
5.0
 40
5.0
 40
6.0
 40
6.0
 40
6.0
 40
7.0
 40
7.0
 40
7.0
 40
8.0
 40
8.0
 40
8.0
 40
9.0
 40
9.0
 40
9.0
 40
10.0
 40
10.0
 40
10.0
 40
11.0
 40
11.0
 40
11.0
 40
12.0
 40
12.0
 40
12.0
 40
13.0
 40
13.0
 40
13.0
 40
14.0
 40
14.0
 40
14.0
 40
15.0
 40
15.0
 40
15.0
 40
16.0
 40
16.0
 40
16.0
 40
17.0
 40
17.0
 40
17.0
 40
18.0
 40
18.0
 40
18.0
 40
19.0
 40
19.0
 40
19.0
 40
20.0
 40
20.0
 40
20.0
 40
21.0
 40
21.0
 40
21.0
 40
21.0
 10
96.19522538202155
 20
130.9416200943837
 30
0.0
 10
96.19522538202155
 20
131.8797202138766
 30
0.0
 10
95.43472005195152
 20
132.639708779283
 30
0.0
 10
94.49679218734644
 20
132.639708779283
 30
0.0
 10
94.49679218734644
 20
132.639708779283
 30
0.0
 10
94.49679218734644
 20
132.639708779283
 30
0.0
 10
94.49679218734644
 20
132.639708779283
 30
0.0
 10
94.49679218734644
 20
132.639708779283
 30
0.0
 10
94.49679218734644
 20
132.639708779283
 30
0.0
 10
94.49679218734644
 20
132.639708779283
 30
0.0
 10
94.49679218734644
 20
132.639708779283
 30
0.0
 10
94.49679218734644
 20
132.639708779283
 30
0.0
 10
94.49679218734644
 20
132.639708779283
 30
0.0
 10
93.55903657762927
 20
132.639708779283
 30
0.0
 10
92.79870350244713
 20
131.8797202138766
 30
0.0
 10
92.79870350244713
 20
130.9416200943837
 30
0.0
 10
92.79870350244713
 20
130.9416200943837
 30
0.0
 10
92.79870350244713
 20
130.9416200943837
 30
0.0
 10
92.79870350244713
 20
130.9416200943837
 30
0.0
 10
92.79870350244713
 20
130.9416200943837
 30
0.0
 10
92.79870350244713
 20
130.9416200943837
 30
0.0
 10
92.79870350244713
 20
130.9416200943837
 30
0.0
 10
92.79870350244713
 20
130.9416200943837
 30
0.0
 10
92.79870350244713
 20
130.9416200943837
 30
0.0
 10
92.79870350244713
 20
130.9416200943837
 30
0.0
 10
92.79870350244713
 20
130.0038644846665
 30
0.0
 10
93.55903657762927
 20
129.2435314094843
 30
0.0
 10
94.49679218734644
 20
129.2435314094843
 30
0.0
 10
94.49679218734644
 20
129.2435314094843
 30
0.0
 10
94.49679218734644
 20
129.2435314094843
 30
0.0
 10
94.49679218734644
 20
129.2435314094843
 30
0.0
 10
94.49679218734644
 20
129.2435314094843
 30
0.0
 10
94.49679218734644
 20
129.2435314094843
 30
0.0
 10
94.49679218734644
 20
129.2435314094843
 30
0.0
 10
94.49679218734644
 20
129.2435314094843
 30
0.0
 10
94.49679218734644
 20
129.2435314094843
 30
0.0
 10
94.49679218734644
 20
129.2435314094843
 30
0.0
 10
95.43472005195152
 20
129.2435314094843
 30
0.0
 10
96.19522538202155
 20
130.0038644846665
 30
0.0
 10
96.19522538202155
 20
130.9416200943837
 30
0.0
 10
96.19522538202155
 20
130.9416200943837
 30
0.0
 10
96.19522538202155
 20
130.9416200943837
 30
0.0
 10
96.19522538202155
 20
130.9416200943837
 30
0.0
 10
96.19522538202155
 20
130.9416200943837
 30
0.0
 10
96.19522538202155
 20
130.9416200943837
 30
0.0
 10
96.19522538202155
 20
130.9416200943837
 30
0.0
 10
96.19522538202155
 20
130.9416200943837
 30
0.0
 10
96.19522538202155
 20
130.9416200943837
 30
0.0
 10
96.19522538202155
 20
130.9416200943837
 30
0.0
 10
96.19522538202155
 20
130.9416200943837
 30
0.0
 10
96.19522538202155
 20
130.9416200943837
 30
0.0
 10
96.19522538202155
 20
130.9416200943837
 30
0.0
 10
96.19522538202155
 20
130.9416200943837
 30
0.0
 10
96.19522538202155
 20
130.9416200943837
 30
0.0
 10
96.19522538202155
 20
130.9416200943837
 30
0.0
 10
96.19522538202155
 20
130.9416200943837
 30
0.0
 10
96.19522538202155
 20
130.9416200943837
 30
0.0
 10
96.19522538202155
 20
130.9416200943837
 30
0.0
 10
96.19522538202155
 20
130.9416200943837
 30
0.0
 10
96.19522538202155
 20
130.9416200943837
 30
0.0
 10
96.19522538202155
 20
130.9416200943837
 30
0.0
 10
96.19522538202155
 20
130.9416200943837
 30
0.0
 10
96.19522538202155
 20
130.9416200943837
 30
0.0
 10
96.19522538202155
 20
130.9416200943837
 30
0.0
  0
SPLINE
  5
110
330
1F
100
AcDbEntity
  8
0
 62
     7
100
AcDbSpline
210
0.0
220
0.0
230
1.0
 70
    11
 71
     3
 72
    68
 73
    64
 74
     0
 42
0.0000000001
 43
0.0000000001
 40
0.0
 40
0.0
 40
0.0
 40
0.0
 40
1.0
 40
1.0
 40
1.0
 40
2.0
 40
2.0
 40
2.0
 40
3.0
 40
3.0
 40
3.0
 40
4.0
 40
4.0
 40
4.0
 40
5.0
 40
5.0
 40
5.0
 40
6.0
 40
6.0
 40
6.0
 40
7.0
 40
7.0
 40
7.0
 40
8.0
 40
8.0
 40
8.0
 40
9.0
 40
9.0
 40
9.0
 40
10.0
 40
10.0
 40
10.0
 40
11.0
 40
11.0
 40
11.0
 40
12.0
 40
12.0
 40
12.0
 40
13.0
 40
13.0
 40
13.0
 40
14.0
 40
14.0
 40
14.0
 40
15.0
 40
15.0
 40
15.0
 40
16.0
 40
16.0
 40
16.0
 40
17.0
 40
17.0
 40
17.0
 40
18.0
 40
18.0
 40
18.0
 40
19.0
 40
19.0
 40
19.0
 40
20.0
 40
20.0
 40
20.0
 40
21.0
 40
21.0
 40
21.0
 40
21.0
 10
73.22176323794193
 20
130.9416200943837
 30
0.0
 10
73.22176323794193
 20
131.8797202138766
 30
0.0
 10
72.46160241764768
 20
132.639708779283
 30
0.0
 10
71.52384680793051
 20
132.639708779283
 30
0.0
 10
71.52384680793051
 20
132.639708779283
 30
0.0
 10
71.52384680793051
 20
132.639708779283
 30
0.0
 10
71.52384680793051
 20
132.639708779283
 30
0.0
 10
71.52384680793051
 20
132.639708779283
 30
0.0
 10
71.52384680793051
 20
132.639708779283
 30
0.0
 10
71.52384680793051
 20
132.639708779283
 30
0.0
 10
71.52384680793051
 20
132.639708779283
 30
0.0
 10
71.52384680793051
 20
132.639708779283
 30
0.0
 10
71.52384680793051
 20
132.639708779283
 30
0.0
 10
70.58591894332544
 20
132.639708779283
 30
0.0
 10
69.82575812303119
 20
131.8797202138766
 30
0.0
 10
69.82575812303119
 20
130.9416200943837
 30
0.0
 10
69.82575812303119
 20
130.9416200943837
 30
0.0
 10
69.82575812303119
 20
130.9416200943837
 30
0.0
 10
69.82575812303119
 20
130.9416200943837
 30
0.0
 10
69.82575812303119
 20
130.9416200943837
 30
0.0
 10
69.82575812303119
 20
130.9416200943837
 30
0.0
 10
69.82575812303119
 20
130.9416200943837
 30
0.0
 10
69.82575812303119
 20
130.9416200943837
 30
0.0
 10
69.82575812303119
 20
130.9416200943837
 30
0.0
 10
69.82575812303119
 20
130.9416200943837
 30
0.0
 10
69.82575812303119
 20
130.0038644846665
 30
0.0
 10
70.58591894332544
 20
129.2438759192601
 30
0.0
 10
71.52384680793051
 20
129.2438759192601
 30
0.0
 10
71.52384680793051
 20
129.2438759192601
 30
0.0
 10
71.52384680793051
 20
129.2438759192601
 30
0.0
 10
71.52384680793051
 20
129.2438759192601
 30
0.0
 10
71.52384680793051
 20
129.2438759192601
 30
0.0
 10
71.52384680793051
 20
129.2438759192601
 30
0.0
 10
71.52384680793051
 20
129.2438759192601
 30
0.0
 10
71.52384680793051
 20
129.2438759192601
 30
0.0
 10
71.52384680793051
 20
129.2438759192601
 30
0.0
 10
71.52384680793051
 20
129.2438759192601
 30
0.0
 10
72.46160241764768
 20
129.2438759192601
 30
0.0
 10
73.22176323794193
 20
130.0038644846665
 30
0.0
 10
73.22176323794193
 20
130.9416200943837
 30
0.0
 10
73.22176323794193
 20
130.9416200943837
 30
0.0
 10
73.22176323794193
 20
130.9416200943837
 30
0.0
 10
73.22176323794193
 20
130.9416200943837
 30
0.0
 10
73.22176323794193
 20
130.9416200943837
 30
0.0
 10
73.22176323794193
 20
130.9416200943837
 30
0.0
 10
73.22176323794193
 20
130.9416200943837
 30
0.0
 10
73.22176323794193
 20
130.9416200943837
 30
0.0
 10
73.22176323794193
 20
130.9416200943837
 30
0.0
 10
73.22176323794193
 20
130.9416200943837
 30
0.0
 10
73.22176323794193
 20
130.9416200943837
 30
0.0
 10
73.22176323794193
 20
130.9416200943837
 30
0.0
 10
73.22176323794193
 20
130.9416200943837
 30
0.0
 10
73.22176323794193
 20
130.9416200943837
 30
0.0
 10
73.22176323794193
 20
130.9416200943837
 30
0.0
 10
73.22176323794193
 20
130.9416200943837
 30
0.0
 10
73.22176323794193
 20
130.9416200943837
 30
0.0
 10
73.22176323794193
 20
130.9416200943837
 30
0.0
 10
73.22176323794193
 20
130.9416200943837
 30
0.0
 10
73.22176323794193
 20
130.9416200943837
 30
0.0
 10
73.22176323794193
 20
130.9416200943837
 30
0.0
 10
73.22176323794193
 20
130.9416200943837
 30
0.0
 10
73.22176323794193
 20
130.9416200943837
 30
0.0
 10
73.22176323794193
 20
130.9416200943837
 30
0.0
 10
73.22176323794193
 20
130.9416200943837
 30
0.0
  0
SPLINE
  5
111
330
1F
100
AcDbEntity
  8
0
 62
     7
100
AcDbSpline
210
0.0
220
0.0
230
1.0
 70
    11
 71
     3
 72
    68
 73
    64
 74
     0
 42
0.0000000001
 43
0.0000000001
 40
0.0
 40
0.0
 40
0.0
 40
0.0
 40
1.0
 40
1.0
 40
1.0
 40
2.0
 40
2.0
 40
2.0
 40
3.0
 40
3.0
 40
3.0
 40
4.0
 40
4.0
 40
4.0
 40
5.0
 40
5.0
 40
5.0
 40
6.0
 40
6.0
 40
6.0
 40
7.0
 40
7.0
 40
7.0
 40
8.0
 40
8.0
 40
8.0
 40
9.0
 40
9.0
 40
9.0
 40
10.0
 40
10.0
 40
10.0
 40
11.0
 40
11.0
 40
11.0
 40
12.0
 40
12.0
 40
12.0
 40
13.0
 40
13.0
 40
13.0
 40
14.0
 40
14.0
 40
14.0
 40
15.0
 40
15.0
 40
15.0
 40
16.0
 40
16.0
 40
16.0
 40
17.0
 40
17.0
 40
17.0
 40
18.0
 40
18.0
 40
18.0
 40
19.0
 40
19.0
 40
19.0
 40
20.0
 40
20.0
 40
20.0
 40
21.0
 40
21.0
 40
21.0
 40
21.0
 10
73.22176323794193
 20
153.9149099835754
 30
0.0
 10
73.22176323794193
 20
154.8526655932926
 30
0.0
 10
72.46160241764768
 20
155.6128264135868
 30
0.0
 10
71.52384680793051
 20
155.6128264135868
 30
0.0
 10
71.52384680793051
 20
155.6128264135868
 30
0.0
 10
71.52384680793051
 20
155.6128264135868
 30
0.0
 10
71.52384680793051
 20
155.6128264135868
 30
0.0
 10
71.52384680793051
 20
155.6128264135868
 30
0.0
 10
71.52384680793051
 20
155.6128264135868
 30
0.0
 10
71.52384680793051
 20
155.6128264135868
 30
0.0
 10
71.52384680793051
 20
155.6128264135868
 30
0.0
 10
71.52384680793051
 20
155.6128264135868
 30
0.0
 10
71.52384680793051
 20
155.6128264135868
 30
0.0
 10
70.58591894332544
 20
155.6128264135868
 30
0.0
 10
69.82575812303119
 20
154.8526655932926
 30
0.0
 10
69.82575812303119
 20
153.9149099835754
 30
0.0
 10
69.82575812303119
 20
153.9149099835754
 30
0.0
 10
69.82575812303119
 20
153.9149099835754
 30
0.0
 10
69.82575812303119
 20
153.9149099835754
 30
0.0
 10
69.82575812303119
 20
153.9149099835754
 30
0.0
 10
69.82575812303119
 20
153.9149099835754
 30
0.0
 10
69.82575812303119
 20
153.9149099835754
 30
0.0
 10
69.82575812303119
 20
153.9149099835754
 30
0.0
 10
69.82575812303119
 20
153.9149099835754
 30
0.0
 10
69.82575812303119
 20
153.9149099835754
 30
0.0
 10
69.82575812303119
 20
152.9771543738582
 30
0.0
 10
70.58591894332544
 20
152.216993553564
 30
0.0
 10
71.52384680793051
 20
152.216993553564
 30
0.0
 10
71.52384680793051
 20
152.216993553564
 30
0.0
 10
71.52384680793051
 20
152.216993553564
 30
0.0
 10
71.52384680793051
 20
152.216993553564
 30
0.0
 10
71.52384680793051
 20
152.216993553564
 30
0.0
 10
71.52384680793051
 20
152.216993553564
 30
0.0
 10
71.52384680793051
 20
152.216993553564
 30
0.0
 10
71.52384680793051
 20
152.216993553564
 30
0.0
 10
71.52384680793051
 20
152.216993553564
 30
0.0
 10
71.52384680793051
 20
152.216993553564
 30
0.0
 10
72.46160241764768
 20
152.216993553564
 30
0.0
 10
73.22176323794193
 20
152.9771543738582
 30
0.0
 10
73.22176323794193
 20
153.9149099835754
 30
0.0
 10
73.22176323794193
 20
153.9149099835754
 30
0.0
 10
73.22176323794193
 20
153.9149099835754
 30
0.0
 10
73.22176323794193
 20
153.9149099835754
 30
0.0
 10
73.22176323794193
 20
153.9149099835754
 30
0.0
 10
73.22176323794193
 20
153.9149099835754
 30
0.0
 10
73.22176323794193
 20
153.9149099835754
 30
0.0
 10
73.22176323794193
 20
153.9149099835754
 30
0.0
 10
73.22176323794193
 20
153.9149099835754
 30
0.0
 10
73.22176323794193
 20
153.9149099835754
 30
0.0
 10
73.22176323794193
 20
153.9149099835754
 30
0.0
 10
73.22176323794193
 20
153.9149099835754
 30
0.0
 10
73.22176323794193
 20
153.9149099835754
 30
0.0
 10
73.22176323794193
 20
153.9149099835754
 30
0.0
 10
73.22176323794193
 20
153.9149099835754
 30
0.0
 10
73.22176323794193
 20
153.9149099835754
 30
0.0
 10
73.22176323794193
 20
153.9149099835754
 30
0.0
 10
73.22176323794193
 20
153.9149099835754
 30
0.0
 10
73.22176323794193
 20
153.9149099835754
 30
0.0
 10
73.22176323794193
 20
153.9149099835754
 30
0.0
 10
73.22176323794193
 20
153.9149099835754
 30
0.0
 10
73.22176323794193
 20
153.9149099835754
 30
0.0
 10
73.22176323794193
 20
153.9149099835754
 30
0.0
 10
73.22176323794193
 20
153.9149099835754
 30
0.0
 10
73.22176323794193
 20
153.9149099835754
 30
0.0
  0
POLYLINE
  5
112
330
1F
100
AcDbEntity
  8
0
 62
     7
100
AcDb2dPolyline
 66
     1
 10
0.0
 20
0.0
 30
0.0
  0
VERTEX
  5
113
330
112
100
AcDbEntity
  8
0
 62
     7
100
AcDbVertex
100
AcDb2dVertex
 10
81.96128723033914
 20
154.4144491584798
 30
0.0
  0
VERTEX
  5
114
330
112
100
AcDbEntity
  8
0
 62
     7
100
AcDbVertex
100
AcDb2dVertex
 10
84.05900725516202
 20
154.4144491584798
 30
0.0
  0
SEQEND
  5
115
330
112
100
AcDbEntity
  8
0
  0
SPLINE
  5
116
330
1F
100
AcDbEntity
  8
0
 62
     7
100
AcDbSpline
210
0.0
220
0.0
230
1.0
 70
     8
 71
     3
 72
     8
 73
     4
 74
     0
 42
0.0000000001
 43
0.0000000001
 40
0.0
 40
0.0
 40
0.0
 40
0.0
 40
1.0
 40
1.0
 40
1.0
 40
1.0
 10
84.25847841534799
 20
154.214633488518
 30
0.0
 10
84.25847841534799
 20
154.3250488716607
 30
0.0
 10
84.16993940296838
 20
154.4144491584798
 30
0.0
 10
84.05900725516202
 20
154.4144491584798
 30
0.0
  0
SPLINE
  5
117
330
1F
100
AcDbEntity
  8
0
 62
     7
100
AcDbSpline
210
0.0
220
0.0
230
1.0
 70
     8
 71
     3
 72
     8
 73
     4
 74
     0
 42
0.0000000001
 43
0.0000000001
 40
0.0
 40
0.0
 40
0.0
 40
0.0
 40
1.0
 40
1.0
 40
1.0
 40
1.0
 10
81.96128723033914
 20
154.4144491584798
 30
0.0
 10
81.85104410208437
 20
154.4144491584798
 30
0.0
 10
81.76164381526526
 20
154.3250488716607
 30
0.0
 10
81.76164381526526
 20
154.214633488518
 30
0.0
  0
POLYLINE
  5
118
330
1F
100
AcDbEntity
  8
0
 62
     7
100
AcDb2dPolyline
 66
     1
 10
0.0
 20
0.0
 30
0.0
  0
VERTEX
  5
119
330
118
100
AcDbEntity
  8
0
 62
     7
100
AcDbVertex
100
AcDb2dVertex
 10
84.25847841534799
 20
154.214633488518
 30
0.0
  0
VERTEX
  5
11A
330
118
100
AcDbEntity
  8
0
 62
     7
100
AcDbVertex
100
AcDb2dVertex
 10
84.25847841534799
 20
153.7450666641079
 30
0.0
  0
SEQEND
  5
11B
330
118
100
AcDbEntity
  8
0
  0
POLYLINE
  5
11C
330
1F
100
AcDbEntity
  8
0
 62
     7
100
AcDb2dPolyline
 66
     1
 10
0.0
 20
0.0
 30
0.0
  0
VERTEX
  5
11D
330
11C
100
AcDbEntity
  8
0
 62
     7
100
AcDbVertex
100
AcDb2dVertex
 10
81.76164381526526
 20
154.214633488518
 30
0.0
  0
VERTEX
  5
11E
330
11C
100
AcDbEntity
  8
0
 62
     7
100
AcDbVertex
100
AcDb2dVertex
 10
81.76164381526526
 20
153.7450666641079
 30
0.0
  0
SEQEND
  5
11F
330
11C
100
AcDbEntity
  8
0
  0
POLYLINE
  5
120
330
1F
100
AcDbEntity
  8
0
 62
     7
100
AcDb2dPolyline
 66
     1
 10
0.0
 20
0.0
 30
0.0
  0
VERTEX
  5
121
330
120
100
AcDbEntity
  8
0
 62
     7
100
AcDbVertex
100
AcDb2dVertex
 10
81.41231090260794
 20
151.5827510563232
 30
0.0
  0
VERTEX
  5
122
330
120
100
AcDbEntity
  8
0
 62
     7
100
AcDbVertex
100
AcDb2dVertex
 10
81.41231090260794
 20
150.6186404487576
 30
0.0
  0
SEQEND
  5
123
330
120
100
AcDbEntity
  8
0
  0
POLYLINE
  5
124
330
1F
100
AcDbEntity
  8
0
 62
     7
100
AcDb2dPolyline
 66
     1
 10
0.0
 20
0.0
 30
0.0
  0
VERTEX
  5
125
330
124
100
AcDbEntity
  8
0
 62
     7
100
AcDbVertex
100
AcDb2dVertex
 10
84.60815583778111
 20
151.5827510563232
 30
0.0
  0
VERTEX
  5
126
330
124
100
AcDbEntity
  8
0
 62
     7
100
AcDbVertex
100
AcDb2dVertex
 10
84.60815583778111
 20
150.6186404487576
 30
0.0
  0
SEQEND
  5
127
330
124
100
AcDbEntity
  8
0
  0
POLYLINE
  5
128
330
1F
100
AcDbEntity
  8
0
 62
     7
100
AcDb2dPolyline
 66
     1
 10
0.0
 20
0.0
 30
0.0
  0
VERTEX
  5
129
330
128
100
AcDbEntity
  8
0
 62
     7
100
AcDbVertex
100
AcDb2dVertex
 10
78.82021934951757
 20
131.8404460994359
 30
0.0
  0
VERTEX
  5
12A
330
128
100
AcDbEntity
  8
0
 62
     7
100
AcDbVertex
100
AcDb2dVertex
 10
87.20558729239632
 20
131.8404460994359
 30
0.0
  0
SEQEND
  5
12B
330
128
100
AcDbEntity
  8
0
  0
POLYLINE
  5
12C
330
1F
100
AcDbEntity
  8
0
 62
     7
100
AcDb2dPolyline
 66
     1
 10
0.0
 20
0.0
 30
0.0
  0
VERTEX
  5
12D
330
12C
100
AcDbEntity
  8
0
 62
     7
100
AcDbVertex
100
AcDb2dVertex
 10
94.27234406841524
 20
144.0912137267476
 30
0.0
  0
VERTEX
  5
12E
330
12C
100
AcDbEntity
  8
0
 62
     7
100
AcDbVertex
100
AcDb2dVertex
 10
90.08224392029433
 20
151.3529630358672
 30
0.0
  0
SEQEND
  5
12F
330
12C
100
AcDbEntity
  8
0
  0
POLYLINE
  5
130
330
1F
100
AcDbEntity
  8
0
 62
     7
100
AcDb2dPolyline
 66
     1
 10
0.0
 20
0.0
 30
0.0
  0
VERTEX
  5
131
330
130
100
AcDbEntity
  8
0
 62
     7
100
AcDbVertex
100
AcDb2dVertex
 10
75.93856732987052
 20
151.3529630358672
 30
0.0
  0
VERTEX
  5
132
330
130
100
AcDbEntity
  8
0
 62
     7
100
AcDbVertex
100
AcDb2dVertex
 10
71.74829492686172
 20
144.1012045102457
 30
0.0
  0
SEQEND
  5
133
330
130
100
AcDbEntity
  8
0
  0
POLYLINE
  5
134
330
1F
100
AcDbEntity
  8
0
  6
AI-LINETYPE-4
 62
     7
100
AcDb2dPolyline
 66
     1
 10
0.0
 20
0.0
 30
0.0
  0
VERTEX
  5
135
330
134
100
AcDbEntity
  8
0
  6
AI-LINETYPE-4
 62
     7
100
AcDbVertex
100
AcDb2dVertex
 10
97.19361471227884
 20
153.9149099835754
 30
0.0
  0
VERTEX
  5
136
330
134
100
AcDbEntity
  8
0
  6
AI-LINETYPE-4
 62
     7
100
AcDbVertex
100
AcDb2dVertex
 10
91.80031417218983
 20
153.9149099835754
 30
0.0
  0
SEQEND
  5
137
330
134
100
AcDbEntity
  8
0
  6
AI-LINETYPE-4
  0
POLYLINE
  5
139
330
1F
100
AcDbEntity
  8
0
  6
AI-LINETYPE-5
 62
     7
100
AcDb2dPolyline
 66
     1
 10
0.0
 20
0.0
 30
0.0
  0
VERTEX
  5
13A
330
139
100
AcDbEntity
  8
0
  6
AI-LINETYPE-5
 62
     7
100
AcDbVertex
100
AcDb2dVertex
 10
94.49713669712223
 20
156.6120770182836
 30
0.0
  0
VERTEX
  5
13B
330
139
100
AcDbEntity
  8
0
  6
AI-LINETYPE-5
 62
     7
100
AcDbVertex
100
AcDb2dVertex
 10
94.49713669712223
 20
151.218087458643
 30
0.0
  0
SEQEND
  5
13C
330
139
100
AcDbEntity
  8
0
  6
AI-LINETYPE-5
  0
POLYLINE
  5
13E
330
1F
100
AcDbEntity
  8
0
  6
AI-LINETYPE-6
 62
     7
100
AcDb2dPolyline
 66
     1
 10
0.0
 20
0.0
 30
0.0
  0
VERTEX
  5
13F
330
13E
100
AcDbEntity
  8
0
  6
AI-LINETYPE-6
 62
     7
100
AcDbVertex
100
AcDb2dVertex
 10
68.82685202811021
 20
153.9149099835754
 30
0.0
  0
VERTEX
  5
140
330
13E
100
AcDbEntity
  8
0
  6
AI-LINETYPE-6
 62
     7
100
AcDbVertex
100
AcDb2dVertex
 10
74.22066933286293
 20
153.9149099835754
 30
0.0
  0
SEQEND
  5
141
330
13E
100
AcDbEntity
  8
0
  6
AI-LINETYPE-6
  0
POLYLINE
  5
143
330
1F
100
AcDbEntity
  8
0
  6
AI-LINETYPE-7
 62
     7
100
AcDb2dPolyline
 66
     1
 10
0.0
 20
0.0
 30
0.0
  0
VERTEX
  5
144
330
143
100
AcDbEntity
  8
0
  6
AI-LINETYPE-7
 62
     7
100
AcDbVertex
100
AcDb2dVertex
 10
71.52367455304261
 20
156.6120770182836
 30
0.0
  0
VERTEX
  5
145
330
143
100
AcDbEntity
  8
0
  6
AI-LINETYPE-7
 62
     7
100
AcDbVertex
100
AcDb2dVertex
 10
71.52367455304261
 20
151.218087458643
 30
0.0
  0
SEQEND
  5
146
330
143
100
AcDbEntity
  8
0
  6
AI-LINETYPE-7
  0
POLYLINE
  5
148
330
1F
100
AcDbEntity
  8
0
  6
AI-LINETYPE-8
 62
     7
100
AcDb2dPolyline
 66
     1
 10
0.0
 20
0.0
 30
0.0
  0
VERTEX
  5
149
330
148
100
AcDbEntity
  8
0
  6
AI-LINETYPE-8
 62
     7
100
AcDbVertex
100
AcDb2dVertex
 10
97.19361471227884
 20
130.9416200943837
 30
0.0
  0
VERTEX
  5
14A
330
148
100
AcDbEntity
  8
0
  6
AI-LINETYPE-8
 62
     7
100
AcDbVertex
100
AcDb2dVertex
 10
91.80031417218983
 20
130.9416200943837
 30
0.0
  0
SEQEND
  5
14B
330
148
100
AcDbEntity
  8
0
  6
AI-LINETYPE-8
  0
POLYLINE
  5
14D
330
1F
100
AcDbEntity
  8
0
  6
AI-LINETYPE-9
 62
     7
100
AcDb2dPolyline
 66
     1
 10
0.0
 20
0.0
 30
0.0
  0
VERTEX
  5
14E
330
14D
100
AcDbEntity
  8
0
  6
AI-LINETYPE-9
 62
     7
100
AcDbVertex
100
AcDb2dVertex
 10
94.49713669712223
 20
128.2444530596754
 30
0.0
  0
VERTEX
  5
14F
330
14D
100
AcDbEntity
  8
0
  6
AI-LINETYPE-9
 62
     7
100
AcDbVertex
100
AcDb2dVertex
 10
94.49713669712223
 20
133.6384426193161
 30
0.0
  0
SEQEND
  5
150
330
14D
100
AcDbEntity
  8
0
  6
AI-LINETYPE-9
  0
POLYLINE
  5
152
330
1F
100
AcDbEntity
  8
0
  6
AI-LINETYPE-10
 62
     7
100
AcDb2dPolyline
 66
     1
 10
0.0
 20
0.0
 30
0.0
  0
VERTEX
  5
153
330
152
100
AcDbEntity
  8
0
  6
AI-LINETYPE-10
 62
     7
100
AcDbVertex
100
AcDb2dVertex
 10
68.82685202811021
 20
130.9416200943837
 30
0.0
  0
VERTEX
  5
154
330
152
100
AcDbEntity
  8
0
  6
AI-LINETYPE-10
 62
     7
100
AcDbVertex
100
AcDb2dVertex
 10
74.22066933286293
 20
130.9416200943837
 30
0.0
  0
SEQEND
  5
155
330
152
100
AcDbEntity
  8
0
  6
AI-LINETYPE-10
  0
POLYLINE
  5
157
330
1F
100
AcDbEntity
  8
0
  6
AI-LINETYPE-11
 62
     7
100
AcDb2dPolyline
 66
     1
 10
0.0
 20
0.0
 30
0.0
  0
VERTEX
  5
158
330
157
100
AcDbEntity
  8
0
  6
AI-LINETYPE-11
 62
     7
100
AcDbVertex
100
AcDb2dVertex
 10
71.52367455304261
 20
128.2444530596754
 30
0.0
  0
VERTEX
  5
159
330
157
100
AcDbEntity
  8
0
  6
AI-LINETYPE-11
 62
     7
100
AcDbVertex
100
AcDb2dVertex
 10
71.52367455304261
 20
133.6384426193161
 30
0.0
  0
SEQEND
  5
15A
330
157
100
AcDbEntity
  8
0
  6
AI-LINETYPE-11
  0
MTEXT
  5
15C
330
1F
100
AcDbEntity
  8
0
 62
     7
100
AcDbMText
 10
62.7217942912263
 20
166.0943640872973
 30
0.0
 40
3.146164243541231
 41
0.0
 71
     7
 72
     1
  1
\fMS Gothic|b0|i0|c0|p34;\W1;FA-20*-RM
  0
ENDSEC
  0
SECTION
  2
OBJECTS
  0
DICTIONARY
  5
C
330
0
100
AcDbDictionary
  3
ACAD_GROUP
350
D
  3
ACAD_LAYOUT
350
1A
  3
ACAD_MLINESTYLE
350
17
  3
ACAD_PLOTSETTINGS
350
19
  3
ACAD_TABLESTYLE
350
15D
  3
ACAD_VISUALSTYLE
350
2A
  3
ACDBHEADERROUNDTRIPXREC
350
15E
  0
DICTIONARY
  5
17E
330
29
100
AcDbDictionary
280
     1
  3
ACAD_XREC_ROUNDTRIP
360
17F
  0
DICTIONARY
  5
D
102
{ACAD_REACTORS
330
C
102
}
330
C
100
AcDbDictionary
  0
DICTIONARY
  5
1A
102
{ACAD_REACTORS
330
C
102
}
330
C
100
AcDbDictionary
  0
DICTIONARY
  5
17
102
{ACAD_REACTORS
330
C
102
}
330
C
100
AcDbDictionary
  3
STANDARD
350
18
  0
DICTIONARY
  5
19
102
{ACAD_REACTORS
330
C
102
}
330
C
100
AcDbDictionary
  0
DICTIONARY
  5
15D
102
{ACAD_REACTORS
330
C
102
}
330
C
100
AcDbDictionary
  0
DICTIONARY
  5
2A
102
{ACAD_REACTORS
330
C
102
}
330
C
100
AcDbDictionary
  3
2DWIREFRAME
350
2F
  3
3D_HIDDEN
350
31
  3
3DWIREFRAME
350
30
  3
BASIC
350
32
  3
BRIGHTEN
350
36
  3
COLORCHANGE
350
3A
  3
CONCEPTUAL
350
34
  3
DIM
350
35
  3
FACEPATTERN
350
39
  3
FLAT
350
2B
  3
FLATWITHEDGES
350
2C
  3
GOURAUD
350
2D
  3
GOURAUDWITHEDGES
350
2E
  3
LINEPATTERN
350
38
  3
REALISTIC
350
33
  3
THICKEN
350
37
  0
DICTIONARY
  5
15E
102
{ACAD_REACTORS
330
C
102
}
330
C
100
AcDbDictionary
  3
CEPSNTYPE
350
167
  3
DIMSTYLEDATA
350
17D
  3
FINGERPRINTGUID
350
168
  3
HYPERLINKBASE
350
161
  3
INSUNITS
350
166
  3
LAYOUTDICT
350
163
  3
LWETCUNION
350
165
  3
PLOTSETDICT
350
164
  3
PSVPSCALE
350
16A
  3
PUCSBASE
350
16D
  3
PUCSORGBACK
350
173
  3
PUCSORGBOTTOM
350
16F
  3
PUCSORGFRONT
350
172
  3
PUCSORGLEFT
350
170
  3
PUCSORGRIGHT
350
171
  3
PUCSORGTOP
350
16E
  3
PUCSORTHOREF
350
16B
  3
PUCSORTHOVIEW
350
16C
  3
STYLESHEET
350
162
  3
TSTACKALIGN
350
15F
  3
TSTACKSIZE
350
160
  3
UCSBASE
350
176
  3
UCSORGBACK
350
17C
  3
UCSORGBOTTOM
350
178
  3
UCSORGFRONT
350
17B
  3
UCSORGLEFT
350
179
  3
UCSORGRIGHT
350
17A
  3
UCSORGTOP
350
177
  3
UCSORTHOREF
350
174
  3
UCSORTHOVIEW
350
175
  3
VERSIONGUID
350
169
  0
XRECORD
  5
17F
102
{ACAD_REACTORS
330
17E
102
}
330
17E
100
AcDbXrecord
102
UCS
 74
     0
 71
     1
 10
0.0
 20
0.0
 30
0.0
 10
1.0
 20
0.0
 30
0.0
 10
0.0
 20
1.0
 30
0.0
146
0.0
 79
     0
102
VIEW
281
     0
  0
MLINESTYLE
  5
18
102
{ACAD_REACTORS
330
17
102
}
330
17
100
AcDbMlineStyle
  2
Standard
 70
     0
  3

 62
   256
 51
90.0
 52
90.0
 71
     2
 49
0.5
 62
   256
  6
BYLAYER
 49
-0.5
 62
   256
  6
BYLAYER
  0
ACAD_PROXY_OBJECT_WRAPPER
  5
2F
102
{ACAD_REACTORS
330
2A
102
}
330
2A
100
AcDbVisualStyle
  2
2dWireframe
 70
     4
 71
     0
 72
     2
 73
     0
 90
        0
 40
-0.6
 41
-30.0
 62
     5
 63
     7
421
 16777215
 74
     1
 91
        4
 64
     7
 65
   257
 75
     1
175
     1
 42
1.0
 92
        0
 66
   257
 43
1.0
 76
     1
 77
     6
 78
     2
 67
     7
 79
     5
170
     0
171
     0
290
     0
174
     0
 93
        1
 44
0.0
173
     0
291
     0
 45
0.0
1001
ACAD
1000
AcDbSavedByObjectVersion
1070
     0
1000
AcadProxyRoundTripData
1071
      501
1071
       25
1070
     1
  0
ACAD_PROXY_OBJECT_WRAPPER
  5
31
102
{ACAD_REACTORS
330
2A
102
}
330
2A
100
AcDbVisualStyle
  2
3D Hidden
 70
     6
 71
     1
 72
     2
 73
     2
 90
        0
 40
-0.6
 41
-30.0
 62
     5
 63
     7
421
 16777215
 74
     2
 91
        2
 64
     7
 65
   257
 75
     2
175
     1
 42
40.0
 92
        0
 66
   257
 43
1.0
 76
     1
 77
     6
 78
     2
 67
     7
 79
     3
170
     0
171
     0
290
     0
174
     0
 93
        1
 44
0.0
173
     0
291
     0
 45
0.0
1001
ACAD
1000
AcDbSavedByObjectVersion
1070
     0
1000
AcadProxyRoundTripData
1071
      501
1071
       25
1070
     1
  0
ACAD_PROXY_OBJECT_WRAPPER
  5
30
102
{ACAD_REACTORS
330
2A
102
}
330
2A
100
AcDbVisualStyle
  2
3dWireframe
 70
     5
 71
     0
 72
     2
 73
     0
 90
        0
 40
-0.6
 41
-30.0
 62
     5
 63
     7
421
 16777215
 74
     1
 91
        4
 64
     7
 65
   257
 75
     1
175
     1
 42
1.0
 92
        0
 66
   257
 43
1.0
 76
     1
 77
     6
 78
     2
 67
     7
 79
     5
170
     0
171
     0
290
     0
174
     0
 93
        1
 44
0.0
173
     0
291
     0
 45
0.0
1001
ACAD
1000
AcDbSavedByObjectVersion
1070
     0
1000
AcadProxyRoundTripData
1071
      501
1071
       25
1070
     1
  0
ACAD_PROXY_OBJECT_WRAPPER
  5
32
102
{ACAD_REACTORS
330
2A
102
}
330
2A
100
AcDbVisualStyle
  2
Basic
 70
     7
 71
     1
 72
     0
 73
     1
 90
        0
 40
-0.6
 41
-30.0
 62
     5
 63
     7
421
 16777215
 74
     0
 91
        4
 64
     7
 65
   257
 75
     1
175
     1
 42
1.0
 92
        8
 66
     7
 43
1.0
 76
     1
 77
     6
 78
     2
 67
     7
 79
     5
170
     0
171
     0
290
     0
174
     0
 93
        1
 44
0.0
173
     0
291
     1
 45
0.0
1001
ACAD
1000
AcDbSavedByObjectVersion
1070
     0
1000
AcadProxyRoundTripData
1071
      501
1071
       25
1070
     1
  0
ACAD_PROXY_OBJECT_WRAPPER
  5
36
102
{ACAD_REACTORS
330
2A
102
}
330
2A
100
AcDbVisualStyle
  2
Brighten
 70
    12
 71
     2
 72
     2
 73
     0
 90
        0
 40
-0.6
 41
-30.0
 62
     5
 63
     7
421
 16777215
 74
     1
 91
        4
 64
     7
 65
   257
 75
     1
175
     1
 42
1.0
 92
        8
 66
     7
 43
1.0
 76
     1
 77
     6
 78
     2
 67
     7
 79
     5
170
     0
171
     0
290
     0
174
     0
 93
        1
 44
50.0
173
     0
291
     1
 45
0.0
1001
ACAD
1000
AcDbSavedByObjectVersion
1070
     0
1000
AcadProxyRoundTripData
1071
      501
1071
       25
1070
     1
  0
ACAD_PROXY_OBJECT_WRAPPER
  5
3A
102
{ACAD_REACTORS
330
2A
102
}
330
2A
100
AcDbVisualStyle
  2
ColorChange
 70
    16
 71
     2
 72
     2
 73
     3
 90
        0
 40
-0.6
 41
-30.0
 62
     5
 63
     8
421
  8421504
 74
     1
 91
        4
 64
     7
 65
   257
 75
     1
175
     1
 42
1.0
 92
        8
 66
     8
424
  8421504
 43
1.0
 76
     1
 77
     6
 78
     2
 67
     7
 79
     5
170
     0
171
     0
290
     0
174
     0
 93
        1
 44
0.0
173
     0
291
     1
 45
0.0
1001
ACAD
1000
AcDbSavedByObjectVersion
1070
     0
1000
AcadProxyRoundTripData
1071
      501
1071
       25
1070
     1
  0
ACAD_PROXY_OBJECT_WRAPPER
  5
34
102
{ACAD_REACTORS
330
2A
102
}
330
2A
100
AcDbVisualStyle
  2
Conceptual
 70
     9
 71
     3
 72
     2
 73
     0
 90
        0
 40
-0.6
 41
-30.0
 62
     5
 63
     7
421
 16777215
 74
     2
 91
        2
 64
     7
 65
   257
 75
     1
175
     1
 42
40.0
 92
        8
 66
     7
 43
1.0
 76
     1
 77
     6
 78
     2
 67
     7
 79
     3
170
     0
171
     0
290
     0
174
     0
 93
        1
 44
0.0
173
     0
291
     0
 45
0.0
1001
ACAD
1000
AcDbSavedByObjectVersion
1070
     0
1000
AcadProxyRoundTripData
1071
      501
1071
       25
1070
     1
  0
ACAD_PROXY_OBJECT_WRAPPER
  5
35
102
{ACAD_REACTORS
330
2A
102
}
330
2A
100
AcDbVisualStyle
  2
Dim
 70
    11
 71
     2
 72
     2
 73
     0
 90
        0
 40
-0.6
 41
-30.0
 62
     5
 63
     7
421
 16777215
 74
     1
 91
        4
 64
     7
 65
   257
 75
     1
175
     1
 42
1.0
 92
        8
 66
     7
 43
1.0
 76
     1
 77
     6
 78
     2
 67
     7
 79
     5
170
     0
171
     0
290
     0
174
     0
 93
        1
 44
-50.0
173
     0
291
     1
 45
0.0
1001
ACAD
1000
AcDbSavedByObjectVersion
1070
     0
1000
AcadProxyRoundTripData
1071
      501
1071
       25
1070
     1
  0
ACAD_PROXY_OBJECT_WRAPPER
  5
39
102
{ACAD_REACTORS
330
2A
102
}
330
2A
100
AcDbVisualStyle
  2
Facepattern
 70
    15
 71
     2
 72
     2
 73
     0
 90
        0
 40
-0.6
 41
-30.0
 62
     5
 63
     7
421
 16777215
 74
     1
 91
        4
 64
     7
 65
   257
 75
     1
175
     1
 42
1.0
 92
        8
 66
     7
 43
1.0
 76
     1
 77
     6
 78
     2
 67
     7
 79
     5
170
     0
171
     0
290
     0
174
     0
 93
        1
 44
0.0
173
     0
291
     1
 45
0.0
1001
ACAD
1000
AcDbSavedByObjectVersion
1070
     0
1000
AcadProxyRoundTripData
1071
      501
1071
       25
1070
     1
  0
ACAD_PROXY_OBJECT_WRAPPER
  5
2B
102
{ACAD_REACTORS
330
2A
102
}
330
2A
100
AcDbVisualStyle
  2
Flat
 70
     0
 71
     2
 72
     1
 73
     1
 90
        2
 40
-0.6
 41
30.0
 62
     5
 63
     7
421
 16777215
 74
     0
 91
        4
 64
     7
 65
   257
 75
     1
175
     1
 42
1.0
 92
        8
 66
     7
 43
1.0
 76
     1
 77
     6
 78
     2
 67
     7
 79
     5
170
     0
171
     0
290
     0
174
     0
 93
       13
 44
0.0
173
     0
291
     1
 45
0.0
1001
ACAD
1000
AcDbSavedByObjectVersion
1070
     0
1000
AcadProxyRoundTripData
1071
      501
1071
       25
1070
     1
  0
ACAD_PROXY_OBJECT_WRAPPER
  5
2C
102
{ACAD_REACTORS
330
2A
102
}
330
2A
100
AcDbVisualStyle
  2
FlatWithEdges
 70
     1
 71
     2
 72
     1
 73
     1
 90
        2
 40
-0.6
 41
30.0
 62
     5
 63
     7
421
 16777215
 74
     1
 91
        4
 64
     7
 65
   257
 75
     1
175
     1
 42
1.0
 92
        0
 66
   257
 43
1.0
 76
     1
 77
     6
 78
     2
 67
     7
 79
     5
170
     0
171
     0
290
     0
174
     0
 93
       13
 44
0.0
173
     0
291
     1
 45
0.0
1001
ACAD
1000
AcDbSavedByObjectVersion
1070
     0
1000
AcadProxyRoundTripData
1071
      501
1071
       25
1070
     1
  0
ACAD_PROXY_OBJECT_WRAPPER
  5
2D
102
{ACAD_REACTORS
330
2A
102
}
330
2A
100
AcDbVisualStyle
  2
Gouraud
 70
     2
 71
     2
 72
     2
 73
     1
 90
        2
 40
-0.6
 41
30.0
 62
     5
 63
     7
421
 16777215
 74
     0
 91
        4
 64
     7
 65
   257
 75
     1
175
     1
 42
1.0
 92
        0
 66
     7
 43
1.0
 76
     1
 77
     6
 78
     2
 67
     7
 79
     5
170
     0
171
     0
290
     0
174
     0
 93
       13
 44
0.0
173
     0
291
     1
 45
0.0
1001
ACAD
1000
AcDbSavedByObjectVersion
1070
     0
1000
AcadProxyRoundTripData
1071
      501
1071
       25
1070
     1
  0
ACAD_PROXY_OBJECT_WRAPPER
  5
2E
102
{ACAD_REACTORS
330
2A
102
}
330
2A
100
AcDbVisualStyle
  2
GouraudWithEdges
 70
     3
 71
     2
 72
     2
 73
     1
 90
        2
 40
-0.6
 41
30.0
 62
     5
 63
     7
421
 16777215
 74
     1
 91
        4
 64
     7
 65
   257
 75
     1
175
     1
 42
1.0
 92
        0
 66
   257
 43
1.0
 76
     1
 77
     6
 78
     2
 67
     7
 79
     5
170
     0
171
     0
290
     0
174
     0
 93
       13
 44
0.0
173
     0
291
     1
 45
0.0
1001
ACAD
1000
AcDbSavedByObjectVersion
1070
     0
1000
AcadProxyRoundTripData
1071
      501
1071
       25
1070
     1
  0
ACAD_PROXY_OBJECT_WRAPPER
  5
38
102
{ACAD_REACTORS
330
2A
102
}
330
2A
100
AcDbVisualStyle
  2
Linepattern
 70
    14
 71
     2
 72
     2
 73
     0
 90
        0
 40
-0.6
 41
-30.0
 62
     5
 63
     7
421
 16777215
 74
     1
 91
        4
 64
     7
 65
   257
 75
     7
175
     7
 42
1.0
 92
        8
 66
     7
 43
1.0
 76
     1
 77
     6
 78
     2
 67
     7
 79
     5
170
     0
171
     0
290
     0
174
     0
 93
        1
 44
0.0
173
     0
291
     1
 45
0.0
1001
ACAD
1000
AcDbSavedByObjectVersion
1070
     0
1000
AcadProxyRoundTripData
1071
      501
1071
       25
1070
     1
  0
ACAD_PROXY_OBJECT_WRAPPER
  5
33
102
{ACAD_REACTORS
330
2A
102
}
330
2A
100
AcDbVisualStyle
  2
Realistic
 70
     8
 71
     2
 72
     2
 73
     0
 90
        0
 40
-0.6
 41
-30.0
 62
     5
 63
     7
421
 16777215
 74
     1
 91
        0
 64
     7
 65
   257
 75
     1
175
     1
 42
1.0
 92
        8
 66
     8
424
  7895160
 43
1.0
 76
     1
 77
     6
 78
     2
 67
     7
 79
     5
170
     0
171
     0
290
     0
174
     0
 93
       13
 44
0.0
173
     0
291
     0
 45
0.0
1001
ACAD
1000
AcDbSavedByObjectVersion
1070
     0
1000
AcadProxyRoundTripData
1071
      501
1071
       25
1070
     1
  0
ACAD_PROXY_OBJECT_WRAPPER
  5
37
102
{ACAD_REACTORS
330
2A
102
}
330
2A
100
AcDbVisualStyle
  2
Thicken
 70
    13
 71
     2
 72
     2
 73
     0
 90
        0
 40
-0.6
 41
-30.0
 62
     5
 63
     7
421
 16777215
 74
     1
 91
        4
 64
     7
 65
   257
 75
     1
175
     1
 42
1.0
 92
       12
 66
     7
 43
1.0
 76
     1
 77
     6
 78
     2
 67
     7
 79
     5
170
     0
171
     0
290
     0
174
     0
 93
        1
 44
0.0
173
     0
291
     1
 45
0.0
1001
ACAD
1000
AcDbSavedByObjectVersion
1070
     0
1000
AcadProxyRoundTripData
1071
      501
1071
       25
1070
     1
  0
XRECORD
  5
167
102
{ACAD_REACTORS
330
15E
102
}
330
15E
100
AcDbXrecord
 90
        0
  0
XRECORD
  5
17D
102
{ACAD_REACTORS
330
15E
102
}
330
15E
100
AcDbXrecord
1000
DSTYLE
1002
{
1070
   340
340
11
1002
}
  0
XRECORD
  5
168
102
{ACAD_REACTORS
330
15E
102
}
330
15E
100
AcDbXrecord
  1
{6B48F971-86DE-49D0-A804-FED17E082EEE}
  0
XRECORD
  5
161
102
{ACAD_REACTORS
330
15E
102
}
330
15E
100
AcDbXrecord
  1

  0
XRECORD
  5
166
102
{ACAD_REACTORS
330
15E
102
}
330
15E
100
AcDbXrecord
 90
        1
  0
XRECORD
  5
163
102
{ACAD_REACTORS
330
15E
102
}
330
15E
100
AcDbXrecord
340
1A
  0
XRECORD
  5
165
102
{ACAD_REACTORS
330
15E
102
}
330
15E
100
AcDbXrecord
 90
    10269
  0
XRECORD
  5
164
102
{ACAD_REACTORS
330
15E
102
}
330
15E
100
AcDbXrecord
340
19
  0
XRECORD
  5
16A
102
{ACAD_REACTORS
330
15E
102
}
330
15E
100
AcDbXrecord
 40
0.0
  0
XRECORD
  5
16D
102
{ACAD_REACTORS
330
15E
102
}
330
15E
100
AcDbXrecord
340
0
  0
XRECORD
  5
173
102
{ACAD_REACTORS
330
15E
102
}
330
15E
100
AcDbXrecord
 10
0.0
 20
0.0
 30
0.0
  0
XRECORD
  5
16F
102
{ACAD_REACTORS
330
15E
102
}
330
15E
100
AcDbXrecord
 10
0.0
 20
0.0
 30
0.0
  0
XRECORD
  5
172
102
{ACAD_REACTORS
330
15E
102
}
330
15E
100
AcDbXrecord
 10
0.0
 20
0.0
 30
0.0
  0
XRECORD
  5
170
102
{ACAD_REACTORS
330
15E
102
}
330
15E
100
AcDbXrecord
 10
0.0
 20
0.0
 30
0.0
  0
XRECORD
  5
171
102
{ACAD_REACTORS
330
15E
102
}
330
15E
100
AcDbXrecord
 10
0.0
 20
0.0
 30
0.0
  0
XRECORD
  5
16E
102
{ACAD_REACTORS
330
15E
102
}
330
15E
100
AcDbXrecord
 10
0.0
 20
0.0
 30
0.0
  0
XRECORD
  5
16B
102
{ACAD_REACTORS
330
15E
102
}
330
15E
100
AcDbXrecord
340
0
  0
XRECORD
  5
16C
102
{ACAD_REACTORS
330
15E
102
}
330
15E
100
AcDbXrecord
 70
     0
  0
XRECORD
  5
162
102
{ACAD_REACTORS
330
15E
102
}
330
15E
100
AcDbXrecord
  1

  0
XRECORD
  5
15F
102
{ACAD_REACTORS
330
15E
102
}
330
15E
100
AcDbXrecord
 90
        1
  0
XRECORD
  5
160
102
{ACAD_REACTORS
330
15E
102
}
330
15E
100
AcDbXrecord
 90
       70
  0
XRECORD
  5
176
102
{ACAD_REACTORS
330
15E
102
}
330
15E
100
AcDbXrecord
340
0
  0
XRECORD
  5
17C
102
{ACAD_REACTORS
330
15E
102
}
330
15E
100
AcDbXrecord
 10
0.0
 20
0.0
 30
0.0
  0
XRECORD
  5
178
102
{ACAD_REACTORS
330
15E
102
}
330
15E
100
AcDbXrecord
 10
0.0
 20
0.0
 30
0.0
  0
XRECORD
  5
17B
102
{ACAD_REACTORS
330
15E
102
}
330
15E
100
AcDbXrecord
 10
0.0
 20
0.0
 30
0.0
  0
XRECORD
  5
179
102
{ACAD_REACTORS
330
15E
102
}
330
15E
100
AcDbXrecord
 10
0.0
 20
0.0
 30
0.0
  0
XRECORD
  5
17A
102
{ACAD_REACTORS
330
15E
102
}
330
15E
100
AcDbXrecord
 10
0.0
 20
0.0
 30
0.0
  0
XRECORD
  5
177
102
{ACAD_REACTORS
330
15E
102
}
330
15E
100
AcDbXrecord
 10
0.0
 20
0.0
 30
0.0
  0
XRECORD
  5
174
102
{ACAD_REACTORS
330
15E
102
}
330
15E
100
AcDbXrecord
340
0
  0
XRECORD
  5
175
102
{ACAD_REACTORS
330
15E
102
}
330
15E
100
AcDbXrecord
 70
     0
  0
XRECORD
  5
169
102
{ACAD_REACTORS
330
15E
102
}
330
15E
100
AcDbXrecord
  1
{FAEB1C32-E019-11D5-929B-00C0DF256EC4}
  0
ENDSEC
  0
EOF
