  0
SECTION
  2
HEADER
  9
$ACADVER
  1
AC1014
  9
$ACADMAINTVER
 70
     9
  9
$DWGCODEPAGE
  3
ASCII
  9
$INSBASE
 10
0.0
 20
0.0
 30
0.0
  9
$EXTMIN
 10
1.000000000000000E+20
 20
1.000000000000000E+20
 30
1.000000000000000E+20
  9
$EXTMAX
 10
-1.000000000000000E+20
 20
-1.000000000000000E+20
 30
-1.000000000000000E+20
  9
$LIMMIN
 10
0.0
 20
0.0
  9
$LIMMAX
 10
12.0
 20
9.0
  9
$ORTHOMODE
 70
     0
  9
$REGENMODE
 70
     1
  9
$FILLMODE
 70
     1
  9
$QTEXTMODE
 70
     0
  9
$MIRRTEXT
 70
     1
  9
$DRAGMODE
 70
     2
  9
$LTSCALE
 40
1.0
  9
$OSMODE
 70
    37
  9
$ATTMODE
 70
     1
  9
$TEXTSIZE
 40
0.2
  9
$TRACEWID
 40
0.05
  9
$TEXTSTYLE
  7
STANDARD
  9
$CLAYER
  8
0
  9
$CELTYPE
  6
BYLAYER
  9
$CECOLOR
 62
   256
  9
$CELTSCALE
 40
1.0
  9
$DELOBJ
 70
     1
  9
$DISPSILH
 70
     0
  9
$DIMSCALE
 40
1.0
  9
$DIMASZ
 40
0.18
  9
$DIMEXO
 40
0.0625
  9
$DIMDLI
 40
0.38
  9
$DIMRND
 40
0.0
  9
$DIMDLE
 40
0.0
  9
$DIMEXE
 40
0.18
  9
$DIMTP
 40
0.0
  9
$DIMTM
 40
0.0
  9
$DIMTXT
 40
0.18
  9
$DIMCEN
 40
0.09
  9
$DIMTSZ
 40
0.0
  9
$DIMTOL
 70
     0
  9
$DIMLIM
 70
     0
  9
$DIMTIH
 70
     1
  9
$DIMTOH
 70
     1
  9
$DIMSE1
 70
     0
  9
$DIMSE2
 70
     0
  9
$DIMTAD
 70
     0
  9
$DIMZIN
 70
     0
  9
$DIMBLK
  1

  9
$DIMASO
 70
     1
  9
$DIMSHO
 70
     1
  9
$DIMPOST
  1

  9
$DIMAPOST
  1

  9
$DIMALT
 70
     0
  9
$DIMALTD
 70
     2
  9
$DIMALTF
 40
25.4
  9
$DIMLFAC
 40
1.0
  9
$DIMTOFL
 70
     0
  9
$DIMTVP
 40
0.0
  9
$DIMTIX
 70
     0
  9
$DIMSOXD
 70
     0
  9
$DIMSAH
 70
     0
  9
$DIMBLK1
  1

  9
$DIMBLK2
  1

  9
$DIMSTYLE
  2
STANDARD
  9
$DIMCLRD
 70
     0
  9
$DIMCLRE
 70
     0
  9
$DIMCLRT
 70
     0
  9
$DIMTFAC
 40
1.0
  9
$DIMGAP
 40
0.09
  9
$DIMJUST
 70
     0
  9
$DIMSD1
 70
     0
  9
$DIMSD2
 70
     0
  9
$DIMTOLJ
 70
     1
  9
$DIMTZIN
 70
     0
  9
$DIMALTZ
 70
     0
  9
$DIMALTTZ
 70
     0
  9
$DIMFIT
 70
     3
  9
$DIMUPT
 70
     0
  9
$DIMUNIT
 70
     2
  9
$DIMDEC
 70
     4
  9
$DIMTDEC
 70
     4
  9
$DIMALTU
 70
     2
  9
$DIMALTTD
 70
     2
  9
$DIMTXSTY
  7
STANDARD
  9
$DIMAUNIT
 70
     0
  9
$LUNITS
 70
     2
  9
$LUPREC
 70
     4
  9
$SKETCHINC
 40
0.1
  9
$FILLETRAD
 40
0.5
  9
$AUNITS
 70
     0
  9
$AUPREC
 70
     0
  9
$MENU
  1
.
  9
$ELEVATION
 40
0.0
  9
$PELEVATION
 40
0.0
  9
$THICKNESS
 40
0.0
  9
$LIMCHECK
 70
     0
  9
$CHAMFERA
 40
0.5
  9
$CHAMFERB
 40
0.5
  9
$CHAMFERC
 40
1.0
  9
$CHAMFERD
 40
0.0
  9
$SKPOLY
 70
     0
  9
$TDCREATE
 40
2456674.772971782
  9
$TDUPDATE
 40
2456674.772971794
  9
$TDINDWG
 40
0.0000000116
  9
$TDUSRTIMER
 40
0.0000000116
  9
$USRTIMER
 70
     1
  9
$ANGBASE
 50
0.0
  9
$ANGDIR
 70
     0
  9
$PDMODE
 70
     0
  9
$PDSIZE
 40
0.0
  9
$PLINEWID
 40
0.0
  9
$COORDS
 70
     1
  9
$SPLFRAME
 70
     0
  9
$SPLINETYPE
 70
     6
  9
$SPLINESEGS
 70
     8
  9
$ATTDIA
 70
     0
  9
$ATTREQ
 70
     1
  9
$HANDLING
 70
     1
  9
$HANDSEED
  5
181
  9
$SURFTAB1
 70
     6
  9
$SURFTAB2
 70
     6
  9
$SURFTYPE
 70
     6
  9
$SURFU
 70
     6
  9
$SURFV
 70
     6
  9
$UCSNAME
  2

  9
$UCSORG
 10
0.0
 20
0.0
 30
0.0
  9
$UCSXDIR
 10
1.0
 20
0.0
 30
0.0
  9
$UCSYDIR
 10
0.0
 20
1.0
 30
0.0
  9
$PUCSNAME
  2

  9
$PUCSORG
 10
0.0
 20
0.0
 30
0.0
  9
$PUCSXDIR
 10
1.0
 20
0.0
 30
0.0
  9
$PUCSYDIR
 10
0.0
 20
1.0
 30
0.0
  9
$USERI1
 70
     0
  9
$USERI2
 70
     0
  9
$USERI3
 70
     0
  9
$USERI4
 70
     0
  9
$USERI5
 70
     0
  9
$USERR1
 40
0.0
  9
$USERR2
 40
0.0
  9
$USERR3
 40
0.0
  9
$USERR4
 40
0.0
  9
$USERR5
 40
0.0
  9
$WORLDVIEW
 70
     1
  9
$SHADEDGE
 70
     3
  9
$SHADEDIF
 70
    70
  9
$TILEMODE
 70
     1
  9
$MAXACTVP
 70
    64
  9
$PINSBASE
 10
0.0
 20
0.0
 30
0.0
  9
$PLIMCHECK
 70
     0
  9
$PEXTMIN
 10
1.000000000000000E+20
 20
1.000000000000000E+20
 30
1.000000000000000E+20
  9
$PEXTMAX
 10
-1.000000000000000E+20
 20
-1.000000000000000E+20
 30
-1.000000000000000E+20
  9
$PLIMMIN
 10
0.0
 20
0.0
  9
$PLIMMAX
 10
12.0
 20
9.0
  9
$UNITMODE
 70
     0
  9
$VISRETAIN
 70
     1
  9
$PLINEGEN
 70
     0
  9
$PSLTSCALE
 70
     1
  9
$TREEDEPTH
 70
  3020
  9
$PICKSTYLE
 70
     1
  9
$CMLSTYLE
  2
STANDARD
  9
$CMLJUST
 70
     0
  9
$CMLSCALE
 40
1.0
  9
$PROXYGRAPHICS
 70
     1
  9
$MEASUREMENT
 70
     0
  0
ENDSEC
  0
SECTION
  2
CLASSES
  0
CLASS
  1
ACDBDICTIONARYWDFLT
  2
AcDbDictionaryWithDefault
  3
ObjectDBX Classes
 90
        0
280
     0
281
     0
  0
CLASS
  1
VISUALSTYLE
  2
AcDbVisualStyle
  3
ObjectDBX Classes
 90
     4095
280
     1
281
     0
  0
CLASS
  1
ACAD_PROXY_OBJECT_WRAPPER
  2
AcDbProxyObjectWrapper
  3
AutoCAD 2000
 90
        0
280
     0
281
     0
  0
CLASS
  1
XRECORD
  2
AcDbXrecord
  3
AutoCAD 2000
 90
        0
280
     0
281
     0
  0
CLASS
  1
LWPOLYLINE
  2
AcDbPolyline
  3
AutoCAD 2000
 90
        0
280
     0
281
     1
  0
CLASS
  1
HATCH
  2
AcDbHatch
  3
AutoCAD 2000
 90
        0
280
     0
281
     1
  0
CLASS
  1
ACDBPLACEHOLDER
  2
AcDbPlaceHolder
  3
ObjectDBX Classes
 90
        0
280
     0
281
     0
  0
CLASS
  1
LAYOUT
  2
AcDbLayout
  3
ObjectDBX Classes
 90
        0
280
     0
281
     0
  0
ENDSEC
  0
SECTION
  2
TABLES
  0
TABLE
  2
VPORT
  5
8
330
0
100
AcDbSymbolTable
 70
     1
  0
VPORT
  5
29
102
{ACAD_XDICTIONARY
360
17F
102
}
330
8
100
AcDbSymbolTableRecord
100
AcDbViewportTableRecord
  2
*ACTIVE
 70
     0
 10
0.0
 20
0.0
 11
1.0
 21
1.0
 12
0.0
 22
0.0
 13
0.0
 23
0.0
 14
0.5
 24
0.5
 15
0.5
 25
0.5
 16
0.0
 26
0.0
 36
1.0
 17
105.0008091239277
 27
148.5001637099431
 37
0.0
 40
297.0003274198861
 41
0.7070753762199199
 42
50.0
 43
0.0
 44
0.0
 50
0.0
 51
0.0
 71
     0
 72
   100
 73
     1
 74
     3
 75
     0
 76
     0
 77
     0
 78
     0
  0
ENDTAB
  0
TABLE
  2
LTYPE
  5
5
330
0
100
AcDbSymbolTable
 70
    12
  0
LTYPE
  5
14
330
5
100
AcDbSymbolTableRecord
100
AcDbLinetypeTableRecord
  2
BYBLOCK
 70
     0
  3

 72
    65
 73
     0
 40
0.0
  0
LTYPE
  5
15
330
5
100
AcDbSymbolTableRecord
100
AcDbLinetypeTableRecord
  2
BYLAYER
 70
     0
  3

 72
    65
 73
     0
 40
0.0
  0
LTYPE
  5
16
330
5
100
AcDbSymbolTableRecord
100
AcDbLinetypeTableRecord
  2
CONTINUOUS
 70
     0
  3
Solid line
 72
    65
 73
     0
 40
0.0
  0
LTYPE
  5
3C
330
5
100
AcDbSymbolTableRecord
100
AcDbLinetypeTableRecord
  2
AI-LINETYPE-1
 70
     0
  3
Adobe Illustrator Linetype No. 1
 72
    65
 73
     2
 40
2.008695662428308
 49
1.339130105183544
 74
     0
 49
-0.6695655572447637
 74
     0
  0
LTYPE
  5
41
330
5
100
AcDbSymbolTableRecord
100
AcDbLinetypeTableRecord
  2
AI-LINETYPE-2
 70
     0
  3
Adobe Illustrator Linetype No. 2
 72
    65
 73
     2
 40
2.008695662428308
 49
1.339130105183544
 74
     0
 49
-0.6695655572447637
 74
     0
  0
LTYPE
  5
46
330
5
100
AcDbSymbolTableRecord
100
AcDbLinetypeTableRecord
  2
AI-LINETYPE-3
 70
     0
  3
Adobe Illustrator Linetype No. 3
 72
    65
 73
     2
 40
2.008695662428308
 49
1.339130105183544
 74
     0
 49
-0.6695655572447637
 74
     0
  0
LTYPE
  5
138
330
5
100
AcDbSymbolTableRecord
100
AcDbLinetypeTableRecord
  2
AI-LINETYPE-4
 70
     0
  3
Adobe Illustrator Linetype No. 4
 72
    65
 73
     4
 40
37.12857955426489
 49
23.20536297839504
 74
     0
 49
-4.641072191956614
 74
     0
 49
4.641072191956614
 74
     0
 49
-4.641072191956614
 74
     0
  0
LTYPE
  5
13D
330
5
100
AcDbSymbolTableRecord
100
AcDbLinetypeTableRecord
  2
AI-LINETYPE-5
 70
     0
  3
Adobe Illustrator Linetype No. 5
 72
    65
 73
     4
 40
37.12857955426489
 49
23.20536297839504
 74
     0
 49
-4.641072191956614
 74
     0
 49
4.641072191956614
 74
     0
 49
-4.641072191956614
 74
     0
  0
LTYPE
  5
142
330
5
100
AcDbSymbolTableRecord
100
AcDbLinetypeTableRecord
  2
AI-LINETYPE-6
 70
     0
  3
Adobe Illustrator Linetype No. 6
 72
    65
 73
     4
 40
37.12857955426489
 49
23.20536297839504
 74
     0
 49
-4.641072191956614
 74
     0
 49
4.641072191956614
 74
     0
 49
-4.641072191956614
 74
     0
  0
LTYPE
  5
147
330
5
100
AcDbSymbolTableRecord
100
AcDbLinetypeTableRecord
  2
AI-LINETYPE-7
 70
     0
  3
Adobe Illustrator Linetype No. 7
 72
    65
 73
     4
 40
37.12857955426489
 49
23.20536297839504
 74
     0
 49
-4.641072191956614
 74
     0
 49
4.641072191956614
 74
     0
 49
-4.641072191956614
 74
     0
  0
LTYPE
  5
14C
330
5
100
AcDbSymbolTableRecord
100
AcDbLinetypeTableRecord
  2
AI-LINETYPE-8
 70
     0
  3
Adobe Illustrator Linetype No. 8
 72
    65
 73
     4
 40
37.12857955426489
 49
23.20536297839504
 74
     0
 49
-4.641072191956614
 74
     0
 49
4.641072191956614
 74
     0
 49
-4.641072191956614
 74
     0
  0
LTYPE
  5
151
330
5
100
AcDbSymbolTableRecord
100
AcDbLinetypeTableRecord
  2
AI-LINETYPE-9
 70
     0
  3
Adobe Illustrator Linetype No. 9
 72
    65
 73
     4
 40
37.12857955426489
 49
23.20536297839504
 74
     0
 49
-4.641072191956614
 74
     0
 49
4.641072191956614
 74
     0
 49
-4.641072191956614
 74
     0
  0
LTYPE
  5
156
330
5
100
AcDbSymbolTableRecord
100
AcDbLinetypeTableRecord
  2
AI-LINETYPE-10
 70
     0
  3
Adobe Illustrator Linetype No. 10
 72
    65
 73
     4
 40
37.12857955426489
 49
23.20536297839504
 74
     0
 49
-4.641072191956614
 74
     0
 49
4.641072191956614
 74
     0
 49
-4.641072191956614
 74
     0
  0
LTYPE
  5
15B
330
5
100
AcDbSymbolTableRecord
100
AcDbLinetypeTableRecord
  2
AI-LINETYPE-11
 70
     0
  3
Adobe Illustrator Linetype No. 11
 72
    65
 73
     4
 40
37.12857955426489
 49
23.20536297839504
 74
     0
 49
-4.641072191956614
 74
     0
 49
4.641072191956614
 74
     0
 49
-4.641072191956614
 74
     0
  0
ENDTAB
  0
TABLE
  2
LAYER
  5
2
330
0
100
AcDbSymbolTable
 70
     1
  0
LAYER
  5
10
330
2
100
AcDbSymbolTableRecord
100
AcDbLayerTableRecord
  2
0
 70
     0
 62
     7
  6
CONTINUOUS
  0
ENDTAB
  0
TABLE
  2
STYLE
  5
3
330
0
100
AcDbSymbolTable
 70
     1
  0
STYLE
  5
11
330
3
100
AcDbSymbolTableRecord
100
AcDbTextStyleTableRecord
  2
STANDARD
 70
     0
 40
0.0
 41
1.0
 50
0.0
 71
     0
 42
0.2
  3
txt
  4

  0
ENDTAB
  0
TABLE
  2
VIEW
  5
6
330
0
100
AcDbSymbolTable
 70
     0
  0
ENDTAB
  0
TABLE
  2
UCS
  5
7
330
0
100
AcDbSymbolTable
 70
     0
  0
ENDTAB
  0
TABLE
  2
APPID
  5
9
330
0
100
AcDbSymbolTable
 70
     1
  0
APPID
  5
12
330
9
100
AcDbSymbolTableRecord
100
AcDbRegAppTableRecord
  2
ACAD
 70
     0
  0
ENDTAB
  0
TABLE
  2
DIMSTYLE
  5
A
330
0
100
AcDbSymbolTable
 70
     1
  0
DIMSTYLE
105
27
330
A
100
AcDbSymbolTableRecord
100
AcDbDimStyleTableRecord
  2
STANDARD
 70
     0
  3

  4

  5

  6

  7

 40
1.0
 41
0.18
 42
0.0625
 43
0.38
 44
0.18
 45
0.0
 46
0.0
 47
0.0
 48
0.0
140
0.18
141
0.09
142
0.0
143
25.4
144
1.0
145
0.0
146
1.0
147
0.09
 71
     0
 72
     0
 73
     1
 74
     1
 75
     0
 76
     0
 77
     0
 78
     0
170
     0
171
     2
172
     0
173
     0
174
     0
175
     0
176
     0
177
     0
178
     0
270
     2
271
     4
272
     4
273
     2
274
     2
340
11
275
     0
280
     0
281
     0
282
     0
283
     1
284
     0
285
     0
286
     0
287
     3
288
     0
  0
ENDTAB
  0
TABLE
  2
BLOCK_RECORD
  5
1
330
0
100
AcDbSymbolTable
 70
     1
  0
BLOCK_RECORD
  5
1F
330
1
100
AcDbSymbolTableRecord
100
AcDbBlockTableRecord
  2
*MODEL_SPACE
  0
BLOCK_RECORD
  5
1B
330
1
100
AcDbSymbolTableRecord
100
AcDbBlockTableRecord
  2
*PAPER_SPACE
  0
ENDTAB
  0
ENDSEC
  0
SECTION
  2
BLOCKS
  0
BLOCK
  5
20
330
1F
100
AcDbEntity
  8
0
100
AcDbBlockBegin
  2
*MODEL_SPACE
 70
     0
 71
     0
 10
0.0
 20
0.0
 30
0.0
  3
*MODEL_SPACE
  1

  0
ENDBLK
  5
21
330
1F
100
AcDbEntity
  8
0
100
AcDbBlockEnd
  0
BLOCK
  5
1C
330
1B
100
AcDbEntity
 67
     1
  8
0
100
AcDbBlockBegin
  2
*PAPER_SPACE
 70
     0
 71
     0
 10
0.0
 20
0.0
 30
0.0
  3
*PAPER_SPACE
  1

  0
ENDBLK
  5
1D
330
1B
100
AcDbEntity
 67
     1
  8
0
100
AcDbBlockEnd
  0
ENDSEC
  0
SECTION
  2
ENTITIES
  0
SPLINE
  5
3B
330
1F
100
AcDbEntity
  8
0
  6
AI-LINETYPE-1
 62
     7
100
AcDbSpline
210
0.0
220
0.0
230
1.0
 70
     8
 71
     3
 72
     8
 73
     4
 74
     0
 42
0.0000000001
 43
0.0000000001
 40
0.0
 40
0.0
 40
0.0
 40
0.0
 40
1.0
 40
1.0
 40
1.0
 40
1.0
 10
84.22988410395692
 20
152.4355850063066
 30
0.0
 10
84.05125578520661
 20
152.4355850063066
 30
0.0
 10
83.9067339342601
 20
152.570116073755
 30
0.0
 10
83.9067339342601
 20
152.735825275913
 30
0.0
  0
POLYLINE
  5
3D
330
1F
100
AcDbEntity
  8
0
  6
AI-LINETYPE-2
 62
     7
100
AcDb2dPolyline
 66
     1
 10
0.0
 20
0.0
 30
0.0
  0
VERTEX
  5
3E
330
3D
100
AcDbEntity
  8
0
  6
AI-LINETYPE-2
 62
     7
100
AcDbVertex
100
AcDb2dVertex
 10
83.9067339342601
 20
153.0355487808557
 30
0.0
  0
VERTEX
  5
3F
330
3D
100
AcDbEntity
  8
0
  6
AI-LINETYPE-2
 62
     7
100
AcDbVertex
100
AcDb2dVertex
 10
83.9067339342601
 20
152.735825275913
 30
0.0
  0
SEQEND
  5
40
330
3D
100
AcDbEntity
  8
0
  6
AI-LINETYPE-2
  0
POLYLINE
  5
42
330
1F
100
AcDbEntity
  8
0
  6
AI-LINETYPE-3
 62
     7
100
AcDb2dPolyline
 66
     1
 10
0.0
 20
0.0
 30
0.0
  0
VERTEX
  5
43
330
42
100
AcDbEntity
  8
0
  6
AI-LINETYPE-3
 62
     7
100
AcDbVertex
100
AcDb2dVertex
 10
84.22988410395692
 20
152.4355850063066
 30
0.0
  0
VERTEX
  5
44
330
42
100
AcDbEntity
  8
0
  6
AI-LINETYPE-3
 62
     7
100
AcDbVertex
100
AcDb2dVertex
 10
86.06336513074413
 20
152.4355850063066
 30
0.0
  0
SEQEND
  5
45
330
42
100
AcDbEntity
  8
0
  6
AI-LINETYPE-3
  0
POLYLINE
  5
47
330
1F
100
AcDbEntity
  8
0
 62
     7
100
AcDb2dPolyline
 66
     1
 10
0.0
 20
0.0
 30
0.0
  0
VERTEX
  5
48
330
47
100
AcDbEntity
  8
0
 62
     7
100
AcDbVertex
100
AcDb2dVertex
 10
91.99427317596307
 20
149.970617560485
 30
0.0
  0
VERTEX
  5
49
330
47
100
AcDbEntity
  8
0
 62
     7
100
AcDbVertex
100
AcDb2dVertex
 10
96.02279823923557
 20
144.0533176514101
 30
0.0
  0
SEQEND
  5
4A
330
47
100
AcDbEntity
  8
0
  0
POLYLINE
  5
4B
330
1F
100
AcDbEntity
  8
0
 62
     7
100
AcDb2dPolyline
 66
     1
 10
0.0
 20
0.0
 30
0.0
  0
VERTEX
  5
4C
330
4B
100
AcDbEntity
  8
0
 62
     7
100
AcDbVertex
100
AcDb2dVertex
 10
91.99427317596307
 20
142.7104185453566
 30
0.0
  0
VERTEX
  5
4D
330
4B
100
AcDbEntity
  8
0
 62
     7
100
AcDbVertex
100
AcDb2dVertex
 10
96.02279823923557
 20
148.1770996676902
 30
0.0
  0
SEQEND
  5
4E
330
4B
100
AcDbEntity
  8
0
  0
POLYLINE
  5
4F
330
1F
100
AcDbEntity
  8
0
 62
     7
100
AcDb2dPolyline
 66
     1
 10
0.0
 20
0.0
 30
0.0
  0
VERTEX
  5
50
330
4F
100
AcDbEntity
  8
0
 62
     7
100
AcDbVertex
100
AcDb2dVertex
 10
97.38567891228522
 20
151.6855872243984
 30
0.0
  0
VERTEX
  5
51
330
4F
100
AcDbEntity
  8
0
 62
     7
100
AcDbVertex
100
AcDb2dVertex
 10
97.38567891228522
 20
130.4345017044117
 30
0.0
  0
SEQEND
  5
52
330
4F
100
AcDbEntity
  8
0
  0
POLYLINE
  5
53
330
1F
100
AcDbEntity
  8
0
 62
     7
100
AcDb2dPolyline
 66
     1
 10
0.0
 20
0.0
 30
0.0
  0
VERTEX
  5
54
330
53
100
AcDbEntity
  8
0
 62
     7
100
AcDbVertex
100
AcDb2dVertex
 10
97.38567891228522
 20
130.4345017044117
 30
0.0
  0
VERTEX
  5
55
330
53
100
AcDbEntity
  8
0
 62
     7
100
AcDbVertex
100
AcDb2dVertex
 10
90.05296058935166
 20
130.4345017044117
 30
0.0
  0
SEQEND
  5
56
330
53
100
AcDbEntity
  8
0
  0
POLYLINE
  5
57
330
1F
100
AcDbEntity
  8
0
 62
     7
100
AcDb2dPolyline
 66
     1
 10
0.0
 20
0.0
 30
0.0
  0
VERTEX
  5
58
330
57
100
AcDbEntity
  8
0
 62
     7
100
AcDbVertex
100
AcDb2dVertex
 10
90.05296058935166
 20
152.4355850063066
 30
0.0
  0
VERTEX
  5
59
330
57
100
AcDbEntity
  8
0
 62
     7
100
AcDbVertex
100
AcDb2dVertex
 10
90.05296058935166
 20
129.634550005013
 30
0.0
  0
SEQEND
  5
5A
330
57
100
AcDbEntity
  8
0
  0
POLYLINE
  5
5B
330
1F
100
AcDbEntity
  8
0
 62
     7
100
AcDb2dPolyline
 66
     1
 10
0.0
 20
0.0
 30
0.0
  0
VERTEX
  5
5C
330
5B
100
AcDbEntity
  8
0
 62
     7
100
AcDbVertex
100
AcDb2dVertex
 10
90.05296058935166
 20
129.634550005013
 30
0.0
  0
VERTEX
  5
5D
330
5B
100
AcDbEntity
  8
0
 62
     7
100
AcDbVertex
100
AcDb2dVertex
 10
84.22988410395692
 20
129.634550005013
 30
0.0
  0
SEQEND
  5
5E
330
5B
100
AcDbEntity
  8
0
  0
SPLINE
  5
5F
330
1F
100
AcDbEntity
  8
0
 62
     7
100
AcDbSpline
210
0.0
220
0.0
230
1.0
 70
     8
 71
     3
 72
     8
 73
     4
 74
     0
 42
0.0000000001
 43
0.0000000001
 40
0.0
 40
0.0
 40
0.0
 40
0.0
 40
1.0
 40
1.0
 40
1.0
 40
1.0
 10
83.9067339342601
 20
129.3348265000703
 30
0.0
 10
83.9067339342601
 20
129.5005357022283
 30
0.0
 10
84.05125578520661
 20
129.634550005013
 30
0.0
 10
84.22988410395692
 20
129.634550005013
 30
0.0
  0
POLYLINE
  5
60
330
1F
100
AcDbEntity
  8
0
 62
     7
100
AcDb2dPolyline
 66
     1
 10
0.0
 20
0.0
 30
0.0
  0
VERTEX
  5
61
330
60
100
AcDbEntity
  8
0
 62
     7
100
AcDbVertex
100
AcDb2dVertex
 10
83.9067339342601
 20
156.0358844182645
 30
0.0
  0
VERTEX
  5
62
330
60
100
AcDbEntity
  8
0
 62
     7
100
AcDbVertex
100
AcDb2dVertex
 10
83.9067339342601
 20
126.0351118674946
 30
0.0
  0
SEQEND
  5
63
330
60
100
AcDbEntity
  8
0
  0
POLYLINE
  5
64
330
1F
100
AcDbEntity
  8
0
 62
     7
100
AcDb2dPolyline
 66
     1
 10
0.0
 20
0.0
 30
0.0
  0
VERTEX
  5
65
330
64
100
AcDbEntity
  8
0
 62
     7
100
AcDbVertex
100
AcDb2dVertex
 10
83.9067339342601
 20
126.0351118674946
 30
0.0
  0
VERTEX
  5
66
330
64
100
AcDbEntity
  8
0
 62
     7
100
AcDbVertex
100
AcDb2dVertex
 10
80.67178713953408
 20
126.0351118674946
 30
0.0
  0
SEQEND
  5
67
330
64
100
AcDbEntity
  8
0
  0
POLYLINE
  5
68
330
1F
100
AcDbEntity
  8
0
 62
     7
100
AcDb2dPolyline
 66
     1
 10
0.0
 20
0.0
 30
0.0
  0
VERTEX
  5
69
330
68
100
AcDbEntity
  8
0
 62
     7
100
AcDbVertex
100
AcDb2dVertex
 10
80.67178713953408
 20
126.0351118674946
 30
0.0
  0
VERTEX
  5
6A
330
68
100
AcDbEntity
  8
0
 62
     7
100
AcDbVertex
100
AcDb2dVertex
 10
80.67178713953408
 20
156.0358844182645
 30
0.0
  0
SEQEND
  5
6B
330
68
100
AcDbEntity
  8
0
  0
POLYLINE
  5
6C
330
1F
100
AcDbEntity
  8
0
 62
     7
100
AcDb2dPolyline
 66
     1
 10
0.0
 20
0.0
 30
0.0
  0
VERTEX
  5
6D
330
6C
100
AcDbEntity
  8
0
 62
     7
100
AcDbVertex
100
AcDb2dVertex
 10
79.05396923239528
 20
131.0349822436244
 30
0.0
  0
VERTEX
  5
6E
330
6C
100
AcDbEntity
  8
0
 62
     7
100
AcDbVertex
100
AcDb2dVertex
 10
70.96642999069231
 20
131.0349822436244
 30
0.0
  0
SEQEND
  5
6F
330
6C
100
AcDbEntity
  8
0
  0
POLYLINE
  5
70
330
1F
100
AcDbEntity
  8
0
 62
     7
100
AcDb2dPolyline
 66
     1
 10
0.0
 20
0.0
 30
0.0
  0
VERTEX
  5
71
330
70
100
AcDbEntity
  8
0
 62
     7
100
AcDbVertex
100
AcDb2dVertex
 10
70.96642999069231
 20
131.0349822436244
 30
0.0
  0
VERTEX
  5
72
330
70
100
AcDbEntity
  8
0
 62
     7
100
AcDbVertex
100
AcDb2dVertex
 10
70.96642999069231
 20
151.0358417872468
 30
0.0
  0
SEQEND
  5
73
330
70
100
AcDbEntity
  8
0
  0
POLYLINE
  5
74
330
1F
100
AcDbEntity
  8
0
 62
     7
100
AcDb2dPolyline
 66
     1
 10
0.0
 20
0.0
 30
0.0
  0
VERTEX
  5
75
330
74
100
AcDbEntity
  8
0
 62
     7
100
AcDbVertex
100
AcDb2dVertex
 10
70.96642999069231
 20
151.0358417872468
 30
0.0
  0
VERTEX
  5
76
330
74
100
AcDbEntity
  8
0
 62
     7
100
AcDbVertex
100
AcDb2dVertex
 10
79.05396923239528
 20
151.0358417872468
 30
0.0
  0
SEQEND
  5
77
330
74
100
AcDbEntity
  8
0
  0
POLYLINE
  5
78
330
1F
100
AcDbEntity
  8
0
 62
     7
100
AcDb2dPolyline
 66
     1
 10
0.0
 20
0.0
 30
0.0
  0
VERTEX
  5
79
330
78
100
AcDbEntity
  8
0
 62
     7
100
AcDbVertex
100
AcDb2dVertex
 10
80.67178713953408
 20
156.0358844182645
 30
0.0
  0
VERTEX
  5
7A
330
78
100
AcDbEntity
  8
0
 62
     7
100
AcDbVertex
100
AcDb2dVertex
 10
83.9067339342601
 20
156.0358844182645
 30
0.0
  0
SEQEND
  5
7B
330
78
100
AcDbEntity
  8
0
  0
POLYLINE
  5
7C
330
1F
100
AcDbEntity
  8
0
 62
     7
100
AcDb2dPolyline
 66
     1
 10
0.0
 20
0.0
 30
0.0
  0
VERTEX
  5
7D
330
7C
100
AcDbEntity
  8
0
 62
     7
100
AcDbVertex
100
AcDb2dVertex
 10
86.06336513074413
 20
152.4355850063066
 30
0.0
  0
VERTEX
  5
7E
330
7C
100
AcDbEntity
  8
0
 62
     7
100
AcDbVertex
100
AcDb2dVertex
 10
90.05296058935166
 20
152.4355850063066
 30
0.0
  0
SEQEND
  5
7F
330
7C
100
AcDbEntity
  8
0
  0
POLYLINE
  5
80
330
1F
100
AcDbEntity
  8
0
 62
     7
100
AcDb2dPolyline
 66
     1
 10
0.0
 20
0.0
 30
0.0
  0
VERTEX
  5
81
330
80
100
AcDbEntity
  8
0
 62
     7
100
AcDbVertex
100
AcDb2dVertex
 10
90.05296058935166
 20
151.8357934866455
 30
0.0
  0
VERTEX
  5
82
330
80
100
AcDbEntity
  8
0
 62
     7
100
AcDbVertex
100
AcDb2dVertex
 10
91.99427317596307
 20
151.8357934866455
 30
0.0
  0
SEQEND
  5
83
330
80
100
AcDbEntity
  8
0
  0
SPLINE
  5
84
330
1F
100
AcDbEntity
  8
0
 62
     7
100
AcDbSpline
210
0.0
220
0.0
230
1.0
 70
     8
 71
     3
 72
     8
 73
     4
 74
     0
 42
0.0000000001
 43
0.0000000001
 40
0.0
 40
0.0
 40
0.0
 40
0.0
 40
1.0
 40
1.0
 40
1.0
 40
1.0
 10
91.99427317596307
 20
152.2357693363448
 30
0.0
 10
91.99427317596307
 20
152.3448066803843
 30
0.0
 10
92.08780758009173
 20
152.4335179476518
 30
0.0
 10
92.20528541363822
 20
152.4355850063066
 30
0.0
  0
POLYLINE
  5
85
330
1F
100
AcDbEntity
  8
0
 62
     7
100
AcDb2dPolyline
 66
     1
 10
0.0
 20
0.0
 30
0.0
  0
VERTEX
  5
86
330
85
100
AcDbEntity
  8
0
 62
     7
100
AcDbVertex
100
AcDb2dVertex
 10
91.99427317596307
 20
152.2357693363448
 30
0.0
  0
VERTEX
  5
87
330
85
100
AcDbEntity
  8
0
 62
     7
100
AcDbVertex
100
AcDb2dVertex
 10
91.99427317596307
 20
130.4345017044117
 30
0.0
  0
SEQEND
  5
88
330
85
100
AcDbEntity
  8
0
  0
SPLINE
  5
89
330
1F
100
AcDbEntity
  8
0
 62
     7
100
AcDbSpline
210
0.0
220
0.0
230
1.0
 70
     8
 71
     3
 72
     8
 73
     4
 74
     0
 42
0.0000000001
 43
0.0000000001
 40
0.0
 40
0.0
 40
0.0
 40
0.0
 40
1.0
 40
1.0
 40
1.0
 40
1.0
 10
92.21010855049937
 20
152.4328289281003
 30
0.0
 10
93.96883095593881
 20
152.4655573568009
 30
0.0
 10
95.72014640119863
 20
152.2126871813665
 30
0.0
 10
97.38481763784573
 20
151.6862762439499
 30
0.0
  0
POLYLINE
  5
8A
330
1F
100
AcDbEntity
  8
0
 62
     7
100
AcDb2dPolyline
 66
     1
 10
0.0
 20
0.0
 30
0.0
  0
VERTEX
  5
8B
330
8A
100
AcDbEntity
  8
0
 62
     7
100
AcDbVertex
100
AcDb2dVertex
 10
86.06336513074413
 20
152.4355850063066
 30
0.0
  0
VERTEX
  5
8C
330
8A
100
AcDbEntity
  8
0
 62
     7
100
AcDbVertex
100
AcDb2dVertex
 10
86.06336513074413
 20
153.0355487808557
 30
0.0
  0
SEQEND
  5
8D
330
8A
100
AcDbEntity
  8
0
  0
POLYLINE
  5
8E
330
1F
100
AcDbEntity
  8
0
 62
     7
100
AcDb2dPolyline
 66
     1
 10
0.0
 20
0.0
 30
0.0
  0
VERTEX
  5
8F
330
8E
100
AcDbEntity
  8
0
 62
     7
100
AcDbVertex
100
AcDb2dVertex
 10
86.06336513074413
 20
153.0355487808557
 30
0.0
  0
VERTEX
  5
90
330
8E
100
AcDbEntity
  8
0
 62
     7
100
AcDbVertex
100
AcDb2dVertex
 10
83.9067339342601
 20
153.0355487808557
 30
0.0
  0
SEQEND
  5
91
330
8E
100
AcDbEntity
  8
0
  0
POLYLINE
  5
92
330
1F
100
AcDbEntity
  8
0
 62
     7
100
AcDb2dPolyline
 66
     1
 10
0.0
 20
0.0
 30
0.0
  0
VERTEX
  5
93
330
92
100
AcDbEntity
  8
0
 62
     7
100
AcDbVertex
100
AcDb2dVertex
 10
80.67178713953408
 20
155.5360007335842
 30
0.0
  0
VERTEX
  5
94
330
92
100
AcDbEntity
  8
0
 62
     7
100
AcDbVertex
100
AcDb2dVertex
 10
79.05396923239528
 20
155.5360007335842
 30
0.0
  0
SEQEND
  5
95
330
92
100
AcDbEntity
  8
0
  0
POLYLINE
  5
96
330
1F
100
AcDbEntity
  8
0
 62
     7
100
AcDb2dPolyline
 66
     1
 10
0.0
 20
0.0
 30
0.0
  0
VERTEX
  5
97
330
96
100
AcDbEntity
  8
0
 62
     7
100
AcDbVertex
100
AcDb2dVertex
 10
79.05396923239528
 20
155.5360007335842
 30
0.0
  0
VERTEX
  5
98
330
96
100
AcDbEntity
  8
0
 62
     7
100
AcDbVertex
100
AcDb2dVertex
 10
79.05396923239528
 20
126.5349955521749
 30
0.0
  0
SEQEND
  5
99
330
96
100
AcDbEntity
  8
0
  0
POLYLINE
  5
9A
330
1F
100
AcDbEntity
  8
0
 62
     7
100
AcDb2dPolyline
 66
     1
 10
0.0
 20
0.0
 30
0.0
  0
VERTEX
  5
9B
330
9A
100
AcDbEntity
  8
0
 62
     7
100
AcDbVertex
100
AcDb2dVertex
 10
79.05396923239528
 20
126.5349955521749
 30
0.0
  0
VERTEX
  5
9C
330
9A
100
AcDbEntity
  8
0
 62
     7
100
AcDbVertex
100
AcDb2dVertex
 10
80.67178713953408
 20
126.5349955521749
 30
0.0
  0
SEQEND
  5
9D
330
9A
100
AcDbEntity
  8
0
  0
SPLINE
  5
9E
330
1F
100
AcDbEntity
  8
0
 62
     7
100
AcDbSpline
210
0.0
220
0.0
230
1.0
 70
     8
 71
     3
 72
     8
 73
     4
 74
     0
 42
0.0000000001
 43
0.0000000001
 40
0.0
 40
0.0
 40
0.0
 40
0.0
 40
1.0
 40
1.0
 40
1.0
 40
1.0
 10
91.99427317596307
 20
149.970617560485
 30
0.0
 10
93.9524667415885
 20
149.7739024785054
 30
0.0
 10
95.71825159743176
 20
148.7889490295042
 30
0.0
 10
96.82309444841008
 20
147.2768956235348
 30
0.0
  0
SPLINE
  5
9F
330
1F
100
AcDbEntity
  8
0
 62
     7
100
AcDbSpline
210
0.0
220
0.0
230
1.0
 70
     8
 71
     3
 72
     8
 73
     4
 74
     0
 42
0.0000000001
 43
0.0000000001
 40
0.0
 40
0.0
 40
0.0
 40
0.0
 40
1.0
 40
1.0
 40
1.0
 40
1.0
 10
96.95969257451326
 20
145.2477330440954
 30
0.0
 10
96.02193696479608
 20
143.5375865170432
 30
0.0
 10
94.05375261567257
 20
142.5319624814942
 30
0.0
 10
91.99427317596307
 20
142.7104185453566
 30
0.0
  0
SPLINE
  5
A0
330
1F
100
AcDbEntity
  8
0
 62
     7
100
AcDbSpline
210
0.0
220
0.0
230
1.0
 70
     8
 71
     3
 72
     8
 73
     4
 74
     0
 42
0.0000000001
 43
0.0000000001
 40
0.0
 40
0.0
 40
0.0
 40
0.0
 40
1.0
 40
1.0
 40
1.0
 40
1.0
 10
96.82309444841008
 20
147.2768956235348
 30
0.0
 10
97.26372245165337
 20
146.6740035158915
 30
0.0
 10
97.31608793757438
 20
145.8967894616953
 30
0.0
 10
96.95969257451326
 20
145.2477330440954
 30
0.0
  0
POLYLINE
  5
A1
330
1F
100
AcDbEntity
  8
0
 62
     7
100
AcDb2dPolyline
 66
     1
 10
0.0
 20
0.0
 30
0.0
  0
VERTEX
  5
A2
330
A1
100
AcDbEntity
  8
0
 62
     7
100
AcDbVertex
100
AcDb2dVertex
 10
67.08483834679687
 20
143.6357718031451
 30
0.0
  0
VERTEX
  5
A3
330
A1
100
AcDbEntity
  8
0
 62
     7
100
AcDbVertex
100
AcDb2dVertex
 10
67.08483834679687
 20
142.8306524571094
 30
0.0
  0
SEQEND
  5
A4
330
A1
100
AcDbEntity
  8
0
  0
POLYLINE
  5
A5
330
1F
100
AcDbEntity
  8
0
 62
     7
100
AcDb2dPolyline
 66
     1
 10
0.0
 20
0.0
 30
0.0
  0
VERTEX
  5
A6
330
A5
100
AcDbEntity
  8
0
 62
     7
100
AcDbVertex
100
AcDb2dVertex
 10
69.241297288393
 20
144.435378992768
 30
0.0
  0
VERTEX
  5
A7
330
A5
100
AcDbEntity
  8
0
 62
     7
100
AcDbVertex
100
AcDb2dVertex
 10
70.96642999069231
 20
144.435378992768
 30
0.0
  0
SEQEND
  5
A8
330
A5
100
AcDbEntity
  8
0
  0
POLYLINE
  5
A9
330
1F
100
AcDbEntity
  8
0
 62
     7
100
AcDb2dPolyline
 66
     1
 10
0.0
 20
0.0
 30
0.0
  0
VERTEX
  5
AA
330
A9
100
AcDbEntity
  8
0
 62
     7
100
AcDbVertex
100
AcDb2dVertex
 10
67.08483834679687
 20
142.8358201037464
 30
0.0
  0
VERTEX
  5
AB
330
A9
100
AcDbEntity
  8
0
 62
     7
100
AcDbVertex
100
AcDb2dVertex
 10
70.96642999069231
 20
142.8358201037464
 30
0.0
  0
SEQEND
  5
AC
330
A9
100
AcDbEntity
  8
0
  0
SPLINE
  5
AD
330
1F
100
AcDbEntity
  8
0
 62
     7
100
AcDbSpline
210
0.0
220
0.0
230
1.0
 70
     8
 71
     3
 72
     8
 73
     4
 74
     0
 42
0.0000000001
 43
0.0000000001
 40
0.0
 40
0.0
 40
0.0
 40
0.0
 40
1.0
 40
1.0
 40
1.0
 40
1.0
 10
69.241297288393
 20
144.435378992768
 30
0.0
 10
68.65390812066053
 20
143.929983151675
 30
0.0
 10
67.88582357552296
 20
143.6454180768674
 30
0.0
 10
67.08483834679687
 20
143.6357718031451
 30
0.0
  0
SPLINE
  5
AE
330
1F
100
AcDbEntity
  8
0
 62
     7
100
AcDbSpline
210
0.0
220
0.0
230
1.0
 70
     8
 71
     3
 72
     8
 73
     4
 74
     0
 42
0.0000000001
 43
0.0000000001
 40
0.0
 40
0.0
 40
0.0
 40
0.0
 40
1.0
 40
1.0
 40
1.0
 40
1.0
 10
69.241297288393
 20
141.8353637148343
 30
0.0
 10
68.65390812066053
 20
141.3303123835171
 30
0.0
 10
67.88582357552296
 20
141.0450582891579
 30
0.0
 10
67.08483834679687
 20
141.0354120154356
 30
0.0
  0
POLYLINE
  5
AF
330
1F
100
AcDbEntity
  8
0
 62
     7
100
AcDb2dPolyline
 66
     1
 10
0.0
 20
0.0
 30
0.0
  0
VERTEX
  5
B0
330
AF
100
AcDbEntity
  8
0
 62
     7
100
AcDbVertex
100
AcDb2dVertex
 10
69.241297288393
 20
141.8353637148343
 30
0.0
  0
VERTEX
  5
B1
330
AF
100
AcDbEntity
  8
0
 62
     7
100
AcDbVertex
100
AcDb2dVertex
 10
70.96642999069231
 20
141.8353637148343
 30
0.0
  0
SEQEND
  5
B2
330
AF
100
AcDbEntity
  8
0
  0
POLYLINE
  5
B3
330
1F
100
AcDbEntity
  8
0
 62
     7
100
AcDb2dPolyline
 66
     1
 10
0.0
 20
0.0
 30
0.0
  0
VERTEX
  5
B4
330
B3
100
AcDbEntity
  8
0
 62
     7
100
AcDbVertex
100
AcDb2dVertex
 10
67.08483834679687
 20
138.4350522277261
 30
0.0
  0
VERTEX
  5
B5
330
B3
100
AcDbEntity
  8
0
 62
     7
100
AcDbVertex
100
AcDb2dVertex
 10
67.08483834679687
 20
137.6302773914663
 30
0.0
  0
SEQEND
  5
B6
330
B3
100
AcDbEntity
  8
0
  0
SPLINE
  5
B7
330
1F
100
AcDbEntity
  8
0
 62
     7
100
AcDbSpline
210
0.0
220
0.0
230
1.0
 70
     8
 71
     3
 72
     8
 73
     4
 74
     0
 42
0.0000000001
 43
0.0000000001
 40
0.0
 40
0.0
 40
0.0
 40
0.0
 40
1.0
 40
1.0
 40
1.0
 40
1.0
 10
69.241297288393
 20
139.2350039271248
 30
0.0
 10
68.65390812066053
 20
138.7302971055834
 30
0.0
 10
67.88582357552296
 20
138.4450430112242
 30
0.0
 10
67.08483834679687
 20
138.4350522277261
 30
0.0
  0
POLYLINE
  5
B8
330
1F
100
AcDbEntity
  8
0
 62
     7
100
AcDb2dPolyline
 66
     1
 10
0.0
 20
0.0
 30
0.0
  0
VERTEX
  5
B9
330
B8
100
AcDbEntity
  8
0
 62
     7
100
AcDbVertex
100
AcDb2dVertex
 10
67.08483834679687
 20
137.6354450381032
 30
0.0
  0
VERTEX
  5
BA
330
B8
100
AcDbEntity
  8
0
 62
     7
100
AcDbVertex
100
AcDb2dVertex
 10
70.96642999069231
 20
137.6354450381032
 30
0.0
  0
SEQEND
  5
BB
330
B8
100
AcDbEntity
  8
0
  0
POLYLINE
  5
BC
330
1F
100
AcDbEntity
  8
0
 62
     7
100
AcDb2dPolyline
 66
     1
 10
0.0
 20
0.0
 30
0.0
  0
VERTEX
  5
BD
330
BC
100
AcDbEntity
  8
0
 62
     7
100
AcDbVertex
100
AcDb2dVertex
 10
69.241297288393
 20
139.2350039271248
 30
0.0
  0
VERTEX
  5
BE
330
BC
100
AcDbEntity
  8
0
 62
     7
100
AcDbVertex
100
AcDb2dVertex
 10
70.96642999069231
 20
139.2350039271248
 30
0.0
  0
SEQEND
  5
BF
330
BC
100
AcDbEntity
  8
0
  0
POLYLINE
  5
C0
330
1F
100
AcDbEntity
  8
0
 62
     7
100
AcDb2dPolyline
 66
     1
 10
0.0
 20
0.0
 30
0.0
  0
VERTEX
  5
C1
330
C0
100
AcDbEntity
  8
0
 62
     7
100
AcDbVertex
100
AcDb2dVertex
 10
67.08483834679687
 20
141.0354120154356
 30
0.0
  0
VERTEX
  5
C2
330
C0
100
AcDbEntity
  8
0
 62
     7
100
AcDbVertex
100
AcDb2dVertex
 10
67.08483834679687
 20
140.2302926693999
 30
0.0
  0
SEQEND
  5
C3
330
C0
100
AcDbEntity
  8
0
  0
POLYLINE
  5
C4
330
1F
100
AcDbEntity
  8
0
 62
     7
100
AcDb2dPolyline
 66
     1
 10
0.0
 20
0.0
 30
0.0
  0
VERTEX
  5
C5
330
C4
100
AcDbEntity
  8
0
 62
     7
100
AcDbVertex
100
AcDb2dVertex
 10
67.08483834679687
 20
140.2354603160369
 30
0.0
  0
VERTEX
  5
C6
330
C4
100
AcDbEntity
  8
0
 62
     7
100
AcDbVertex
100
AcDb2dVertex
 10
70.96642999069231
 20
140.2354603160369
 30
0.0
  0
SEQEND
  5
C7
330
C4
100
AcDbEntity
  8
0
  0
SPLINE
  5
C8
330
1F
100
AcDbEntity
  8
0
 62
     7
100
AcDbSpline
210
0.0
220
0.0
230
1.0
 70
    11
 71
     3
 72
    68
 73
    64
 74
     0
 42
0.0000000001
 43
0.0000000001
 40
0.0
 40
0.0
 40
0.0
 40
0.0
 40
1.0
 40
1.0
 40
1.0
 40
2.0
 40
2.0
 40
2.0
 40
3.0
 40
3.0
 40
3.0
 40
4.0
 40
4.0
 40
4.0
 40
5.0
 40
5.0
 40
5.0
 40
6.0
 40
6.0
 40
6.0
 40
7.0
 40
7.0
 40
7.0
 40
8.0
 40
8.0
 40
8.0
 40
9.0
 40
9.0
 40
9.0
 40
10.0
 40
10.0
 40
10.0
 40
11.0
 40
11.0
 40
11.0
 40
12.0
 40
12.0
 40
12.0
 40
13.0
 40
13.0
 40
13.0
 40
14.0
 40
14.0
 40
14.0
 40
15.0
 40
15.0
 40
15.0
 40
16.0
 40
16.0
 40
16.0
 40
17.0
 40
17.0
 40
17.0
 40
18.0
 40
18.0
 40
18.0
 40
19.0
 40
19.0
 40
19.0
 40
20.0
 40
20.0
 40
20.0
 40
21.0
 40
21.0
 40
21.0
 40
21.0
 10
138.4600291864713
 20
141.0354120154356
 30
0.0
 10
138.4600291864713
 20
145.011743847675
 30
0.0
 10
135.2364512143466
 20
148.2353218197997
 30
0.0
 10
131.2597748723314
 20
148.2353218197997
 30
0.0
 10
131.2597748723314
 20
148.2353218197997
 30
0.0
 10
131.2597748723314
 20
148.2353218197997
 30
0.0
 10
131.2597748723314
 20
148.2353218197997
 30
0.0
 10
131.2597748723314
 20
148.2353218197997
 30
0.0
 10
131.2597748723314
 20
148.2353218197997
 30
0.0
 10
131.2597748723314
 20
148.2353218197997
 30
0.0
 10
131.2597748723314
 20
148.2353218197997
 30
0.0
 10
131.2597748723314
 20
148.2353218197997
 30
0.0
 10
131.2597748723314
 20
148.2353218197997
 30
0.0
 10
127.283443040092
 20
148.2353218197997
 30
0.0
 10
124.0598650679673
 20
145.011743847675
 30
0.0
 10
124.0598650679673
 20
141.0354120154356
 30
0.0
 10
124.0598650679673
 20
141.0354120154356
 30
0.0
 10
124.0598650679673
 20
141.0354120154356
 30
0.0
 10
124.0598650679673
 20
141.0354120154356
 30
0.0
 10
124.0598650679673
 20
141.0354120154356
 30
0.0
 10
124.0598650679673
 20
141.0354120154356
 30
0.0
 10
124.0598650679673
 20
141.0354120154356
 30
0.0
 10
124.0598650679673
 20
141.0354120154356
 30
0.0
 10
124.0598650679673
 20
141.0354120154356
 30
0.0
 10
124.0598650679673
 20
141.0354120154356
 30
0.0
 10
124.0598650679673
 20
137.0590801831962
 30
0.0
 10
127.283443040092
 20
133.8355022110715
 30
0.0
 10
131.2597748723314
 20
133.8355022110715
 30
0.0
 10
131.2597748723314
 20
133.8355022110715
 30
0.0
 10
131.2597748723314
 20
133.8355022110715
 30
0.0
 10
131.2597748723314
 20
133.8355022110715
 30
0.0
 10
131.2597748723314
 20
133.8355022110715
 30
0.0
 10
131.2597748723314
 20
133.8355022110715
 30
0.0
 10
131.2597748723314
 20
133.8355022110715
 30
0.0
 10
131.2597748723314
 20
133.8355022110715
 30
0.0
 10
131.2597748723314
 20
133.8355022110715
 30
0.0
 10
131.2597748723314
 20
133.8355022110715
 30
0.0
 10
135.2364512143466
 20
133.8355022110715
 30
0.0
 10
138.4600291864713
 20
137.0590801831962
 30
0.0
 10
138.4600291864713
 20
141.0354120154356
 30
0.0
 10
138.4600291864713
 20
141.0354120154356
 30
0.0
 10
138.4600291864713
 20
141.0354120154356
 30
0.0
 10
138.4600291864713
 20
141.0354120154356
 30
0.0
 10
138.4600291864713
 20
141.0354120154356
 30
0.0
 10
138.4600291864713
 20
141.0354120154356
 30
0.0
 10
138.4600291864713
 20
141.0354120154356
 30
0.0
 10
138.4600291864713
 20
141.0354120154356
 30
0.0
 10
138.4600291864713
 20
141.0354120154356
 30
0.0
 10
138.4600291864713
 20
141.0354120154356
 30
0.0
 10
138.4600291864713
 20
141.0354120154356
 30
0.0
 10
138.4600291864713
 20
141.0354120154356
 30
0.0
 10
138.4600291864713
 20
141.0354120154356
 30
0.0
 10
138.4600291864713
 20
141.0354120154356
 30
0.0
 10
138.4600291864713
 20
141.0354120154356
 30
0.0
 10
138.4600291864713
 20
141.0354120154356
 30
0.0
 10
138.4600291864713
 20
141.0354120154356
 30
0.0
 10
138.4600291864713
 20
141.0354120154356
 30
0.0
 10
138.4600291864713
 20
141.0354120154356
 30
0.0
 10
138.4600291864713
 20
141.0354120154356
 30
0.0
 10
138.4600291864713
 20
141.0354120154356
 30
0.0
 10
138.4600291864713
 20
141.0354120154356
 30
0.0
 10
138.4600291864713
 20
141.0354120154356
 30
0.0
 10
138.4600291864713
 20
141.0354120154356
 30
0.0
 10
138.4600291864713
 20
141.0354120154356
 30
0.0
  0
SPLINE
  5
C9
330
1F
100
AcDbEntity
  8
0
 62
     7
100
AcDbSpline
210
0.0
220
0.0
230
1.0
 70
     8
 71
     3
 72
     8
 73
     4
 74
     0
 42
0.0000000001
 43
0.0000000001
 40
0.0
 40
0.0
 40
0.0
 40
0.0
 40
1.0
 40
1.0
 40
1.0
 40
1.0
 10
129.6609050028614
 20
149.7399682655895
 30
0.0
 10
124.947666760194
 20
148.8740429441258
 30
0.0
 10
121.7805883912998
 20
144.415052915996
 30
0.0
 10
122.5143942137457
 20
139.6797660476777
 30
0.0
  0
SPLINE
  5
CA
330
1F
100
AcDbEntity
  8
0
 62
     7
100
AcDbSpline
210
0.0
220
0.0
230
1.0
 70
     8
 71
     3
 72
     8
 73
     4
 74
     0
 42
0.0000000001
 43
0.0000000001
 40
0.0
 40
0.0
 40
0.0
 40
0.0
 40
1.0
 40
1.0
 40
1.0
 40
1.0
 10
123.0070431931342
 20
137.8404283547019
 30
0.0
 10
123.4297566880361
 20
136.7479878556523
 30
0.0
 10
124.0646882048284
 20
135.7509765644982
 30
0.0
 10
124.8756642170526
 20
134.906238594246
 30
0.0
  0
SPLINE
  5
CB
330
1F
100
AcDbEntity
  8
0
 62
     7
100
AcDbSpline
210
0.0
220
0.0
230
1.0
 70
     8
 71
     3
 72
     8
 73
     4
 74
     0
 42
0.0000000001
 43
0.0000000001
 40
0.0
 40
0.0
 40
0.0
 40
0.0
 40
1.0
 40
1.0
 40
1.0
 40
1.0
 10
126.333629588222
 20
133.6835733999453
 30
0.0
 10
129.0848846577302
 20
131.8397570798843
 30
0.0
 10
132.6347133875339
 20
131.6861057198792
 30
0.0
 10
135.5344521704103
 20
133.2863536284524
 30
0.0
  0
SPLINE
  5
CC
330
1F
100
AcDbEntity
  8
0
 62
     7
100
AcDbSpline
210
0.0
220
0.0
230
1.0
 70
     8
 71
     3
 72
     8
 73
     4
 74
     0
 42
0.0000000001
 43
0.0000000001
 40
0.0
 40
0.0
 40
0.0
 40
0.0
 40
1.0
 40
1.0
 40
1.0
 40
1.0
 10
137.0895692983542
 20
134.3767270688473
 30
0.0
 10
138.563726628986
 20
135.6665716694281
 30
0.0
 10
139.5669390961044
 20
137.4087576056293
 30
0.0
 10
139.9438327908254
 20
139.3297441154688
 30
0.0
  0
SPLINE
  5
CD
330
1F
100
AcDbEntity
  8
0
 62
     7
100
AcDbSpline
210
0.0
220
0.0
230
1.0
 70
     8
 71
     3
 72
     8
 73
     4
 74
     0
 42
0.0000000001
 43
0.0000000001
 40
0.0
 40
0.0
 40
0.0
 40
0.0
 40
1.0
 40
1.0
 40
1.0
 40
1.0
 10
140.1081639538802
 20
141.2159351379528
 30
0.0
 10
140.022381019707
 20
145.4182653831145
 30
0.0
 10
136.993451070907
 20
148.9806687197348
 30
0.0
 10
132.859333761353
 20
149.7399682655895
 30
0.0
  0
SPLINE
  5
CE
330
1F
100
AcDbEntity
  8
0
 62
     7
100
AcDbSpline
210
0.0
220
0.0
230
1.0
 70
    11
 71
     3
 72
    68
 73
    64
 74
     0
 42
0.0000000001
 43
0.0000000001
 40
0.0
 40
0.0
 40
0.0
 40
0.0
 40
1.0
 40
1.0
 40
1.0
 40
2.0
 40
2.0
 40
2.0
 40
3.0
 40
3.0
 40
3.0
 40
4.0
 40
4.0
 40
4.0
 40
5.0
 40
5.0
 40
5.0
 40
6.0
 40
6.0
 40
6.0
 40
7.0
 40
7.0
 40
7.0
 40
8.0
 40
8.0
 40
8.0
 40
9.0
 40
9.0
 40
9.0
 40
10.0
 40
10.0
 40
10.0
 40
11.0
 40
11.0
 40
11.0
 40
12.0
 40
12.0
 40
12.0
 40
13.0
 40
13.0
 40
13.0
 40
14.0
 40
14.0
 40
14.0
 40
15.0
 40
15.0
 40
15.0
 40
16.0
 40
16.0
 40
16.0
 40
17.0
 40
17.0
 40
17.0
 40
18.0
 40
18.0
 40
18.0
 40
19.0
 40
19.0
 40
19.0
 40
20.0
 40
20.0
 40
20.0
 40
21.0
 40
21.0
 40
21.0
 40
21.0
 10
140.8605733042191
 20
141.0354120154356
 30
0.0
 10
140.8605733042191
 20
146.3377619747144
 30
0.0
 10
136.562469341386
 20
150.6358659375474
 30
0.0
 10
131.2601193821072
 20
150.6358659375474
 30
0.0
 10
131.2601193821072
 20
150.6358659375474
 30
0.0
 10
131.2601193821072
 20
150.6358659375474
 30
0.0
 10
131.2601193821072
 20
150.6358659375474
 30
0.0
 10
131.2601193821072
 20
150.6358659375474
 30
0.0
 10
131.2601193821072
 20
150.6358659375474
 30
0.0
 10
131.2601193821072
 20
150.6358659375474
 30
0.0
 10
131.2601193821072
 20
150.6358659375474
 30
0.0
 10
131.2601193821072
 20
150.6358659375474
 30
0.0
 10
131.2601193821072
 20
150.6358659375474
 30
0.0
 10
125.9581139326042
 20
150.6358659375474
 30
0.0
 10
121.6600099697712
 20
146.3377619747144
 30
0.0
 10
121.6600099697712
 20
141.0354120154356
 30
0.0
 10
121.6600099697712
 20
141.0354120154356
 30
0.0
 10
121.6600099697712
 20
141.0354120154356
 30
0.0
 10
121.6600099697712
 20
141.0354120154356
 30
0.0
 10
121.6600099697712
 20
141.0354120154356
 30
0.0
 10
121.6600099697712
 20
141.0354120154356
 30
0.0
 10
121.6600099697712
 20
141.0354120154356
 30
0.0
 10
121.6600099697712
 20
141.0354120154356
 30
0.0
 10
121.6600099697712
 20
141.0354120154356
 30
0.0
 10
121.6600099697712
 20
141.0354120154356
 30
0.0
 10
121.6600099697712
 20
135.7334065659326
 30
0.0
 10
125.9581139326042
 20
131.4349580933238
 30
0.0
 10
131.2601193821072
 20
131.4349580933238
 30
0.0
 10
131.2601193821072
 20
131.4349580933238
 30
0.0
 10
131.2601193821072
 20
131.4349580933238
 30
0.0
 10
131.2601193821072
 20
131.4349580933238
 30
0.0
 10
131.2601193821072
 20
131.4349580933238
 30
0.0
 10
131.2601193821072
 20
131.4349580933238
 30
0.0
 10
131.2601193821072
 20
131.4349580933238
 30
0.0
 10
131.2601193821072
 20
131.4349580933238
 30
0.0
 10
131.2601193821072
 20
131.4349580933238
 30
0.0
 10
131.2601193821072
 20
131.4349580933238
 30
0.0
 10
136.562469341386
 20
131.4349580933238
 30
0.0
 10
140.8605733042191
 20
135.7334065659326
 30
0.0
 10
140.8605733042191
 20
141.0354120154356
 30
0.0
 10
140.8605733042191
 20
141.0354120154356
 30
0.0
 10
140.8605733042191
 20
141.0354120154356
 30
0.0
 10
140.8605733042191
 20
141.0354120154356
 30
0.0
 10
140.8605733042191
 20
141.0354120154356
 30
0.0
 10
140.8605733042191
 20
141.0354120154356
 30
0.0
 10
140.8605733042191
 20
141.0354120154356
 30
0.0
 10
140.8605733042191
 20
141.0354120154356
 30
0.0
 10
140.8605733042191
 20
141.0354120154356
 30
0.0
 10
140.8605733042191
 20
141.0354120154356
 30
0.0
 10
140.8605733042191
 20
141.0354120154356
 30
0.0
 10
140.8605733042191
 20
141.0354120154356
 30
0.0
 10
140.8605733042191
 20
141.0354120154356
 30
0.0
 10
140.8605733042191
 20
141.0354120154356
 30
0.0
 10
140.8605733042191
 20
141.0354120154356
 30
0.0
 10
140.8605733042191
 20
141.0354120154356
 30
0.0
 10
140.8605733042191
 20
141.0354120154356
 30
0.0
 10
140.8605733042191
 20
141.0354120154356
 30
0.0
 10
140.8605733042191
 20
141.0354120154356
 30
0.0
 10
140.8605733042191
 20
141.0354120154356
 30
0.0
 10
140.8605733042191
 20
141.0354120154356
 30
0.0
 10
140.8605733042191
 20
141.0354120154356
 30
0.0
 10
140.8605733042191
 20
141.0354120154356
 30
0.0
 10
140.8605733042191
 20
141.0354120154356
 30
0.0
 10
140.8605733042191
 20
141.0354120154356
 30
0.0
  0
SPLINE
  5
CF
330
1F
100
AcDbEntity
  8
0
 62
     7
100
AcDbSpline
210
0.0
220
0.0
230
1.0
 70
    11
 71
     3
 72
    68
 73
    64
 74
     0
 42
0.0000000001
 43
0.0000000001
 40
0.0
 40
0.0
 40
0.0
 40
0.0
 40
1.0
 40
1.0
 40
1.0
 40
2.0
 40
2.0
 40
2.0
 40
3.0
 40
3.0
 40
3.0
 40
4.0
 40
4.0
 40
4.0
 40
5.0
 40
5.0
 40
5.0
 40
6.0
 40
6.0
 40
6.0
 40
7.0
 40
7.0
 40
7.0
 40
8.0
 40
8.0
 40
8.0
 40
9.0
 40
9.0
 40
9.0
 40
10.0
 40
10.0
 40
10.0
 40
11.0
 40
11.0
 40
11.0
 40
12.0
 40
12.0
 40
12.0
 40
13.0
 40
13.0
 40
13.0
 40
14.0
 40
14.0
 40
14.0
 40
15.0
 40
15.0
 40
15.0
 40
16.0
 40
16.0
 40
16.0
 40
17.0
 40
17.0
 40
17.0
 40
18.0
 40
18.0
 40
18.0
 40
19.0
 40
19.0
 40
19.0
 40
20.0
 40
20.0
 40
20.0
 40
21.0
 40
21.0
 40
21.0
 40
21.0
 10
141.1099983818955
 20
141.0354120154356
 30
0.0
 10
141.1099983818955
 20
146.4755658850329
 30
0.0
 10
136.6999287419287
 20
150.8856355249997
 30
0.0
 10
131.2597748723314
 20
150.8856355249997
 30
0.0
 10
131.2597748723314
 20
150.8856355249997
 30
0.0
 10
131.2597748723314
 20
150.8856355249997
 30
0.0
 10
131.2597748723314
 20
150.8856355249997
 30
0.0
 10
131.2597748723314
 20
150.8856355249997
 30
0.0
 10
131.2597748723314
 20
150.8856355249997
 30
0.0
 10
131.2597748723314
 20
150.8856355249997
 30
0.0
 10
131.2597748723314
 20
150.8856355249997
 30
0.0
 10
131.2597748723314
 20
150.8856355249997
 30
0.0
 10
131.2597748723314
 20
150.8856355249997
 30
0.0
 10
125.8196210027341
 20
150.8856355249997
 30
0.0
 10
121.4098958725431
 20
146.4755658850329
 30
0.0
 10
121.4098958725431
 20
141.0354120154356
 30
0.0
 10
121.4098958725431
 20
141.0354120154356
 30
0.0
 10
121.4098958725431
 20
141.0354120154356
 30
0.0
 10
121.4098958725431
 20
141.0354120154356
 30
0.0
 10
121.4098958725431
 20
141.0354120154356
 30
0.0
 10
121.4098958725431
 20
141.0354120154356
 30
0.0
 10
121.4098958725431
 20
141.0354120154356
 30
0.0
 10
121.4098958725431
 20
141.0354120154356
 30
0.0
 10
121.4098958725431
 20
141.0354120154356
 30
0.0
 10
121.4098958725431
 20
141.0354120154356
 30
0.0
 10
121.4098958725431
 20
135.5952581458383
 30
0.0
 10
125.8196210027341
 20
131.1851885058715
 30
0.0
 10
131.2597748723314
 20
131.1851885058715
 30
0.0
 10
131.2597748723314
 20
131.1851885058715
 30
0.0
 10
131.2597748723314
 20
131.1851885058715
 30
0.0
 10
131.2597748723314
 20
131.1851885058715
 30
0.0
 10
131.2597748723314
 20
131.1851885058715
 30
0.0
 10
131.2597748723314
 20
131.1851885058715
 30
0.0
 10
131.2597748723314
 20
131.1851885058715
 30
0.0
 10
131.2597748723314
 20
131.1851885058715
 30
0.0
 10
131.2597748723314
 20
131.1851885058715
 30
0.0
 10
131.2597748723314
 20
131.1851885058715
 30
0.0
 10
136.6999287419287
 20
131.1851885058715
 30
0.0
 10
141.1099983818955
 20
135.5952581458383
 30
0.0
 10
141.1099983818955
 20
141.0354120154356
 30
0.0
 10
141.1099983818955
 20
141.0354120154356
 30
0.0
 10
141.1099983818955
 20
141.0354120154356
 30
0.0
 10
141.1099983818955
 20
141.0354120154356
 30
0.0
 10
141.1099983818955
 20
141.0354120154356
 30
0.0
 10
141.1099983818955
 20
141.0354120154356
 30
0.0
 10
141.1099983818955
 20
141.0354120154356
 30
0.0
 10
141.1099983818955
 20
141.0354120154356
 30
0.0
 10
141.1099983818955
 20
141.0354120154356
 30
0.0
 10
141.1099983818955
 20
141.0354120154356
 30
0.0
 10
141.1099983818955
 20
141.0354120154356
 30
0.0
 10
141.1099983818955
 20
141.0354120154356
 30
0.0
 10
141.1099983818955
 20
141.0354120154356
 30
0.0
 10
141.1099983818955
 20
141.0354120154356
 30
0.0
 10
141.1099983818955
 20
141.0354120154356
 30
0.0
 10
141.1099983818955
 20
141.0354120154356
 30
0.0
 10
141.1099983818955
 20
141.0354120154356
 30
0.0
 10
141.1099983818955
 20
141.0354120154356
 30
0.0
 10
141.1099983818955
 20
141.0354120154356
 30
0.0
 10
141.1099983818955
 20
141.0354120154356
 30
0.0
 10
141.1099983818955
 20
141.0354120154356
 30
0.0
 10
141.1099983818955
 20
141.0354120154356
 30
0.0
 10
141.1099983818955
 20
141.0354120154356
 30
0.0
 10
141.1099983818955
 20
141.0354120154356
 30
0.0
 10
141.1099983818955
 20
141.0354120154356
 30
0.0
  0
SPLINE
  5
D0
330
1F
100
AcDbEntity
  8
0
 62
     7
100
AcDbSpline
210
0.0
220
0.0
230
1.0
 70
     8
 71
     3
 72
    32
 73
    28
 74
     0
 42
0.0000000001
 43
0.0000000001
 40
0.0
 40
0.0
 40
0.0
 40
0.0
 40
1.0
 40
1.0
 40
1.0
 40
2.0
 40
2.0
 40
2.0
 40
3.0
 40
3.0
 40
3.0
 40
4.0
 40
4.0
 40
4.0
 40
5.0
 40
5.0
 40
5.0
 40
6.0
 40
6.0
 40
6.0
 40
7.0
 40
7.0
 40
7.0
 40
8.0
 40
8.0
 40
8.0
 40
9.0
 40
9.0
 40
9.0
 40
9.0
 10
132.2950267485989
 20
130.4351907239633
 30
0.0
 10
138.149625878479
 20
131.0074214615607
 30
0.0
 10
142.4315378818496
 20
136.2167537813746
 30
0.0
 10
141.8596516540279
 20
142.0710084014789
 30
0.0
 10
141.8596516540279
 20
142.0710084014789
 30
0.0
 10
141.8596516540279
 20
142.0710084014789
 30
0.0
 10
141.8596516540279
 20
142.0710084014789
 30
0.0
 10
141.8596516540279
 20
142.0710084014789
 30
0.0
 10
141.8596516540279
 20
142.0710084014789
 30
0.0
 10
141.8596516540279
 20
142.0710084014789
 30
0.0
 10
141.8596516540279
 20
142.0710084014789
 30
0.0
 10
141.8596516540279
 20
142.0710084014789
 30
0.0
 10
141.8596516540279
 20
142.0710084014789
 30
0.0
 10
141.8596516540279
 20
142.0710084014789
 30
0.0
 10
141.8596516540279
 20
142.0710084014789
 30
0.0
 10
141.8596516540279
 20
142.0710084014789
 30
0.0
 10
141.8596516540279
 20
142.0710084014789
 30
0.0
 10
141.8596516540279
 20
142.0710084014789
 30
0.0
 10
141.8596516540279
 20
142.0710084014789
 30
0.0
 10
141.8596516540279
 20
142.0710084014789
 30
0.0
 10
141.8596516540279
 20
142.0710084014789
 30
0.0
 10
141.8596516540279
 20
142.0710084014789
 30
0.0
 10
141.8596516540279
 20
142.0710084014789
 30
0.0
 10
141.8596516540279
 20
142.0710084014789
 30
0.0
 10
141.8596516540279
 20
142.0710084014789
 30
0.0
 10
141.7466524475668
 20
143.2306283068088
 30
0.0
 10
141.4434838448662
 20
144.3640654691782
 30
0.0
 10
140.9632372174063
 20
145.425844598182
 30
0.0
  0
SPLINE
  5
D1
330
1F
100
AcDbEntity
  8
0
 62
     7
100
AcDbSpline
210
0.0
220
0.0
230
1.0
 70
     8
 71
     3
 72
    32
 73
    28
 74
     0
 42
0.0000000001
 43
0.0000000001
 40
0.0
 40
0.0
 40
0.0
 40
0.0
 40
1.0
 40
1.0
 40
1.0
 40
2.0
 40
2.0
 40
2.0
 40
3.0
 40
3.0
 40
3.0
 40
4.0
 40
4.0
 40
4.0
 40
5.0
 40
5.0
 40
5.0
 40
6.0
 40
6.0
 40
6.0
 40
7.0
 40
7.0
 40
7.0
 40
8.0
 40
8.0
 40
8.0
 40
9.0
 40
9.0
 40
9.0
 40
9.0
 10
139.9135159305554
 20
147.2438226850583
 30
0.0
 10
136.4852991516077
 20
152.0230345497907
 30
0.0
 10
129.8310928321047
 20
153.1180588721588
 30
0.0
 10
125.0520532222602
 20
149.6893253285475
 30
0.0
 10
125.0520532222602
 20
149.6893253285475
 30
0.0
 10
125.0520532222602
 20
149.6893253285475
 30
0.0
 10
125.0520532222602
 20
149.6893253285475
 30
0.0
 10
125.0520532222602
 20
149.6893253285475
 30
0.0
 10
125.0520532222602
 20
149.6893253285475
 30
0.0
 10
125.0520532222602
 20
149.6893253285475
 30
0.0
 10
125.0520532222602
 20
149.6893253285475
 30
0.0
 10
125.0520532222602
 20
149.6893253285475
 30
0.0
 10
125.0520532222602
 20
149.6893253285475
 30
0.0
 10
125.0520532222602
 20
149.6893253285475
 30
0.0
 10
125.0520532222602
 20
149.6893253285475
 30
0.0
 10
125.0520532222602
 20
149.6893253285475
 30
0.0
 10
125.0520532222602
 20
149.6893253285475
 30
0.0
 10
125.0520532222602
 20
149.6893253285475
 30
0.0
 10
125.0520532222602
 20
149.6893253285475
 30
0.0
 10
125.0520532222602
 20
149.6893253285475
 30
0.0
 10
125.0520532222602
 20
149.6893253285475
 30
0.0
 10
125.0520532222602
 20
149.6893253285475
 30
0.0
 10
125.0520532222602
 20
149.6893253285475
 30
0.0
 10
125.0520532222602
 20
149.6893253285475
 30
0.0
 10
125.0520532222602
 20
149.6893253285475
 30
0.0
 10
124.1053403583724
 20
149.0099520506774
 30
0.0
 10
123.2754163084794
 20
148.1795112361208
 30
0.0
 10
122.5977655794883
 20
147.2321093526813
 30
0.0
  0
SPLINE
  5
D2
330
1F
100
AcDbEntity
  8
0
 62
     7
100
AcDbSpline
210
0.0
220
0.0
230
1.0
 70
     8
 71
     3
 72
    32
 73
    28
 74
     0
 42
0.0000000001
 43
0.0000000001
 40
0.0
 40
0.0
 40
0.0
 40
0.0
 40
1.0
 40
1.0
 40
1.0
 40
2.0
 40
2.0
 40
2.0
 40
3.0
 40
3.0
 40
3.0
 40
4.0
 40
4.0
 40
4.0
 40
5.0
 40
5.0
 40
5.0
 40
6.0
 40
6.0
 40
6.0
 40
7.0
 40
7.0
 40
7.0
 40
8.0
 40
8.0
 40
8.0
 40
9.0
 40
9.0
 40
9.0
 40
9.0
 10
121.5711264476158
 20
145.4575394975552
 30
0.0
 10
119.1285521372209
 20
140.1066136598891
 30
0.0
 10
121.4870660623215
 20
133.7893379011148
 30
0.0
 10
126.8379918999876
 20
131.3467635907199
 30
0.0
 10
126.8379918999876
 20
131.3467635907199
 30
0.0
 10
126.8379918999876
 20
131.3467635907199
 30
0.0
 10
126.8379918999876
 20
131.3467635907199
 30
0.0
 10
126.8379918999876
 20
131.3467635907199
 30
0.0
 10
126.8379918999876
 20
131.3467635907199
 30
0.0
 10
126.8379918999876
 20
131.3467635907199
 30
0.0
 10
126.8379918999876
 20
131.3467635907199
 30
0.0
 10
126.8379918999876
 20
131.3467635907199
 30
0.0
 10
126.8379918999876
 20
131.3467635907199
 30
0.0
 10
126.8379918999876
 20
131.3467635907199
 30
0.0
 10
126.8379918999876
 20
131.3467635907199
 30
0.0
 10
126.8379918999876
 20
131.3467635907199
 30
0.0
 10
126.8379918999876
 20
131.3467635907199
 30
0.0
 10
126.8379918999876
 20
131.3467635907199
 30
0.0
 10
126.8379918999876
 20
131.3467635907199
 30
0.0
 10
126.8379918999876
 20
131.3467635907199
 30
0.0
 10
126.8379918999876
 20
131.3467635907199
 30
0.0
 10
126.8379918999876
 20
131.3467635907199
 30
0.0
 10
126.8379918999876
 20
131.3467635907199
 30
0.0
 10
126.8379918999876
 20
131.3467635907199
 30
0.0
 10
126.8379918999876
 20
131.3467635907199
 30
0.0
 10
127.9107953418169
 20
130.8568706895378
 30
0.0
 10
129.0573238756665
 20
130.548878949976
 30
0.0
 10
130.2307241720283
 20
130.4351907239633
 30
0.0
  0
SPLINE
  5
D3
330
1F
100
AcDbEntity
  8
0
 62
     7
100
AcDbSpline
210
0.0
220
0.0
230
1.0
 70
    11
 71
     3
 72
    68
 73
    64
 74
     0
 42
0.0000000001
 43
0.0000000001
 40
0.0
 40
0.0
 40
0.0
 40
0.0
 40
1.0
 40
1.0
 40
1.0
 40
2.0
 40
2.0
 40
2.0
 40
3.0
 40
3.0
 40
3.0
 40
4.0
 40
4.0
 40
4.0
 40
5.0
 40
5.0
 40
5.0
 40
6.0
 40
6.0
 40
6.0
 40
7.0
 40
7.0
 40
7.0
 40
8.0
 40
8.0
 40
8.0
 40
9.0
 40
9.0
 40
9.0
 40
10.0
 40
10.0
 40
10.0
 40
11.0
 40
11.0
 40
11.0
 40
12.0
 40
12.0
 40
12.0
 40
13.0
 40
13.0
 40
13.0
 40
14.0
 40
14.0
 40
14.0
 40
15.0
 40
15.0
 40
15.0
 40
16.0
 40
16.0
 40
16.0
 40
17.0
 40
17.0
 40
17.0
 40
18.0
 40
18.0
 40
18.0
 40
19.0
 40
19.0
 40
19.0
 40
20.0
 40
20.0
 40
20.0
 40
21.0
 40
21.0
 40
21.0
 40
21.0
 10
142.6602923729782
 20
141.0354120154356
 30
0.0
 10
142.6602923729782
 20
147.3320171876622
 30
0.0
 10
137.556380044558
 20
152.4357572611945
 30
0.0
 10
131.2597748723314
 20
152.4357572611945
 30
0.0
 10
131.2597748723314
 20
152.4357572611945
 30
0.0
 10
131.2597748723314
 20
152.4357572611945
 30
0.0
 10
131.2597748723314
 20
152.4357572611945
 30
0.0
 10
131.2597748723314
 20
152.4357572611945
 30
0.0
 10
131.2597748723314
 20
152.4357572611945
 30
0.0
 10
131.2597748723314
 20
152.4357572611945
 30
0.0
 10
131.2597748723314
 20
152.4357572611945
 30
0.0
 10
131.2597748723314
 20
152.4357572611945
 30
0.0
 10
131.2597748723314
 20
152.4357572611945
 30
0.0
 10
124.9635142098806
 20
152.4357572611945
 30
0.0
 10
119.8592573716846
 20
147.3320171876622
 30
0.0
 10
119.8592573716846
 20
141.0354120154356
 30
0.0
 10
119.8592573716846
 20
141.0354120154356
 30
0.0
 10
119.8592573716846
 20
141.0354120154356
 30
0.0
 10
119.8592573716846
 20
141.0354120154356
 30
0.0
 10
119.8592573716846
 20
141.0354120154356
 30
0.0
 10
119.8592573716846
 20
141.0354120154356
 30
0.0
 10
119.8592573716846
 20
141.0354120154356
 30
0.0
 10
119.8592573716846
 20
141.0354120154356
 30
0.0
 10
119.8592573716846
 20
141.0354120154356
 30
0.0
 10
119.8592573716846
 20
141.0354120154356
 30
0.0
 10
119.8592573716846
 20
134.7391513529848
 30
0.0
 10
124.9635142098806
 20
129.6348945147888
 30
0.0
 10
131.2597748723314
 20
129.6348945147888
 30
0.0
 10
131.2597748723314
 20
129.6348945147888
 30
0.0
 10
131.2597748723314
 20
129.6348945147888
 30
0.0
 10
131.2597748723314
 20
129.6348945147888
 30
0.0
 10
131.2597748723314
 20
129.6348945147888
 30
0.0
 10
131.2597748723314
 20
129.6348945147888
 30
0.0
 10
131.2597748723314
 20
129.6348945147888
 30
0.0
 10
131.2597748723314
 20
129.6348945147888
 30
0.0
 10
131.2597748723314
 20
129.6348945147888
 30
0.0
 10
131.2597748723314
 20
129.6348945147888
 30
0.0
 10
137.556380044558
 20
129.6348945147888
 30
0.0
 10
142.6602923729782
 20
134.7391513529848
 30
0.0
 10
142.6602923729782
 20
141.0354120154356
 30
0.0
 10
142.6602923729782
 20
141.0354120154356
 30
0.0
 10
142.6602923729782
 20
141.0354120154356
 30
0.0
 10
142.6602923729782
 20
141.0354120154356
 30
0.0
 10
142.6602923729782
 20
141.0354120154356
 30
0.0
 10
142.6602923729782
 20
141.0354120154356
 30
0.0
 10
142.6602923729782
 20
141.0354120154356
 30
0.0
 10
142.6602923729782
 20
141.0354120154356
 30
0.0
 10
142.6602923729782
 20
141.0354120154356
 30
0.0
 10
142.6602923729782
 20
141.0354120154356
 30
0.0
 10
142.6602923729782
 20
141.0354120154356
 30
0.0
 10
142.6602923729782
 20
141.0354120154356
 30
0.0
 10
142.6602923729782
 20
141.0354120154356
 30
0.0
 10
142.6602923729782
 20
141.0354120154356
 30
0.0
 10
142.6602923729782
 20
141.0354120154356
 30
0.0
 10
142.6602923729782
 20
141.0354120154356
 30
0.0
 10
142.6602923729782
 20
141.0354120154356
 30
0.0
 10
142.6602923729782
 20
141.0354120154356
 30
0.0
 10
142.6602923729782
 20
141.0354120154356
 30
0.0
 10
142.6602923729782
 20
141.0354120154356
 30
0.0
 10
142.6602923729782
 20
141.0354120154356
 30
0.0
 10
142.6602923729782
 20
141.0354120154356
 30
0.0
 10
142.6602923729782
 20
141.0354120154356
 30
0.0
 10
142.6602923729782
 20
141.0354120154356
 30
0.0
 10
142.6602923729782
 20
141.0354120154356
 30
0.0
  0
SPLINE
  5
D4
330
1F
100
AcDbEntity
  8
0
 62
     7
100
AcDbSpline
210
0.0
220
0.0
230
1.0
 70
     8
 71
     3
 72
     8
 73
     4
 74
     0
 42
0.0000000001
 43
0.0000000001
 40
0.0
 40
0.0
 40
0.0
 40
0.0
 40
1.0
 40
1.0
 40
1.0
 40
1.0
 10
122.0768667984845
 20
139.5646997825617
 30
0.0
 10
122.177463653017
 20
138.9352804221822
 30
0.0
 10
122.3428283453992
 20
138.318607923507
 30
0.0
 10
122.5702047974247
 20
137.7229505211554
 30
0.0
  0
SPLINE
  5
D5
330
1F
100
AcDbEntity
  8
0
 62
     7
100
AcDbSpline
210
0.0
220
0.0
230
1.0
 70
     8
 71
     3
 72
     8
 73
     4
 74
     0
 42
0.0000000001
 43
0.0000000001
 40
0.0
 40
0.0
 40
0.0
 40
0.0
 40
1.0
 40
1.0
 40
1.0
 40
1.0
 10
124.5873095347112
 20
134.5572501913644
 30
0.0
 10
125.0296600868335
 20
134.1021527775377
 30
0.0
 10
125.5178304391367
 20
133.6932196736676
 30
0.0
 10
126.04286333745
 20
133.3369965654944
 30
0.0
  0
SPLINE
  5
D6
330
1F
100
AcDbEntity
  8
0
 62
     7
100
AcDbSpline
210
0.0
220
0.0
230
1.0
 70
     8
 71
     3
 72
     8
 73
     4
 74
     0
 42
0.0000000001
 43
0.0000000001
 40
0.0
 40
0.0
 40
0.0
 40
0.0
 40
1.0
 40
1.0
 40
1.0
 40
1.0
 10
135.7904229338268
 20
132.9142830705925
 30
0.0
 10
136.3454281826345
 20
133.2233083394817
 30
0.0
 10
136.8663269636383
 20
133.5884887018256
 30
0.0
 10
137.3469181008739
 20
134.0039674914358
 30
0.0
  0
SPLINE
  5
D7
330
1F
100
AcDbEntity
  8
0
 62
     7
100
AcDbSpline
210
0.0
220
0.0
230
1.0
 70
     8
 71
     3
 72
     8
 73
     4
 74
     0
 42
0.0000000001
 43
0.0000000001
 40
0.0
 40
0.0
 40
0.0
 40
0.0
 40
1.0
 40
1.0
 40
1.0
 40
1.0
 10
140.3937625580152
 20
139.2856468641669
 30
0.0
 10
140.5133074502165
 20
139.9088650485821
 30
0.0
 10
140.5691180338955
 20
140.5420740164955
 30
0.0
 10
140.5594717601732
 20
141.1763165137362
 30
0.0
  0
SPLINE
  5
D8
330
1F
100
AcDbEntity
  8
0
 62
     7
100
AcDbSpline
210
0.0
220
0.0
230
1.0
 70
     8
 71
     3
 72
     8
 73
     4
 74
     0
 42
0.0000000001
 43
0.0000000001
 40
0.0
 40
0.0
 40
0.0
 40
0.0
 40
1.0
 40
1.0
 40
1.0
 40
1.0
 10
132.8586447418014
 20
150.197132738071
 30
0.0
 10
131.8023777692104
 20
150.381445468122
 30
0.0
 10
130.7226841318652
 20
150.3817899778978
 30
0.0
 10
129.6664171592741
 20
150.1981662673984
 30
0.0
  0
POLYLINE
  5
D9
330
1F
100
AcDbEntity
  8
0
 62
     7
100
AcDb2dPolyline
 66
     1
 10
0.0
 20
0.0
 30
0.0
  0
VERTEX
  5
DA
330
D9
100
AcDbEntity
  8
0
 62
     7
100
AcDbVertex
100
AcDb2dVertex
 10
146.2604195300482
 20
152.5358373510633
 30
0.0
  0
VERTEX
  5
DB
330
D9
100
AcDbEntity
  8
0
 62
     7
100
AcDbVertex
100
AcDb2dVertex
 10
146.2604195300482
 20
129.5356756993595
 30
0.0
  0
SEQEND
  5
DC
330
D9
100
AcDbEntity
  8
0
  0
SPLINE
  5
DD
330
1F
100
AcDbEntity
  8
0
 62
     7
100
AcDbSpline
210
0.0
220
0.0
230
1.0
 70
     8
 71
     3
 72
     8
 73
     4
 74
     0
 42
0.0000000001
 43
0.0000000001
 40
0.0
 40
0.0
 40
0.0
 40
0.0
 40
1.0
 40
1.0
 40
1.0
 40
1.0
 10
142.7605447177349
 20
126.0351118674946
 30
0.0
 10
144.6935890697272
 20
126.0351118674946
 30
0.0
 10
146.2604195300482
 20
127.6022868375914
 30
0.0
 10
146.2604195300482
 20
129.5356756993595
 30
0.0
  0
SPLINE
  5
DE
330
1F
100
AcDbEntity
  8
0
 62
     7
100
AcDbSpline
210
0.0
220
0.0
230
1.0
 70
     8
 71
     3
 72
     8
 73
     4
 74
     0
 42
0.0000000001
 43
0.0000000001
 40
0.0
 40
0.0
 40
0.0
 40
0.0
 40
1.0
 40
1.0
 40
1.0
 40
1.0
 10
146.2604195300482
 20
152.5358373510633
 30
0.0
 10
146.2604195300482
 20
154.4688817030556
 30
0.0
 10
144.6935890697272
 20
156.0360566731524
 30
0.0
 10
142.7605447177349
 20
156.0360566731524
 30
0.0
  0
POLYLINE
  5
DF
330
1F
100
AcDbEntity
  8
0
 62
     7
100
AcDb2dPolyline
 66
     1
 10
0.0
 20
0.0
 30
0.0
  0
VERTEX
  5
E0
330
DF
100
AcDbEntity
  8
0
 62
     7
100
AcDbVertex
100
AcDb2dVertex
 10
142.7605447177349
 20
126.0351118674946
 30
0.0
  0
VERTEX
  5
E1
330
DF
100
AcDbEntity
  8
0
 62
     7
100
AcDbVertex
100
AcDb2dVertex
 10
119.7593495367037
 20
126.0351118674946
 30
0.0
  0
SEQEND
  5
E2
330
DF
100
AcDbEntity
  8
0
  0
SPLINE
  5
E3
330
1F
100
AcDbEntity
  8
0
 62
     7
100
AcDbSpline
210
0.0
220
0.0
230
1.0
 70
     8
 71
     3
 72
     8
 73
     4
 74
     0
 42
0.0000000001
 43
0.0000000001
 40
0.0
 40
0.0
 40
0.0
 40
0.0
 40
1.0
 40
1.0
 40
1.0
 40
1.0
 10
116.2598192341662
 20
129.5356756993595
 30
0.0
 10
116.2598192341662
 20
127.6022868375914
 30
0.0
 10
117.826994204263
 20
126.0351118674946
 30
0.0
 10
119.7593495367037
 20
126.0351118674946
 30
0.0
  0
POLYLINE
  5
E4
330
1F
100
AcDbEntity
  8
0
 62
     7
100
AcDb2dPolyline
 66
     1
 10
0.0
 20
0.0
 30
0.0
  0
VERTEX
  5
E5
330
E4
100
AcDbEntity
  8
0
 62
     7
100
AcDbVertex
100
AcDb2dVertex
 10
116.2598192341662
 20
129.5356756993595
 30
0.0
  0
VERTEX
  5
E6
330
E4
100
AcDbEntity
  8
0
 62
     7
100
AcDbVertex
100
AcDb2dVertex
 10
116.2598192341662
 20
152.5358373510633
 30
0.0
  0
SEQEND
  5
E7
330
E4
100
AcDbEntity
  8
0
  0
SPLINE
  5
E8
330
1F
100
AcDbEntity
  8
0
 62
     7
100
AcDbSpline
210
0.0
220
0.0
230
1.0
 70
     8
 71
     3
 72
     8
 73
     4
 74
     0
 42
0.0000000001
 43
0.0000000001
 40
0.0
 40
0.0
 40
0.0
 40
0.0
 40
1.0
 40
1.0
 40
1.0
 40
1.0
 10
119.7593495367037
 20
156.0360566731524
 30
0.0
 10
117.826994204263
 20
156.0360566731524
 30
0.0
 10
116.2598192341662
 20
154.4688817030556
 30
0.0
 10
116.2598192341662
 20
152.5358373510633
 30
0.0
  0
POLYLINE
  5
E9
330
1F
100
AcDbEntity
  8
0
 62
     7
100
AcDb2dPolyline
 66
     1
 10
0.0
 20
0.0
 30
0.0
  0
VERTEX
  5
EA
330
E9
100
AcDbEntity
  8
0
 62
     7
100
AcDbVertex
100
AcDb2dVertex
 10
119.7593495367037
 20
156.0360566731524
 30
0.0
  0
VERTEX
  5
EB
330
E9
100
AcDbEntity
  8
0
 62
     7
100
AcDbVertex
100
AcDb2dVertex
 10
142.7605447177349
 20
156.0360566731524
 30
0.0
  0
SEQEND
  5
EC
330
E9
100
AcDbEntity
  8
0
  0
POLYLINE
  5
ED
330
1F
100
AcDbEntity
  8
0
 62
     7
100
AcDb2dPolyline
 66
     1
 10
0.0
 20
0.0
 30
0.0
  0
VERTEX
  5
EE
330
ED
100
AcDbEntity
  8
0
 62
     7
100
AcDbVertex
100
AcDb2dVertex
 10
122.5646926410119
 20
137.7205389527249
 30
0.0
  0
VERTEX
  5
EF
330
ED
100
AcDbEntity
  8
0
 62
     7
100
AcDbVertex
100
AcDb2dVertex
 10
123.4897013890246
 20
137.9706530499529
 30
0.0
  0
SEQEND
  5
F0
330
ED
100
AcDbEntity
  8
0
  0
POLYLINE
  5
F1
330
1F
100
AcDbEntity
  8
0
 62
     7
100
AcDb2dPolyline
 66
     1
 10
0.0
 20
0.0
 30
0.0
  0
VERTEX
  5
F2
330
F1
100
AcDbEntity
  8
0
 62
     7
100
AcDbVertex
100
AcDb2dVertex
 10
122.0747997398298
 20
139.5605656652522
 30
0.0
  0
VERTEX
  5
F3
330
F1
100
AcDbEntity
  8
0
 62
     7
100
AcDbVertex
100
AcDb2dVertex
 10
122.9946408412055
 20
139.8055121158433
 30
0.0
  0
SEQEND
  5
F4
330
F1
100
AcDbEntity
  8
0
  0
POLYLINE
  5
F5
330
1F
100
AcDbEntity
  8
0
 62
     7
100
AcDb2dPolyline
 66
     1
 10
0.0
 20
0.0
 30
0.0
  0
VERTEX
  5
F6
330
F5
100
AcDbEntity
  8
0
 62
     7
100
AcDbVertex
100
AcDb2dVertex
 10
126.0401072592437
 20
133.335963036167
 30
0.0
  0
VERTEX
  5
F7
330
F5
100
AcDbEntity
  8
0
 62
     7
100
AcDbVertex
100
AcDb2dVertex
 10
126.6498895624029
 20
134.0659792510791
 30
0.0
  0
SEQEND
  5
F8
330
F5
100
AcDbEntity
  8
0
  0
POLYLINE
  5
F9
330
1F
100
AcDbEntity
  8
0
 62
     7
100
AcDb2dPolyline
 66
     1
 10
0.0
 20
0.0
 30
0.0
  0
VERTEX
  5
FA
330
F9
100
AcDbEntity
  8
0
 62
     7
100
AcDbVertex
100
AcDb2dVertex
 10
124.5845534565048
 20
134.5555276424855
 30
0.0
  0
VERTEX
  5
FB
330
F9
100
AcDbEntity
  8
0
 62
     7
100
AcDbVertex
100
AcDb2dVertex
 10
125.1946802694399
 20
135.2907115040345
 30
0.0
  0
SEQEND
  5
FC
330
F9
100
AcDbEntity
  8
0
  0
POLYLINE
  5
FD
330
1F
100
AcDbEntity
  8
0
 62
     7
100
AcDb2dPolyline
 66
     1
 10
0.0
 20
0.0
 30
0.0
  0
VERTEX
  5
FE
330
FD
100
AcDbEntity
  8
0
 62
     7
100
AcDbVertex
100
AcDb2dVertex
 10
137.3455400617707
 20
134.0008669034536
 30
0.0
  0
VERTEX
  5
FF
330
FD
100
AcDbEntity
  8
0
 62
     7
100
AcDbVertex
100
AcDb2dVertex
 10
136.8001810866854
 20
134.7804925260804
 30
0.0
  0
SEQEND
  5
100
330
FD
100
AcDbEntity
  8
0
  0
POLYLINE
  5
101
330
1F
100
AcDbEntity
  8
0
 62
     7
100
AcDb2dPolyline
 66
     1
 10
0.0
 20
0.0
 30
0.0
  0
VERTEX
  5
102
330
101
100
AcDbEntity
  8
0
 62
     7
100
AcDbVertex
100
AcDb2dVertex
 10
135.7897339142752
 20
132.9108379728345
 30
0.0
  0
VERTEX
  5
103
330
101
100
AcDbEntity
  8
0
 62
     7
100
AcDbVertex
100
AcDb2dVertex
 10
135.2402408218803
 20
133.6908081052371
 30
0.0
  0
SEQEND
  5
104
330
101
100
AcDbEntity
  8
0
  0
POLYLINE
  5
105
330
1F
100
AcDbEntity
  8
0
 62
     7
100
AcDb2dPolyline
 66
     1
 10
0.0
 20
0.0
 30
0.0
  0
VERTEX
  5
106
330
105
100
AcDbEntity
  8
0
 62
     7
100
AcDbVertex
100
AcDb2dVertex
 10
140.5649839165859
 20
141.1756274941847
 30
0.0
  0
VERTEX
  5
107
330
105
100
AcDbEntity
  8
0
 62
     7
100
AcDbVertex
100
AcDb2dVertex
 10
139.6096583083032
 20
141.2552092523936
 30
0.0
  0
SEQEND
  5
108
330
105
100
AcDbEntity
  8
0
  0
POLYLINE
  5
109
330
1F
100
AcDbEntity
  8
0
 62
     7
100
AcDb2dPolyline
 66
     1
 10
0.0
 20
0.0
 30
0.0
  0
VERTEX
  5
10A
330
109
100
AcDbEntity
  8
0
 62
     7
100
AcDbVertex
100
AcDb2dVertex
 10
140.3951405971184
 20
139.2801347077541
 30
0.0
  0
VERTEX
  5
10B
330
109
100
AcDbEntity
  8
0
 62
     7
100
AcDbVertex
100
AcDb2dVertex
 10
139.4453271452484
 20
139.3655731321516
 30
0.0
  0
SEQEND
  5
10C
330
109
100
AcDbEntity
  8
0
  0
SPLINE
  5
10D
330
1F
100
AcDbEntity
  8
0
 62
     7
100
AcDbSpline
210
0.0
220
0.0
230
1.0
 70
    11
 71
     3
 72
    68
 73
    64
 74
     0
 42
0.0000000001
 43
0.0000000001
 40
0.0
 40
0.0
 40
0.0
 40
0.0
 40
1.0
 40
1.0
 40
1.0
 40
2.0
 40
2.0
 40
2.0
 40
3.0
 40
3.0
 40
3.0
 40
4.0
 40
4.0
 40
4.0
 40
5.0
 40
5.0
 40
5.0
 40
6.0
 40
6.0
 40
6.0
 40
7.0
 40
7.0
 40
7.0
 40
8.0
 40
8.0
 40
8.0
 40
9.0
 40
9.0
 40
9.0
 40
10.0
 40
10.0
 40
10.0
 40
11.0
 40
11.0
 40
11.0
 40
12.0
 40
12.0
 40
12.0
 40
13.0
 40
13.0
 40
13.0
 40
14.0
 40
14.0
 40
14.0
 40
15.0
 40
15.0
 40
15.0
 40
16.0
 40
16.0
 40
16.0
 40
17.0
 40
17.0
 40
17.0
 40
18.0
 40
18.0
 40
18.0
 40
19.0
 40
19.0
 40
19.0
 40
20.0
 40
20.0
 40
20.0
 40
21.0
 40
21.0
 40
21.0
 40
21.0
 10
139.6096583083032
 20
141.0354120154356
 30
0.0
 10
139.6096583083032
 20
145.6473643840189
 30
0.0
 10
135.8713827311389
 20
149.3854677062953
 30
0.0
 10
131.2597748723314
 20
149.3854677062953
 30
0.0
 10
131.2597748723314
 20
149.3854677062953
 30
0.0
 10
131.2597748723314
 20
149.3854677062953
 30
0.0
 10
131.2597748723314
 20
149.3854677062953
 30
0.0
 10
131.2597748723314
 20
149.3854677062953
 30
0.0
 10
131.2597748723314
 20
149.3854677062953
 30
0.0
 10
131.2597748723314
 20
149.3854677062953
 30
0.0
 10
131.2597748723314
 20
149.3854677062953
 30
0.0
 10
131.2597748723314
 20
149.3854677062953
 30
0.0
 10
131.2597748723314
 20
149.3854677062953
 30
0.0
 10
126.6481670135239
 20
149.3854677062953
 30
0.0
 10
122.9098914363597
 20
145.6473643840189
 30
0.0
 10
122.9098914363597
 20
141.0354120154356
 30
0.0
 10
122.9098914363597
 20
141.0354120154356
 30
0.0
 10
122.9098914363597
 20
141.0354120154356
 30
0.0
 10
122.9098914363597
 20
141.0354120154356
 30
0.0
 10
122.9098914363597
 20
141.0354120154356
 30
0.0
 10
122.9098914363597
 20
141.0354120154356
 30
0.0
 10
122.9098914363597
 20
141.0354120154356
 30
0.0
 10
122.9098914363597
 20
141.0354120154356
 30
0.0
 10
122.9098914363597
 20
141.0354120154356
 30
0.0
 10
122.9098914363597
 20
141.0354120154356
 30
0.0
 10
122.9098914363597
 20
136.4238041566281
 30
0.0
 10
126.6481670135239
 20
132.6855285794639
 30
0.0
 10
131.2597748723314
 20
132.6855285794639
 30
0.0
 10
131.2597748723314
 20
132.6855285794639
 30
0.0
 10
131.2597748723314
 20
132.6855285794639
 30
0.0
 10
131.2597748723314
 20
132.6855285794639
 30
0.0
 10
131.2597748723314
 20
132.6855285794639
 30
0.0
 10
131.2597748723314
 20
132.6855285794639
 30
0.0
 10
131.2597748723314
 20
132.6855285794639
 30
0.0
 10
131.2597748723314
 20
132.6855285794639
 30
0.0
 10
131.2597748723314
 20
132.6855285794639
 30
0.0
 10
131.2597748723314
 20
132.6855285794639
 30
0.0
 10
135.8713827311389
 20
132.6855285794639
 30
0.0
 10
139.6096583083032
 20
136.4238041566281
 30
0.0
 10
139.6096583083032
 20
141.0354120154356
 30
0.0
 10
139.6096583083032
 20
141.0354120154356
 30
0.0
 10
139.6096583083032
 20
141.0354120154356
 30
0.0
 10
139.6096583083032
 20
141.0354120154356
 30
0.0
 10
139.6096583083032
 20
141.0354120154356
 30
0.0
 10
139.6096583083032
 20
141.0354120154356
 30
0.0
 10
139.6096583083032
 20
141.0354120154356
 30
0.0
 10
139.6096583083032
 20
141.0354120154356
 30
0.0
 10
139.6096583083032
 20
141.0354120154356
 30
0.0
 10
139.6096583083032
 20
141.0354120154356
 30
0.0
 10
139.6096583083032
 20
141.0354120154356
 30
0.0
 10
139.6096583083032
 20
141.0354120154356
 30
0.0
 10
139.6096583083032
 20
141.0354120154356
 30
0.0
 10
139.6096583083032
 20
141.0354120154356
 30
0.0
 10
139.6096583083032
 20
141.0354120154356
 30
0.0
 10
139.6096583083032
 20
141.0354120154356
 30
0.0
 10
139.6096583083032
 20
141.0354120154356
 30
0.0
 10
139.6096583083032
 20
141.0354120154356
 30
0.0
 10
139.6096583083032
 20
141.0354120154356
 30
0.0
 10
139.6096583083032
 20
141.0354120154356
 30
0.0
 10
139.6096583083032
 20
141.0354120154356
 30
0.0
 10
139.6096583083032
 20
141.0354120154356
 30
0.0
 10
139.6096583083032
 20
141.0354120154356
 30
0.0
 10
139.6096583083032
 20
141.0354120154356
 30
0.0
 10
139.6096583083032
 20
141.0354120154356
 30
0.0
  0
SPLINE
  5
10E
330
1F
100
AcDbEntity
  8
0
 62
     7
100
AcDbSpline
210
0.0
220
0.0
230
1.0
 70
    11
 71
     3
 72
    68
 73
    64
 74
     0
 42
0.0000000001
 43
0.0000000001
 40
0.0
 40
0.0
 40
0.0
 40
0.0
 40
1.0
 40
1.0
 40
1.0
 40
2.0
 40
2.0
 40
2.0
 40
3.0
 40
3.0
 40
3.0
 40
4.0
 40
4.0
 40
4.0
 40
5.0
 40
5.0
 40
5.0
 40
6.0
 40
6.0
 40
6.0
 40
7.0
 40
7.0
 40
7.0
 40
8.0
 40
8.0
 40
8.0
 40
9.0
 40
9.0
 40
9.0
 40
10.0
 40
10.0
 40
10.0
 40
11.0
 40
11.0
 40
11.0
 40
12.0
 40
12.0
 40
12.0
 40
13.0
 40
13.0
 40
13.0
 40
14.0
 40
14.0
 40
14.0
 40
15.0
 40
15.0
 40
15.0
 40
16.0
 40
16.0
 40
16.0
 40
17.0
 40
17.0
 40
17.0
 40
18.0
 40
18.0
 40
18.0
 40
19.0
 40
19.0
 40
19.0
 40
20.0
 40
20.0
 40
20.0
 40
21.0
 40
21.0
 40
21.0
 40
21.0
 10
144.4603559515132
 20
152.5358373510633
 30
0.0
 10
144.4603559515132
 20
153.4742819803321
 30
0.0
 10
143.6989893470037
 20
154.2354763299537
 30
0.0
 10
142.7605447177349
 20
154.2354763299537
 30
0.0
 10
142.7605447177349
 20
154.2354763299537
 30
0.0
 10
142.7605447177349
 20
154.2354763299537
 30
0.0
 10
142.7605447177349
 20
154.2354763299537
 30
0.0
 10
142.7605447177349
 20
154.2354763299537
 30
0.0
 10
142.7605447177349
 20
154.2354763299537
 30
0.0
 10
142.7605447177349
 20
154.2354763299537
 30
0.0
 10
142.7605447177349
 20
154.2354763299537
 30
0.0
 10
142.7605447177349
 20
154.2354763299537
 30
0.0
 10
142.7605447177349
 20
154.2354763299537
 30
0.0
 10
141.8214110689146
 20
154.2354763299537
 30
0.0
 10
141.0603889741808
 20
153.4742819803321
 30
0.0
 10
141.0603889741808
 20
152.5358373510633
 30
0.0
 10
141.0603889741808
 20
152.5358373510633
 30
0.0
 10
141.0603889741808
 20
152.5358373510633
 30
0.0
 10
141.0603889741808
 20
152.5358373510633
 30
0.0
 10
141.0603889741808
 20
152.5358373510633
 30
0.0
 10
141.0603889741808
 20
152.5358373510633
 30
0.0
 10
141.0603889741808
 20
152.5358373510633
 30
0.0
 10
141.0603889741808
 20
152.5358373510633
 30
0.0
 10
141.0603889741808
 20
152.5358373510633
 30
0.0
 10
141.0603889741808
 20
152.5358373510633
 30
0.0
 10
141.0603889741808
 20
151.5968759571309
 30
0.0
 10
141.8214110689146
 20
150.836026117285
 30
0.0
 10
142.7605447177349
 20
150.836026117285
 30
0.0
 10
142.7605447177349
 20
150.836026117285
 30
0.0
 10
142.7605447177349
 20
150.836026117285
 30
0.0
 10
142.7605447177349
 20
150.836026117285
 30
0.0
 10
142.7605447177349
 20
150.836026117285
 30
0.0
 10
142.7605447177349
 20
150.836026117285
 30
0.0
 10
142.7605447177349
 20
150.836026117285
 30
0.0
 10
142.7605447177349
 20
150.836026117285
 30
0.0
 10
142.7605447177349
 20
150.836026117285
 30
0.0
 10
142.7605447177349
 20
150.836026117285
 30
0.0
 10
143.6989893470037
 20
150.836026117285
 30
0.0
 10
144.4603559515132
 20
151.5968759571309
 30
0.0
 10
144.4603559515132
 20
152.5358373510633
 30
0.0
 10
144.4603559515132
 20
152.5358373510633
 30
0.0
 10
144.4603559515132
 20
152.5358373510633
 30
0.0
 10
144.4603559515132
 20
152.5358373510633
 30
0.0
 10
144.4603559515132
 20
152.5358373510633
 30
0.0
 10
144.4603559515132
 20
152.5358373510633
 30
0.0
 10
144.4603559515132
 20
152.5358373510633
 30
0.0
 10
144.4603559515132
 20
152.5358373510633
 30
0.0
 10
144.4603559515132
 20
152.5358373510633
 30
0.0
 10
144.4603559515132
 20
152.5358373510633
 30
0.0
 10
144.4603559515132
 20
152.5358373510633
 30
0.0
 10
144.4603559515132
 20
152.5358373510633
 30
0.0
 10
144.4603559515132
 20
152.5358373510633
 30
0.0
 10
144.4603559515132
 20
152.5358373510633
 30
0.0
 10
144.4603559515132
 20
152.5358373510633
 30
0.0
 10
144.4603559515132
 20
152.5358373510633
 30
0.0
 10
144.4603559515132
 20
152.5358373510633
 30
0.0
 10
144.4603559515132
 20
152.5358373510633
 30
0.0
 10
144.4603559515132
 20
152.5358373510633
 30
0.0
 10
144.4603559515132
 20
152.5358373510633
 30
0.0
 10
144.4603559515132
 20
152.5358373510633
 30
0.0
 10
144.4603559515132
 20
152.5358373510633
 30
0.0
 10
144.4603559515132
 20
152.5358373510633
 30
0.0
 10
144.4603559515132
 20
152.5358373510633
 30
0.0
 10
144.4603559515132
 20
152.5358373510633
 30
0.0
  0
SPLINE
  5
10F
330
1F
100
AcDbEntity
  8
0
 62
     7
100
AcDbSpline
210
0.0
220
0.0
230
1.0
 70
    11
 71
     3
 72
    68
 73
    64
 74
     0
 42
0.0000000001
 43
0.0000000001
 40
0.0
 40
0.0
 40
0.0
 40
0.0
 40
1.0
 40
1.0
 40
1.0
 40
2.0
 40
2.0
 40
2.0
 40
3.0
 40
3.0
 40
3.0
 40
4.0
 40
4.0
 40
4.0
 40
5.0
 40
5.0
 40
5.0
 40
6.0
 40
6.0
 40
6.0
 40
7.0
 40
7.0
 40
7.0
 40
8.0
 40
8.0
 40
8.0
 40
9.0
 40
9.0
 40
9.0
 40
10.0
 40
10.0
 40
10.0
 40
11.0
 40
11.0
 40
11.0
 40
12.0
 40
12.0
 40
12.0
 40
13.0
 40
13.0
 40
13.0
 40
14.0
 40
14.0
 40
14.0
 40
15.0
 40
15.0
 40
15.0
 40
16.0
 40
16.0
 40
16.0
 40
17.0
 40
17.0
 40
17.0
 40
18.0
 40
18.0
 40
18.0
 40
19.0
 40
19.0
 40
19.0
 40
20.0
 40
20.0
 40
20.0
 40
21.0
 40
21.0
 40
21.0
 40
21.0
 10
144.4603559515132
 20
129.5356756993595
 30
0.0
 10
144.4603559515132
 20
130.4737758188525
 30
0.0
 10
143.6989893470037
 20
131.235142423362
 30
0.0
 10
142.7605447177349
 20
131.235142423362
 30
0.0
 10
142.7605447177349
 20
131.235142423362
 30
0.0
 10
142.7605447177349
 20
131.235142423362
 30
0.0
 10
142.7605447177349
 20
131.235142423362
 30
0.0
 10
142.7605447177349
 20
131.235142423362
 30
0.0
 10
142.7605447177349
 20
131.235142423362
 30
0.0
 10
142.7605447177349
 20
131.235142423362
 30
0.0
 10
142.7605447177349
 20
131.235142423362
 30
0.0
 10
142.7605447177349
 20
131.235142423362
 30
0.0
 10
142.7605447177349
 20
131.235142423362
 30
0.0
 10
141.8214110689146
 20
131.235142423362
 30
0.0
 10
141.0603889741808
 20
130.4737758188525
 30
0.0
 10
141.0603889741808
 20
129.5356756993595
 30
0.0
 10
141.0603889741808
 20
129.5356756993595
 30
0.0
 10
141.0603889741808
 20
129.5356756993595
 30
0.0
 10
141.0603889741808
 20
129.5356756993595
 30
0.0
 10
141.0603889741808
 20
129.5356756993595
 30
0.0
 10
141.0603889741808
 20
129.5356756993595
 30
0.0
 10
141.0603889741808
 20
129.5356756993595
 30
0.0
 10
141.0603889741808
 20
129.5356756993595
 30
0.0
 10
141.0603889741808
 20
129.5356756993595
 30
0.0
 10
141.0603889741808
 20
129.5356756993595
 30
0.0
 10
141.0603889741808
 20
128.5965420505391
 30
0.0
 10
141.8214110689146
 20
127.8355199558054
 30
0.0
 10
142.7605447177349
 20
127.8355199558054
 30
0.0
 10
142.7605447177349
 20
127.8355199558054
 30
0.0
 10
142.7605447177349
 20
127.8355199558054
 30
0.0
 10
142.7605447177349
 20
127.8355199558054
 30
0.0
 10
142.7605447177349
 20
127.8355199558054
 30
0.0
 10
142.7605447177349
 20
127.8355199558054
 30
0.0
 10
142.7605447177349
 20
127.8355199558054
 30
0.0
 10
142.7605447177349
 20
127.8355199558054
 30
0.0
 10
142.7605447177349
 20
127.8355199558054
 30
0.0
 10
142.7605447177349
 20
127.8355199558054
 30
0.0
 10
143.6989893470037
 20
127.8355199558054
 30
0.0
 10
144.4603559515132
 20
128.5965420505391
 30
0.0
 10
144.4603559515132
 20
129.5356756993595
 30
0.0
 10
144.4603559515132
 20
129.5356756993595
 30
0.0
 10
144.4603559515132
 20
129.5356756993595
 30
0.0
 10
144.4603559515132
 20
129.5356756993595
 30
0.0
 10
144.4603559515132
 20
129.5356756993595
 30
0.0
 10
144.4603559515132
 20
129.5356756993595
 30
0.0
 10
144.4603559515132
 20
129.5356756993595
 30
0.0
 10
144.4603559515132
 20
129.5356756993595
 30
0.0
 10
144.4603559515132
 20
129.5356756993595
 30
0.0
 10
144.4603559515132
 20
129.5356756993595
 30
0.0
 10
144.4603559515132
 20
129.5356756993595
 30
0.0
 10
144.4603559515132
 20
129.5356756993595
 30
0.0
 10
144.4603559515132
 20
129.5356756993595
 30
0.0
 10
144.4603559515132
 20
129.5356756993595
 30
0.0
 10
144.4603559515132
 20
129.5356756993595
 30
0.0
 10
144.4603559515132
 20
129.5356756993595
 30
0.0
 10
144.4603559515132
 20
129.5356756993595
 30
0.0
 10
144.4603559515132
 20
129.5356756993595
 30
0.0
 10
144.4603559515132
 20
129.5356756993595
 30
0.0
 10
144.4603559515132
 20
129.5356756993595
 30
0.0
 10
144.4603559515132
 20
129.5356756993595
 30
0.0
 10
144.4603559515132
 20
129.5356756993595
 30
0.0
 10
144.4603559515132
 20
129.5356756993595
 30
0.0
 10
144.4603559515132
 20
129.5356756993595
 30
0.0
 10
144.4603559515132
 20
129.5356756993595
 30
0.0
  0
SPLINE
  5
110
330
1F
100
AcDbEntity
  8
0
 62
     7
100
AcDbSpline
210
0.0
220
0.0
230
1.0
 70
    11
 71
     3
 72
    68
 73
    64
 74
     0
 42
0.0000000001
 43
0.0000000001
 40
0.0
 40
0.0
 40
0.0
 40
0.0
 40
1.0
 40
1.0
 40
1.0
 40
2.0
 40
2.0
 40
2.0
 40
3.0
 40
3.0
 40
3.0
 40
4.0
 40
4.0
 40
4.0
 40
5.0
 40
5.0
 40
5.0
 40
6.0
 40
6.0
 40
6.0
 40
7.0
 40
7.0
 40
7.0
 40
8.0
 40
8.0
 40
8.0
 40
9.0
 40
9.0
 40
9.0
 40
10.0
 40
10.0
 40
10.0
 40
11.0
 40
11.0
 40
11.0
 40
12.0
 40
12.0
 40
12.0
 40
13.0
 40
13.0
 40
13.0
 40
14.0
 40
14.0
 40
14.0
 40
15.0
 40
15.0
 40
15.0
 40
16.0
 40
16.0
 40
16.0
 40
17.0
 40
17.0
 40
17.0
 40
18.0
 40
18.0
 40
18.0
 40
19.0
 40
19.0
 40
19.0
 40
20.0
 40
20.0
 40
20.0
 40
21.0
 40
21.0
 40
21.0
 40
21.0
 10
121.4601942998094
 20
129.5356756993595
 30
0.0
 10
121.4601942998094
 20
130.4741203286283
 30
0.0
 10
120.6988276952999
 20
131.2354869331378
 30
0.0
 10
119.7596940464795
 20
131.2354869331378
 30
0.0
 10
119.7596940464795
 20
131.2354869331378
 30
0.0
 10
119.7596940464795
 20
131.2354869331378
 30
0.0
 10
119.7596940464795
 20
131.2354869331378
 30
0.0
 10
119.7596940464795
 20
131.2354869331378
 30
0.0
 10
119.7596940464795
 20
131.2354869331378
 30
0.0
 10
119.7596940464795
 20
131.2354869331378
 30
0.0
 10
119.7596940464795
 20
131.2354869331378
 30
0.0
 10
119.7596940464795
 20
131.2354869331378
 30
0.0
 10
119.7596940464795
 20
131.2354869331378
 30
0.0
 10
118.8205603976592
 20
131.2354869331378
 30
0.0
 10
118.0591937931496
 20
130.4741203286283
 30
0.0
 10
118.0591937931496
 20
129.5356756993595
 30
0.0
 10
118.0591937931496
 20
129.5356756993595
 30
0.0
 10
118.0591937931496
 20
129.5356756993595
 30
0.0
 10
118.0591937931496
 20
129.5356756993595
 30
0.0
 10
118.0591937931496
 20
129.5356756993595
 30
0.0
 10
118.0591937931496
 20
129.5356756993595
 30
0.0
 10
118.0591937931496
 20
129.5356756993595
 30
0.0
 10
118.0591937931496
 20
129.5356756993595
 30
0.0
 10
118.0591937931496
 20
129.5356756993595
 30
0.0
 10
118.0591937931496
 20
129.5356756993595
 30
0.0
 10
118.0591937931496
 20
128.5965420505391
 30
0.0
 10
118.8205603976592
 20
127.8351754460296
 30
0.0
 10
119.7596940464795
 20
127.8351754460296
 30
0.0
 10
119.7596940464795
 20
127.8351754460296
 30
0.0
 10
119.7596940464795
 20
127.8351754460296
 30
0.0
 10
119.7596940464795
 20
127.8351754460296
 30
0.0
 10
119.7596940464795
 20
127.8351754460296
 30
0.0
 10
119.7596940464795
 20
127.8351754460296
 30
0.0
 10
119.7596940464795
 20
127.8351754460296
 30
0.0
 10
119.7596940464795
 20
127.8351754460296
 30
0.0
 10
119.7596940464795
 20
127.8351754460296
 30
0.0
 10
119.7596940464795
 20
127.8351754460296
 30
0.0
 10
120.6988276952999
 20
127.8351754460296
 30
0.0
 10
121.4601942998094
 20
128.5965420505391
 30
0.0
 10
121.4601942998094
 20
129.5356756993595
 30
0.0
 10
121.4601942998094
 20
129.5356756993595
 30
0.0
 10
121.4601942998094
 20
129.5356756993595
 30
0.0
 10
121.4601942998094
 20
129.5356756993595
 30
0.0
 10
121.4601942998094
 20
129.5356756993595
 30
0.0
 10
121.4601942998094
 20
129.5356756993595
 30
0.0
 10
121.4601942998094
 20
129.5356756993595
 30
0.0
 10
121.4601942998094
 20
129.5356756993595
 30
0.0
 10
121.4601942998094
 20
129.5356756993595
 30
0.0
 10
121.4601942998094
 20
129.5356756993595
 30
0.0
 10
121.4601942998094
 20
129.5356756993595
 30
0.0
 10
121.4601942998094
 20
129.5356756993595
 30
0.0
 10
121.4601942998094
 20
129.5356756993595
 30
0.0
 10
121.4601942998094
 20
129.5356756993595
 30
0.0
 10
121.4601942998094
 20
129.5356756993595
 30
0.0
 10
121.4601942998094
 20
129.5356756993595
 30
0.0
 10
121.4601942998094
 20
129.5356756993595
 30
0.0
 10
121.4601942998094
 20
129.5356756993595
 30
0.0
 10
121.4601942998094
 20
129.5356756993595
 30
0.0
 10
121.4601942998094
 20
129.5356756993595
 30
0.0
 10
121.4601942998094
 20
129.5356756993595
 30
0.0
 10
121.4601942998094
 20
129.5356756993595
 30
0.0
 10
121.4601942998094
 20
129.5356756993595
 30
0.0
 10
121.4601942998094
 20
129.5356756993595
 30
0.0
 10
121.4601942998094
 20
129.5356756993595
 30
0.0
  0
SPLINE
  5
111
330
1F
100
AcDbEntity
  8
0
 62
     7
100
AcDbSpline
210
0.0
220
0.0
230
1.0
 70
    11
 71
     3
 72
    68
 73
    64
 74
     0
 42
0.0000000001
 43
0.0000000001
 40
0.0
 40
0.0
 40
0.0
 40
0.0
 40
1.0
 40
1.0
 40
1.0
 40
2.0
 40
2.0
 40
2.0
 40
3.0
 40
3.0
 40
3.0
 40
4.0
 40
4.0
 40
4.0
 40
5.0
 40
5.0
 40
5.0
 40
6.0
 40
6.0
 40
6.0
 40
7.0
 40
7.0
 40
7.0
 40
8.0
 40
8.0
 40
8.0
 40
9.0
 40
9.0
 40
9.0
 40
10.0
 40
10.0
 40
10.0
 40
11.0
 40
11.0
 40
11.0
 40
12.0
 40
12.0
 40
12.0
 40
13.0
 40
13.0
 40
13.0
 40
14.0
 40
14.0
 40
14.0
 40
15.0
 40
15.0
 40
15.0
 40
16.0
 40
16.0
 40
16.0
 40
17.0
 40
17.0
 40
17.0
 40
18.0
 40
18.0
 40
18.0
 40
19.0
 40
19.0
 40
19.0
 40
20.0
 40
20.0
 40
20.0
 40
21.0
 40
21.0
 40
21.0
 40
21.0
 10
121.4601942998094
 20
152.5358373510633
 30
0.0
 10
121.4601942998094
 20
153.4746264901079
 30
0.0
 10
120.6988276952999
 20
154.2358208397295
 30
0.0
 10
119.7596940464795
 20
154.2358208397295
 30
0.0
 10
119.7596940464795
 20
154.2358208397295
 30
0.0
 10
119.7596940464795
 20
154.2358208397295
 30
0.0
 10
119.7596940464795
 20
154.2358208397295
 30
0.0
 10
119.7596940464795
 20
154.2358208397295
 30
0.0
 10
119.7596940464795
 20
154.2358208397295
 30
0.0
 10
119.7596940464795
 20
154.2358208397295
 30
0.0
 10
119.7596940464795
 20
154.2358208397295
 30
0.0
 10
119.7596940464795
 20
154.2358208397295
 30
0.0
 10
119.7596940464795
 20
154.2358208397295
 30
0.0
 10
118.8205603976592
 20
154.2358208397295
 30
0.0
 10
118.0591937931496
 20
153.4746264901079
 30
0.0
 10
118.0591937931496
 20
152.5358373510633
 30
0.0
 10
118.0591937931496
 20
152.5358373510633
 30
0.0
 10
118.0591937931496
 20
152.5358373510633
 30
0.0
 10
118.0591937931496
 20
152.5358373510633
 30
0.0
 10
118.0591937931496
 20
152.5358373510633
 30
0.0
 10
118.0591937931496
 20
152.5358373510633
 30
0.0
 10
118.0591937931496
 20
152.5358373510633
 30
0.0
 10
118.0591937931496
 20
152.5358373510633
 30
0.0
 10
118.0591937931496
 20
152.5358373510633
 30
0.0
 10
118.0591937931496
 20
152.5358373510633
 30
0.0
 10
118.0591937931496
 20
151.596703702243
 30
0.0
 10
118.8205603976592
 20
150.8356816075092
 30
0.0
 10
119.7596940464795
 20
150.8356816075092
 30
0.0
 10
119.7596940464795
 20
150.8356816075092
 30
0.0
 10
119.7596940464795
 20
150.8356816075092
 30
0.0
 10
119.7596940464795
 20
150.8356816075092
 30
0.0
 10
119.7596940464795
 20
150.8356816075092
 30
0.0
 10
119.7596940464795
 20
150.8356816075092
 30
0.0
 10
119.7596940464795
 20
150.8356816075092
 30
0.0
 10
119.7596940464795
 20
150.8356816075092
 30
0.0
 10
119.7596940464795
 20
150.8356816075092
 30
0.0
 10
119.7596940464795
 20
150.8356816075092
 30
0.0
 10
120.6988276952999
 20
150.8356816075092
 30
0.0
 10
121.4601942998094
 20
151.596703702243
 30
0.0
 10
121.4601942998094
 20
152.5358373510633
 30
0.0
 10
121.4601942998094
 20
152.5358373510633
 30
0.0
 10
121.4601942998094
 20
152.5358373510633
 30
0.0
 10
121.4601942998094
 20
152.5358373510633
 30
0.0
 10
121.4601942998094
 20
152.5358373510633
 30
0.0
 10
121.4601942998094
 20
152.5358373510633
 30
0.0
 10
121.4601942998094
 20
152.5358373510633
 30
0.0
 10
121.4601942998094
 20
152.5358373510633
 30
0.0
 10
121.4601942998094
 20
152.5358373510633
 30
0.0
 10
121.4601942998094
 20
152.5358373510633
 30
0.0
 10
121.4601942998094
 20
152.5358373510633
 30
0.0
 10
121.4601942998094
 20
152.5358373510633
 30
0.0
 10
121.4601942998094
 20
152.5358373510633
 30
0.0
 10
121.4601942998094
 20
152.5358373510633
 30
0.0
 10
121.4601942998094
 20
152.5358373510633
 30
0.0
 10
121.4601942998094
 20
152.5358373510633
 30
0.0
 10
121.4601942998094
 20
152.5358373510633
 30
0.0
 10
121.4601942998094
 20
152.5358373510633
 30
0.0
 10
121.4601942998094
 20
152.5358373510633
 30
0.0
 10
121.4601942998094
 20
152.5358373510633
 30
0.0
 10
121.4601942998094
 20
152.5358373510633
 30
0.0
 10
121.4601942998094
 20
152.5358373510633
 30
0.0
 10
121.4601942998094
 20
152.5358373510633
 30
0.0
 10
121.4601942998094
 20
152.5358373510633
 30
0.0
 10
121.4601942998094
 20
152.5358373510633
 30
0.0
  0
POLYLINE
  5
112
330
1F
100
AcDbEntity
  8
0
 62
     7
100
AcDb2dPolyline
 66
     1
 10
0.0
 20
0.0
 30
0.0
  0
VERTEX
  5
113
330
112
100
AcDbEntity
  8
0
 62
     7
100
AcDbVertex
100
AcDb2dVertex
 10
130.2100535854805
 20
153.0358932906315
 30
0.0
  0
VERTEX
  5
114
330
112
100
AcDbEntity
  8
0
 62
     7
100
AcDbVertex
100
AcDb2dVertex
 10
132.3101851787339
 20
153.0358932906315
 30
0.0
  0
SEQEND
  5
115
330
112
100
AcDbEntity
  8
0
  0
SPLINE
  5
116
330
1F
100
AcDbEntity
  8
0
 62
     7
100
AcDbSpline
210
0.0
220
0.0
230
1.0
 70
     8
 71
     3
 72
     8
 73
     4
 74
     0
 42
0.0000000001
 43
0.0000000001
 40
0.0
 40
0.0
 40
0.0
 40
0.0
 40
1.0
 40
1.0
 40
1.0
 40
1.0
 10
132.5100008486957
 20
152.8357331108939
 30
0.0
 10
132.5100008486957
 20
152.9464930038123
 30
0.0
 10
132.4207728167645
 20
153.0358932906315
 30
0.0
 10
132.3101851787339
 20
153.0358932906315
 30
0.0
  0
SPLINE
  5
117
330
1F
100
AcDbEntity
  8
0
 62
     7
100
AcDbSpline
210
0.0
220
0.0
230
1.0
 70
     8
 71
     3
 72
     8
 73
     4
 74
     0
 42
0.0000000001
 43
0.0000000001
 40
0.0
 40
0.0
 40
0.0
 40
0.0
 40
1.0
 40
1.0
 40
1.0
 40
1.0
 10
130.2100535854805
 20
153.0358932906315
 30
0.0
 10
130.0998104572257
 20
153.0358932906315
 30
0.0
 10
130.0098934057429
 20
152.9464930038123
 30
0.0
 10
130.0098934057429
 20
152.8357331108939
 30
0.0
  0
POLYLINE
  5
118
330
1F
100
AcDbEntity
  8
0
 62
     7
100
AcDb2dPolyline
 66
     1
 10
0.0
 20
0.0
 30
0.0
  0
VERTEX
  5
119
330
118
100
AcDbEntity
  8
0
 62
     7
100
AcDbVertex
100
AcDb2dVertex
 10
132.5100008486957
 20
152.8357331108939
 30
0.0
  0
VERTEX
  5
11A
330
118
100
AcDbEntity
  8
0
 62
     7
100
AcDbVertex
100
AcDb2dVertex
 10
132.5100008486957
 20
152.3659940315958
 30
0.0
  0
SEQEND
  5
11B
330
118
100
AcDbEntity
  8
0
  0
POLYLINE
  5
11C
330
1F
100
AcDbEntity
  8
0
 62
     7
100
AcDb2dPolyline
 66
     1
 10
0.0
 20
0.0
 30
0.0
  0
VERTEX
  5
11D
330
11C
100
AcDbEntity
  8
0
 62
     7
100
AcDbVertex
100
AcDb2dVertex
 10
130.0098934057429
 20
152.8357331108939
 30
0.0
  0
VERTEX
  5
11E
330
11C
100
AcDbEntity
  8
0
 62
     7
100
AcDbVertex
100
AcDb2dVertex
 10
130.0098934057429
 20
152.3659940315958
 30
0.0
  0
SEQEND
  5
11F
330
11C
100
AcDbEntity
  8
0
  0
POLYLINE
  5
120
330
1F
100
AcDbEntity
  8
0
 62
     7
100
AcDb2dPolyline
 66
     1
 10
0.0
 20
0.0
 30
0.0
  0
VERTEX
  5
121
330
120
100
AcDbEntity
  8
0
 62
     7
100
AcDbVertex
100
AcDb2dVertex
 10
129.6602159833098
 20
150.2009223456048
 30
0.0
  0
VERTEX
  5
122
330
120
100
AcDbEntity
  8
0
 62
     7
100
AcDbVertex
100
AcDb2dVertex
 10
129.6602159833098
 20
149.2356059538239
 30
0.0
  0
SEQEND
  5
123
330
120
100
AcDbEntity
  8
0
  0
POLYLINE
  5
124
330
1F
100
AcDbEntity
  8
0
 62
     7
100
AcDb2dPolyline
 66
     1
 10
0.0
 20
0.0
 30
0.0
  0
VERTEX
  5
125
330
124
100
AcDbEntity
  8
0
 62
     7
100
AcDbVertex
100
AcDb2dVertex
 10
132.8600227809046
 20
150.2009223456048
 30
0.0
  0
VERTEX
  5
126
330
124
100
AcDbEntity
  8
0
 62
     7
100
AcDbVertex
100
AcDb2dVertex
 10
132.8600227809046
 20
149.2356059538239
 30
0.0
  0
SEQEND
  5
127
330
124
100
AcDbEntity
  8
0
  0
POLYLINE
  5
128
330
1F
100
AcDbEntity
  8
0
 62
     7
100
AcDb2dPolyline
 66
     1
 10
0.0
 20
0.0
 30
0.0
  0
VERTEX
  5
129
330
128
100
AcDbEntity
  8
0
 62
     7
100
AcDbVertex
100
AcDb2dVertex
 10
127.0646793324615
 20
130.4351907239633
 30
0.0
  0
VERTEX
  5
12A
330
128
100
AcDbEntity
  8
0
 62
     7
100
AcDbVertex
100
AcDb2dVertex
 10
135.4600380588383
 20
130.4351907239633
 30
0.0
  0
SEQEND
  5
12B
330
128
100
AcDbEntity
  8
0
  0
POLYLINE
  5
12C
330
1F
100
AcDbEntity
  8
0
 62
     7
100
AcDb2dPolyline
 66
     1
 10
0.0
 20
0.0
 30
0.0
  0
VERTEX
  5
12D
330
12C
100
AcDbEntity
  8
0
 62
     7
100
AcDbVertex
100
AcDb2dVertex
 10
142.53557983414
 20
142.7004277618585
 30
0.0
  0
VERTEX
  5
12E
330
12C
100
AcDbEntity
  8
0
 62
     7
100
AcDbVertex
100
AcDb2dVertex
 10
138.3401397844943
 20
149.9707898153729
 30
0.0
  0
SEQEND
  5
12F
330
12C
100
AcDbEntity
  8
0
  0
POLYLINE
  5
130
330
1F
100
AcDbEntity
  8
0
 62
     7
100
AcDb2dPolyline
 66
     1
 10
0.0
 20
0.0
 30
0.0
  0
VERTEX
  5
131
330
130
100
AcDbEntity
  8
0
 62
     7
100
AcDbVertex
100
AcDb2dVertex
 10
124.1794099601686
 20
149.9707898153729
 30
0.0
  0
VERTEX
  5
132
330
130
100
AcDbEntity
  8
0
 62
     7
100
AcDbVertex
100
AcDb2dVertex
 10
119.9843144202986
 20
142.7104185453566
 30
0.0
  0
SEQEND
  5
133
330
130
100
AcDbEntity
  8
0
  0
POLYLINE
  5
134
330
1F
100
AcDbEntity
  8
0
  6
AI-LINETYPE-4
 62
     7
100
AcDb2dPolyline
 66
     1
 10
0.0
 20
0.0
 30
0.0
  0
VERTEX
  5
135
330
134
100
AcDbEntity
  8
0
  6
AI-LINETYPE-4
 62
     7
100
AcDbVertex
100
AcDb2dVertex
 10
145.4604678306495
 20
152.5358373510633
 30
0.0
  0
VERTEX
  5
136
330
134
100
AcDbEntity
  8
0
  6
AI-LINETYPE-4
 62
     7
100
AcDbVertex
100
AcDb2dVertex
 10
140.0599325852687
 20
152.5358373510633
 30
0.0
  0
SEQEND
  5
137
330
134
100
AcDbEntity
  8
0
  6
AI-LINETYPE-4
  0
POLYLINE
  5
139
330
1F
100
AcDbEntity
  8
0
  6
AI-LINETYPE-5
 62
     7
100
AcDb2dPolyline
 66
     1
 10
0.0
 20
0.0
 30
0.0
  0
VERTEX
  5
13A
330
139
100
AcDbEntity
  8
0
  6
AI-LINETYPE-5
 62
     7
100
AcDbVertex
100
AcDb2dVertex
 10
142.7605447177349
 20
155.2362772286416
 30
0.0
  0
VERTEX
  5
13B
330
139
100
AcDbEntity
  8
0
  6
AI-LINETYPE-5
 62
     7
100
AcDbVertex
100
AcDb2dVertex
 10
142.7605447177349
 20
149.8359142381487
 30
0.0
  0
SEQEND
  5
13C
330
139
100
AcDbEntity
  8
0
  6
AI-LINETYPE-5
  0
POLYLINE
  5
13E
330
1F
100
AcDbEntity
  8
0
  6
AI-LINETYPE-6
 62
     7
100
AcDb2dPolyline
 66
     1
 10
0.0
 20
0.0
 30
0.0
  0
VERTEX
  5
13F
330
13E
100
AcDbEntity
  8
0
  6
AI-LINETYPE-6
 62
     7
100
AcDbVertex
100
AcDb2dVertex
 10
117.0597709335649
 20
152.5358373510633
 30
0.0
  0
VERTEX
  5
140
330
13E
100
AcDbEntity
  8
0
  6
AI-LINETYPE-6
 62
     7
100
AcDbVertex
100
AcDb2dVertex
 10
122.4599616691699
 20
152.5358373510633
 30
0.0
  0
SEQEND
  5
141
330
13E
100
AcDbEntity
  8
0
  6
AI-LINETYPE-6
  0
POLYLINE
  5
143
330
1F
100
AcDbEntity
  8
0
  6
AI-LINETYPE-7
 62
     7
100
AcDb2dPolyline
 66
     1
 10
0.0
 20
0.0
 30
0.0
  0
VERTEX
  5
144
330
143
100
AcDbEntity
  8
0
  6
AI-LINETYPE-7
 62
     7
100
AcDbVertex
100
AcDb2dVertex
 10
119.7593495367037
 20
155.2362772286416
 30
0.0
  0
VERTEX
  5
145
330
143
100
AcDbEntity
  8
0
  6
AI-LINETYPE-7
 62
     7
100
AcDbVertex
100
AcDb2dVertex
 10
119.7593495367037
 20
149.8359142381487
 30
0.0
  0
SEQEND
  5
146
330
143
100
AcDbEntity
  8
0
  6
AI-LINETYPE-7
  0
POLYLINE
  5
148
330
1F
100
AcDbEntity
  8
0
  6
AI-LINETYPE-8
 62
     7
100
AcDb2dPolyline
 66
     1
 10
0.0
 20
0.0
 30
0.0
  0
VERTEX
  5
149
330
148
100
AcDbEntity
  8
0
  6
AI-LINETYPE-8
 62
     7
100
AcDbVertex
100
AcDb2dVertex
 10
145.4604678306495
 20
129.5356756993595
 30
0.0
  0
VERTEX
  5
14A
330
148
100
AcDbEntity
  8
0
  6
AI-LINETYPE-8
 62
     7
100
AcDbVertex
100
AcDb2dVertex
 10
140.0599325852687
 20
129.5356756993595
 30
0.0
  0
SEQEND
  5
14B
330
148
100
AcDbEntity
  8
0
  6
AI-LINETYPE-8
  0
POLYLINE
  5
14D
330
1F
100
AcDbEntity
  8
0
  6
AI-LINETYPE-9
 62
     7
100
AcDb2dPolyline
 66
     1
 10
0.0
 20
0.0
 30
0.0
  0
VERTEX
  5
14E
330
14D
100
AcDbEntity
  8
0
  6
AI-LINETYPE-9
 62
     7
100
AcDbVertex
100
AcDb2dVertex
 10
142.7605447177349
 20
126.8350635668933
 30
0.0
  0
VERTEX
  5
14F
330
14D
100
AcDbEntity
  8
0
  6
AI-LINETYPE-9
 62
     7
100
AcDbVertex
100
AcDb2dVertex
 10
142.7605447177349
 20
132.235598812274
 30
0.0
  0
SEQEND
  5
150
330
14D
100
AcDbEntity
  8
0
  6
AI-LINETYPE-9
  0
POLYLINE
  5
152
330
1F
100
AcDbEntity
  8
0
  6
AI-LINETYPE-10
 62
     7
100
AcDb2dPolyline
 66
     1
 10
0.0
 20
0.0
 30
0.0
  0
VERTEX
  5
153
330
152
100
AcDbEntity
  8
0
  6
AI-LINETYPE-10
 62
     7
100
AcDbVertex
100
AcDb2dVertex
 10
117.0597709335649
 20
129.5356756993595
 30
0.0
  0
VERTEX
  5
154
330
152
100
AcDbEntity
  8
0
  6
AI-LINETYPE-10
 62
     7
100
AcDbVertex
100
AcDb2dVertex
 10
122.4599616691699
 20
129.5356756993595
 30
0.0
  0
SEQEND
  5
155
330
152
100
AcDbEntity
  8
0
  6
AI-LINETYPE-10
  0
POLYLINE
  5
157
330
1F
100
AcDbEntity
  8
0
  6
AI-LINETYPE-11
 62
     7
100
AcDb2dPolyline
 66
     1
 10
0.0
 20
0.0
 30
0.0
  0
VERTEX
  5
158
330
157
100
AcDbEntity
  8
0
  6
AI-LINETYPE-11
 62
     7
100
AcDbVertex
100
AcDb2dVertex
 10
119.7593495367037
 20
126.8350635668933
 30
0.0
  0
VERTEX
  5
159
330
157
100
AcDbEntity
  8
0
  6
AI-LINETYPE-11
 62
     7
100
AcDbVertex
100
AcDb2dVertex
 10
119.7593495367037
 20
132.235598812274
 30
0.0
  0
SEQEND
  5
15A
330
157
100
AcDbEntity
  8
0
  6
AI-LINETYPE-11
  0
SPLINE
  5
15C
330
1F
100
AcDbEntity
  8
0
 62
     7
100
AcDbSpline
210
0.0
220
0.0
230
1.0
 70
    11
 71
     3
 72
    68
 73
    64
 74
     0
 42
0.0000000001
 43
0.0000000001
 40
0.0
 40
0.0
 40
0.0
 40
0.0
 40
1.0
 40
1.0
 40
1.0
 40
2.0
 40
2.0
 40
2.0
 40
3.0
 40
3.0
 40
3.0
 40
4.0
 40
4.0
 40
4.0
 40
5.0
 40
5.0
 40
5.0
 40
6.0
 40
6.0
 40
6.0
 40
7.0
 40
7.0
 40
7.0
 40
8.0
 40
8.0
 40
8.0
 40
9.0
 40
9.0
 40
9.0
 40
10.0
 40
10.0
 40
10.0
 40
11.0
 40
11.0
 40
11.0
 40
12.0
 40
12.0
 40
12.0
 40
13.0
 40
13.0
 40
13.0
 40
14.0
 40
14.0
 40
14.0
 40
15.0
 40
15.0
 40
15.0
 40
16.0
 40
16.0
 40
16.0
 40
17.0
 40
17.0
 40
17.0
 40
18.0
 40
18.0
 40
18.0
 40
19.0
 40
19.0
 40
19.0
 40
20.0
 40
20.0
 40
20.0
 40
21.0
 40
21.0
 40
21.0
 40
21.0
 10
138.2602135165096
 20
141.0354120154356
 30
0.0
 10
138.2602135165096
 20
144.9015007194202
 30
0.0
 10
135.1262080860918
 20
148.035506149838
 30
0.0
 10
131.2597748723314
 20
148.035506149838
 30
0.0
 10
131.2597748723314
 20
148.035506149838
 30
0.0
 10
131.2597748723314
 20
148.035506149838
 30
0.0
 10
131.2597748723314
 20
148.035506149838
 30
0.0
 10
131.2597748723314
 20
148.035506149838
 30
0.0
 10
131.2597748723314
 20
148.035506149838
 30
0.0
 10
131.2597748723314
 20
148.035506149838
 30
0.0
 10
131.2597748723314
 20
148.035506149838
 30
0.0
 10
131.2597748723314
 20
148.035506149838
 30
0.0
 10
131.2597748723314
 20
148.035506149838
 30
0.0
 10
127.3940306781226
 20
148.035506149838
 30
0.0
 10
124.2593362281533
 20
144.9015007194202
 30
0.0
 10
124.2593362281533
 20
141.0354120154356
 30
0.0
 10
124.2593362281533
 20
141.0354120154356
 30
0.0
 10
124.2593362281533
 20
141.0354120154356
 30
0.0
 10
124.2593362281533
 20
141.0354120154356
 30
0.0
 10
124.2593362281533
 20
141.0354120154356
 30
0.0
 10
124.2593362281533
 20
141.0354120154356
 30
0.0
 10
124.2593362281533
 20
141.0354120154356
 30
0.0
 10
124.2593362281533
 20
141.0354120154356
 30
0.0
 10
124.2593362281533
 20
141.0354120154356
 30
0.0
 10
124.2593362281533
 20
141.0354120154356
 30
0.0
 10
124.2593362281533
 20
137.169323311451
 30
0.0
 10
127.3940306781226
 20
134.0356623908091
 30
0.0
 10
131.2597748723314
 20
134.0356623908091
 30
0.0
 10
131.2597748723314
 20
134.0356623908091
 30
0.0
 10
131.2597748723314
 20
134.0356623908091
 30
0.0
 10
131.2597748723314
 20
134.0356623908091
 30
0.0
 10
131.2597748723314
 20
134.0356623908091
 30
0.0
 10
131.2597748723314
 20
134.0356623908091
 30
0.0
 10
131.2597748723314
 20
134.0356623908091
 30
0.0
 10
131.2597748723314
 20
134.0356623908091
 30
0.0
 10
131.2597748723314
 20
134.0356623908091
 30
0.0
 10
131.2597748723314
 20
134.0356623908091
 30
0.0
 10
135.1262080860918
 20
134.0356623908091
 30
0.0
 10
138.2602135165096
 20
137.169323311451
 30
0.0
 10
138.2602135165096
 20
141.0354120154356
 30
0.0
 10
138.2602135165096
 20
141.0354120154356
 30
0.0
 10
138.2602135165096
 20
141.0354120154356
 30
0.0
 10
138.2602135165096
 20
141.0354120154356
 30
0.0
 10
138.2602135165096
 20
141.0354120154356
 30
0.0
 10
138.2602135165096
 20
141.0354120154356
 30
0.0
 10
138.2602135165096
 20
141.0354120154356
 30
0.0
 10
138.2602135165096
 20
141.0354120154356
 30
0.0
 10
138.2602135165096
 20
141.0354120154356
 30
0.0
 10
138.2602135165096
 20
141.0354120154356
 30
0.0
 10
138.2602135165096
 20
141.0354120154356
 30
0.0
 10
138.2602135165096
 20
141.0354120154356
 30
0.0
 10
138.2602135165096
 20
141.0354120154356
 30
0.0
 10
138.2602135165096
 20
141.0354120154356
 30
0.0
 10
138.2602135165096
 20
141.0354120154356
 30
0.0
 10
138.2602135165096
 20
141.0354120154356
 30
0.0
 10
138.2602135165096
 20
141.0354120154356
 30
0.0
 10
138.2602135165096
 20
141.0354120154356
 30
0.0
 10
138.2602135165096
 20
141.0354120154356
 30
0.0
 10
138.2602135165096
 20
141.0354120154356
 30
0.0
 10
138.2602135165096
 20
141.0354120154356
 30
0.0
 10
138.2602135165096
 20
141.0354120154356
 30
0.0
 10
138.2602135165096
 20
141.0354120154356
 30
0.0
 10
138.2602135165096
 20
141.0354120154356
 30
0.0
 10
138.2602135165096
 20
141.0354120154356
 30
0.0
  0
MTEXT
  5
15D
330
1F
100
AcDbEntity
  8
0
 62
     7
100
AcDbMText
 10
63.43441276246067
 20
167.5009975018731
 30
0.0
 40
3.150105596865297
 41
0.0
 71
     7
 72
     1
  1
\fMS Gothic|b0|i0|c0|p34;\W1;FA-20*-RF
  0
ENDSEC
  0
SECTION
  2
OBJECTS
  0
DICTIONARY
  5
C
330
0
100
AcDbDictionary
  3
ACAD_GROUP
350
D
  3
ACAD_LAYOUT
350
1A
  3
ACAD_MLINESTYLE
350
17
  3
ACAD_PLOTSETTINGS
350
19
  3
ACAD_TABLESTYLE
350
15E
  3
ACAD_VISUALSTYLE
350
2A
  3
ACDBHEADERROUNDTRIPXREC
350
15F
  0
DICTIONARY
  5
17F
330
29
100
AcDbDictionary
280
     1
  3
ACAD_XREC_ROUNDTRIP
360
180
  0
DICTIONARY
  5
D
102
{ACAD_REACTORS
330
C
102
}
330
C
100
AcDbDictionary
  0
DICTIONARY
  5
1A
102
{ACAD_REACTORS
330
C
102
}
330
C
100
AcDbDictionary
  0
DICTIONARY
  5
17
102
{ACAD_REACTORS
330
C
102
}
330
C
100
AcDbDictionary
  3
STANDARD
350
18
  0
DICTIONARY
  5
19
102
{ACAD_REACTORS
330
C
102
}
330
C
100
AcDbDictionary
  0
DICTIONARY
  5
15E
102
{ACAD_REACTORS
330
C
102
}
330
C
100
AcDbDictionary
  0
DICTIONARY
  5
2A
102
{ACAD_REACTORS
330
C
102
}
330
C
100
AcDbDictionary
  3
2DWIREFRAME
350
2F
  3
3D_HIDDEN
350
31
  3
3DWIREFRAME
350
30
  3
BASIC
350
32
  3
BRIGHTEN
350
36
  3
COLORCHANGE
350
3A
  3
CONCEPTUAL
350
34
  3
DIM
350
35
  3
FACEPATTERN
350
39
  3
FLAT
350
2B
  3
FLATWITHEDGES
350
2C
  3
GOURAUD
350
2D
  3
GOURAUDWITHEDGES
350
2E
  3
LINEPATTERN
350
38
  3
REALISTIC
350
33
  3
THICKEN
350
37
  0
DICTIONARY
  5
15F
102
{ACAD_REACTORS
330
C
102
}
330
C
100
AcDbDictionary
  3
CEPSNTYPE
350
168
  3
DIMSTYLEDATA
350
17E
  3
FINGERPRINTGUID
350
169
  3
HYPERLINKBASE
350
162
  3
INSUNITS
350
167
  3
LAYOUTDICT
350
164
  3
LWETCUNION
350
166
  3
PLOTSETDICT
350
165
  3
PSVPSCALE
350
16B
  3
PUCSBASE
350
16E
  3
PUCSORGBACK
350
174
  3
PUCSORGBOTTOM
350
170
  3
PUCSORGFRONT
350
173
  3
PUCSORGLEFT
350
171
  3
PUCSORGRIGHT
350
172
  3
PUCSORGTOP
350
16F
  3
PUCSORTHOREF
350
16C
  3
PUCSORTHOVIEW
350
16D
  3
STYLESHEET
350
163
  3
TSTACKALIGN
350
160
  3
TSTACKSIZE
350
161
  3
UCSBASE
350
177
  3
UCSORGBACK
350
17D
  3
UCSORGBOTTOM
350
179
  3
UCSORGFRONT
350
17C
  3
UCSORGLEFT
350
17A
  3
UCSORGRIGHT
350
17B
  3
UCSORGTOP
350
178
  3
UCSORTHOREF
350
175
  3
UCSORTHOVIEW
350
176
  3
VERSIONGUID
350
16A
  0
XRECORD
  5
180
102
{ACAD_REACTORS
330
17F
102
}
330
17F
100
AcDbXrecord
102
UCS
 74
     0
 71
     1
 10
0.0
 20
0.0
 30
0.0
 10
1.0
 20
0.0
 30
0.0
 10
0.0
 20
1.0
 30
0.0
146
0.0
 79
     0
102
VIEW
281
     0
  0
MLINESTYLE
  5
18
102
{ACAD_REACTORS
330
17
102
}
330
17
100
AcDbMlineStyle
  2
Standard
 70
     0
  3

 62
   256
 51
90.0
 52
90.0
 71
     2
 49
0.5
 62
   256
  6
BYLAYER
 49
-0.5
 62
   256
  6
BYLAYER
  0
ACAD_PROXY_OBJECT_WRAPPER
  5
2F
102
{ACAD_REACTORS
330
2A
102
}
330
2A
100
AcDbVisualStyle
  2
2dWireframe
 70
     4
 71
     0
 72
     2
 73
     0
 90
        0
 40
-0.6
 41
-30.0
 62
     5
 63
     7
421
 16777215
 74
     1
 91
        4
 64
     7
 65
   257
 75
     1
175
     1
 42
1.0
 92
        0
 66
   257
 43
1.0
 76
     1
 77
     6
 78
     2
 67
     7
 79
     5
170
     0
171
     0
290
     0
174
     0
 93
        1
 44
0.0
173
     0
291
     0
 45
0.0
1001
ACAD
1000
AcDbSavedByObjectVersion
1070
     0
1000
AcadProxyRoundTripData
1071
      501
1071
       25
1070
     1
  0
ACAD_PROXY_OBJECT_WRAPPER
  5
31
102
{ACAD_REACTORS
330
2A
102
}
330
2A
100
AcDbVisualStyle
  2
3D Hidden
 70
     6
 71
     1
 72
     2
 73
     2
 90
        0
 40
-0.6
 41
-30.0
 62
     5
 63
     7
421
 16777215
 74
     2
 91
        2
 64
     7
 65
   257
 75
     2
175
     1
 42
40.0
 92
        0
 66
   257
 43
1.0
 76
     1
 77
     6
 78
     2
 67
     7
 79
     3
170
     0
171
     0
290
     0
174
     0
 93
        1
 44
0.0
173
     0
291
     0
 45
0.0
1001
ACAD
1000
AcDbSavedByObjectVersion
1070
     0
1000
AcadProxyRoundTripData
1071
      501
1071
       25
1070
     1
  0
ACAD_PROXY_OBJECT_WRAPPER
  5
30
102
{ACAD_REACTORS
330
2A
102
}
330
2A
100
AcDbVisualStyle
  2
3dWireframe
 70
     5
 71
     0
 72
     2
 73
     0
 90
        0
 40
-0.6
 41
-30.0
 62
     5
 63
     7
421
 16777215
 74
     1
 91
        4
 64
     7
 65
   257
 75
     1
175
     1
 42
1.0
 92
        0
 66
   257
 43
1.0
 76
     1
 77
     6
 78
     2
 67
     7
 79
     5
170
     0
171
     0
290
     0
174
     0
 93
        1
 44
0.0
173
     0
291
     0
 45
0.0
1001
ACAD
1000
AcDbSavedByObjectVersion
1070
     0
1000
AcadProxyRoundTripData
1071
      501
1071
       25
1070
     1
  0
ACAD_PROXY_OBJECT_WRAPPER
  5
32
102
{ACAD_REACTORS
330
2A
102
}
330
2A
100
AcDbVisualStyle
  2
Basic
 70
     7
 71
     1
 72
     0
 73
     1
 90
        0
 40
-0.6
 41
-30.0
 62
     5
 63
     7
421
 16777215
 74
     0
 91
        4
 64
     7
 65
   257
 75
     1
175
     1
 42
1.0
 92
        8
 66
     7
 43
1.0
 76
     1
 77
     6
 78
     2
 67
     7
 79
     5
170
     0
171
     0
290
     0
174
     0
 93
        1
 44
0.0
173
     0
291
     1
 45
0.0
1001
ACAD
1000
AcDbSavedByObjectVersion
1070
     0
1000
AcadProxyRoundTripData
1071
      501
1071
       25
1070
     1
  0
ACAD_PROXY_OBJECT_WRAPPER
  5
36
102
{ACAD_REACTORS
330
2A
102
}
330
2A
100
AcDbVisualStyle
  2
Brighten
 70
    12
 71
     2
 72
     2
 73
     0
 90
        0
 40
-0.6
 41
-30.0
 62
     5
 63
     7
421
 16777215
 74
     1
 91
        4
 64
     7
 65
   257
 75
     1
175
     1
 42
1.0
 92
        8
 66
     7
 43
1.0
 76
     1
 77
     6
 78
     2
 67
     7
 79
     5
170
     0
171
     0
290
     0
174
     0
 93
        1
 44
50.0
173
     0
291
     1
 45
0.0
1001
ACAD
1000
AcDbSavedByObjectVersion
1070
     0
1000
AcadProxyRoundTripData
1071
      501
1071
       25
1070
     1
  0
ACAD_PROXY_OBJECT_WRAPPER
  5
3A
102
{ACAD_REACTORS
330
2A
102
}
330
2A
100
AcDbVisualStyle
  2
ColorChange
 70
    16
 71
     2
 72
     2
 73
     3
 90
        0
 40
-0.6
 41
-30.0
 62
     5
 63
     8
421
  8421504
 74
     1
 91
        4
 64
     7
 65
   257
 75
     1
175
     1
 42
1.0
 92
        8
 66
     8
424
  8421504
 43
1.0
 76
     1
 77
     6
 78
     2
 67
     7
 79
     5
170
     0
171
     0
290
     0
174
     0
 93
        1
 44
0.0
173
     0
291
     1
 45
0.0
1001
ACAD
1000
AcDbSavedByObjectVersion
1070
     0
1000
AcadProxyRoundTripData
1071
      501
1071
       25
1070
     1
  0
ACAD_PROXY_OBJECT_WRAPPER
  5
34
102
{ACAD_REACTORS
330
2A
102
}
330
2A
100
AcDbVisualStyle
  2
Conceptual
 70
     9
 71
     3
 72
     2
 73
     0
 90
        0
 40
-0.6
 41
-30.0
 62
     5
 63
     7
421
 16777215
 74
     2
 91
        2
 64
     7
 65
   257
 75
     1
175
     1
 42
40.0
 92
        8
 66
     7
 43
1.0
 76
     1
 77
     6
 78
     2
 67
     7
 79
     3
170
     0
171
     0
290
     0
174
     0
 93
        1
 44
0.0
173
     0
291
     0
 45
0.0
1001
ACAD
1000
AcDbSavedByObjectVersion
1070
     0
1000
AcadProxyRoundTripData
1071
      501
1071
       25
1070
     1
  0
ACAD_PROXY_OBJECT_WRAPPER
  5
35
102
{ACAD_REACTORS
330
2A
102
}
330
2A
100
AcDbVisualStyle
  2
Dim
 70
    11
 71
     2
 72
     2
 73
     0
 90
        0
 40
-0.6
 41
-30.0
 62
     5
 63
     7
421
 16777215
 74
     1
 91
        4
 64
     7
 65
   257
 75
     1
175
     1
 42
1.0
 92
        8
 66
     7
 43
1.0
 76
     1
 77
     6
 78
     2
 67
     7
 79
     5
170
     0
171
     0
290
     0
174
     0
 93
        1
 44
-50.0
173
     0
291
     1
 45
0.0
1001
ACAD
1000
AcDbSavedByObjectVersion
1070
     0
1000
AcadProxyRoundTripData
1071
      501
1071
       25
1070
     1
  0
ACAD_PROXY_OBJECT_WRAPPER
  5
39
102
{ACAD_REACTORS
330
2A
102
}
330
2A
100
AcDbVisualStyle
  2
Facepattern
 70
    15
 71
     2
 72
     2
 73
     0
 90
        0
 40
-0.6
 41
-30.0
 62
     5
 63
     7
421
 16777215
 74
     1
 91
        4
 64
     7
 65
   257
 75
     1
175
     1
 42
1.0
 92
        8
 66
     7
 43
1.0
 76
     1
 77
     6
 78
     2
 67
     7
 79
     5
170
     0
171
     0
290
     0
174
     0
 93
        1
 44
0.0
173
     0
291
     1
 45
0.0
1001
ACAD
1000
AcDbSavedByObjectVersion
1070
     0
1000
AcadProxyRoundTripData
1071
      501
1071
       25
1070
     1
  0
ACAD_PROXY_OBJECT_WRAPPER
  5
2B
102
{ACAD_REACTORS
330
2A
102
}
330
2A
100
AcDbVisualStyle
  2
Flat
 70
     0
 71
     2
 72
     1
 73
     1
 90
        2
 40
-0.6
 41
30.0
 62
     5
 63
     7
421
 16777215
 74
     0
 91
        4
 64
     7
 65
   257
 75
     1
175
     1
 42
1.0
 92
        8
 66
     7
 43
1.0
 76
     1
 77
     6
 78
     2
 67
     7
 79
     5
170
     0
171
     0
290
     0
174
     0
 93
       13
 44
0.0
173
     0
291
     1
 45
0.0
1001
ACAD
1000
AcDbSavedByObjectVersion
1070
     0
1000
AcadProxyRoundTripData
1071
      501
1071
       25
1070
     1
  0
ACAD_PROXY_OBJECT_WRAPPER
  5
2C
102
{ACAD_REACTORS
330
2A
102
}
330
2A
100
AcDbVisualStyle
  2
FlatWithEdges
 70
     1
 71
     2
 72
     1
 73
     1
 90
        2
 40
-0.6
 41
30.0
 62
     5
 63
     7
421
 16777215
 74
     1
 91
        4
 64
     7
 65
   257
 75
     1
175
     1
 42
1.0
 92
        0
 66
   257
 43
1.0
 76
     1
 77
     6
 78
     2
 67
     7
 79
     5
170
     0
171
     0
290
     0
174
     0
 93
       13
 44
0.0
173
     0
291
     1
 45
0.0
1001
ACAD
1000
AcDbSavedByObjectVersion
1070
     0
1000
AcadProxyRoundTripData
1071
      501
1071
       25
1070
     1
  0
ACAD_PROXY_OBJECT_WRAPPER
  5
2D
102
{ACAD_REACTORS
330
2A
102
}
330
2A
100
AcDbVisualStyle
  2
Gouraud
 70
     2
 71
     2
 72
     2
 73
     1
 90
        2
 40
-0.6
 41
30.0
 62
     5
 63
     7
421
 16777215
 74
     0
 91
        4
 64
     7
 65
   257
 75
     1
175
     1
 42
1.0
 92
        0
 66
     7
 43
1.0
 76
     1
 77
     6
 78
     2
 67
     7
 79
     5
170
     0
171
     0
290
     0
174
     0
 93
       13
 44
0.0
173
     0
291
     1
 45
0.0
1001
ACAD
1000
AcDbSavedByObjectVersion
1070
     0
1000
AcadProxyRoundTripData
1071
      501
1071
       25
1070
     1
  0
ACAD_PROXY_OBJECT_WRAPPER
  5
2E
102
{ACAD_REACTORS
330
2A
102
}
330
2A
100
AcDbVisualStyle
  2
GouraudWithEdges
 70
     3
 71
     2
 72
     2
 73
     1
 90
        2
 40
-0.6
 41
30.0
 62
     5
 63
     7
421
 16777215
 74
     1
 91
        4
 64
     7
 65
   257
 75
     1
175
     1
 42
1.0
 92
        0
 66
   257
 43
1.0
 76
     1
 77
     6
 78
     2
 67
     7
 79
     5
170
     0
171
     0
290
     0
174
     0
 93
       13
 44
0.0
173
     0
291
     1
 45
0.0
1001
ACAD
1000
AcDbSavedByObjectVersion
1070
     0
1000
AcadProxyRoundTripData
1071
      501
1071
       25
1070
     1
  0
ACAD_PROXY_OBJECT_WRAPPER
  5
38
102
{ACAD_REACTORS
330
2A
102
}
330
2A
100
AcDbVisualStyle
  2
Linepattern
 70
    14
 71
     2
 72
     2
 73
     0
 90
        0
 40
-0.6
 41
-30.0
 62
     5
 63
     7
421
 16777215
 74
     1
 91
        4
 64
     7
 65
   257
 75
     7
175
     7
 42
1.0
 92
        8
 66
     7
 43
1.0
 76
     1
 77
     6
 78
     2
 67
     7
 79
     5
170
     0
171
     0
290
     0
174
     0
 93
        1
 44
0.0
173
     0
291
     1
 45
0.0
1001
ACAD
1000
AcDbSavedByObjectVersion
1070
     0
1000
AcadProxyRoundTripData
1071
      501
1071
       25
1070
     1
  0
ACAD_PROXY_OBJECT_WRAPPER
  5
33
102
{ACAD_REACTORS
330
2A
102
}
330
2A
100
AcDbVisualStyle
  2
Realistic
 70
     8
 71
     2
 72
     2
 73
     0
 90
        0
 40
-0.6
 41
-30.0
 62
     5
 63
     7
421
 16777215
 74
     1
 91
        0
 64
     7
 65
   257
 75
     1
175
     1
 42
1.0
 92
        8
 66
     8
424
  7895160
 43
1.0
 76
     1
 77
     6
 78
     2
 67
     7
 79
     5
170
     0
171
     0
290
     0
174
     0
 93
       13
 44
0.0
173
     0
291
     0
 45
0.0
1001
ACAD
1000
AcDbSavedByObjectVersion
1070
     0
1000
AcadProxyRoundTripData
1071
      501
1071
       25
1070
     1
  0
ACAD_PROXY_OBJECT_WRAPPER
  5
37
102
{ACAD_REACTORS
330
2A
102
}
330
2A
100
AcDbVisualStyle
  2
Thicken
 70
    13
 71
     2
 72
     2
 73
     0
 90
        0
 40
-0.6
 41
-30.0
 62
     5
 63
     7
421
 16777215
 74
     1
 91
        4
 64
     7
 65
   257
 75
     1
175
     1
 42
1.0
 92
       12
 66
     7
 43
1.0
 76
     1
 77
     6
 78
     2
 67
     7
 79
     5
170
     0
171
     0
290
     0
174
     0
 93
        1
 44
0.0
173
     0
291
     1
 45
0.0
1001
ACAD
1000
AcDbSavedByObjectVersion
1070
     0
1000
AcadProxyRoundTripData
1071
      501
1071
       25
1070
     1
  0
XRECORD
  5
168
102
{ACAD_REACTORS
330
15F
102
}
330
15F
100
AcDbXrecord
 90
        0
  0
XRECORD
  5
17E
102
{ACAD_REACTORS
330
15F
102
}
330
15F
100
AcDbXrecord
1000
DSTYLE
1002
{
1070
   340
340
11
1002
}
  0
XRECORD
  5
169
102
{ACAD_REACTORS
330
15F
102
}
330
15F
100
AcDbXrecord
  1
{C29589EA-397F-4176-B988-59D08558C8A0}
  0
XRECORD
  5
162
102
{ACAD_REACTORS
330
15F
102
}
330
15F
100
AcDbXrecord
  1

  0
XRECORD
  5
167
102
{ACAD_REACTORS
330
15F
102
}
330
15F
100
AcDbXrecord
 90
        1
  0
XRECORD
  5
164
102
{ACAD_REACTORS
330
15F
102
}
330
15F
100
AcDbXrecord
340
1A
  0
XRECORD
  5
166
102
{ACAD_REACTORS
330
15F
102
}
330
15F
100
AcDbXrecord
 90
    10269
  0
XRECORD
  5
165
102
{ACAD_REACTORS
330
15F
102
}
330
15F
100
AcDbXrecord
340
19
  0
XRECORD
  5
16B
102
{ACAD_REACTORS
330
15F
102
}
330
15F
100
AcDbXrecord
 40
0.0
  0
XRECORD
  5
16E
102
{ACAD_REACTORS
330
15F
102
}
330
15F
100
AcDbXrecord
340
0
  0
XRECORD
  5
174
102
{ACAD_REACTORS
330
15F
102
}
330
15F
100
AcDbXrecord
 10
0.0
 20
0.0
 30
0.0
  0
XRECORD
  5
170
102
{ACAD_REACTORS
330
15F
102
}
330
15F
100
AcDbXrecord
 10
0.0
 20
0.0
 30
0.0
  0
XRECORD
  5
173
102
{ACAD_REACTORS
330
15F
102
}
330
15F
100
AcDbXrecord
 10
0.0
 20
0.0
 30
0.0
  0
XRECORD
  5
171
102
{ACAD_REACTORS
330
15F
102
}
330
15F
100
AcDbXrecord
 10
0.0
 20
0.0
 30
0.0
  0
XRECORD
  5
172
102
{ACAD_REACTORS
330
15F
102
}
330
15F
100
AcDbXrecord
 10
0.0
 20
0.0
 30
0.0
  0
XRECORD
  5
16F
102
{ACAD_REACTORS
330
15F
102
}
330
15F
100
AcDbXrecord
 10
0.0
 20
0.0
 30
0.0
  0
XRECORD
  5
16C
102
{ACAD_REACTORS
330
15F
102
}
330
15F
100
AcDbXrecord
340
0
  0
XRECORD
  5
16D
102
{ACAD_REACTORS
330
15F
102
}
330
15F
100
AcDbXrecord
 70
     0
  0
XRECORD
  5
163
102
{ACAD_REACTORS
330
15F
102
}
330
15F
100
AcDbXrecord
  1

  0
XRECORD
  5
160
102
{ACAD_REACTORS
330
15F
102
}
330
15F
100
AcDbXrecord
 90
        1
  0
XRECORD
  5
161
102
{ACAD_REACTORS
330
15F
102
}
330
15F
100
AcDbXrecord
 90
       70
  0
XRECORD
  5
177
102
{ACAD_REACTORS
330
15F
102
}
330
15F
100
AcDbXrecord
340
0
  0
XRECORD
  5
17D
102
{ACAD_REACTORS
330
15F
102
}
330
15F
100
AcDbXrecord
 10
0.0
 20
0.0
 30
0.0
  0
XRECORD
  5
179
102
{ACAD_REACTORS
330
15F
102
}
330
15F
100
AcDbXrecord
 10
0.0
 20
0.0
 30
0.0
  0
XRECORD
  5
17C
102
{ACAD_REACTORS
330
15F
102
}
330
15F
100
AcDbXrecord
 10
0.0
 20
0.0
 30
0.0
  0
XRECORD
  5
17A
102
{ACAD_REACTORS
330
15F
102
}
330
15F
100
AcDbXrecord
 10
0.0
 20
0.0
 30
0.0
  0
XRECORD
  5
17B
102
{ACAD_REACTORS
330
15F
102
}
330
15F
100
AcDbXrecord
 10
0.0
 20
0.0
 30
0.0
  0
XRECORD
  5
178
102
{ACAD_REACTORS
330
15F
102
}
330
15F
100
AcDbXrecord
 10
0.0
 20
0.0
 30
0.0
  0
XRECORD
  5
175
102
{ACAD_REACTORS
330
15F
102
}
330
15F
100
AcDbXrecord
340
0
  0
XRECORD
  5
176
102
{ACAD_REACTORS
330
15F
102
}
330
15F
100
AcDbXrecord
 70
     0
  0
XRECORD
  5
16A
102
{ACAD_REACTORS
330
15F
102
}
330
15F
100
AcDbXrecord
  1
{FAEB1C32-E019-11D5-929B-00C0DF256EC4}
  0
ENDSEC
  0
EOF
